  0
SECTION
  2
HEADER
  9
$ACADVER
  1
AC1009
  9
$INSBASE
 10
4410.8698120472172377
 20
272.77593440391081
 30
0.0
  9
$EXTMIN
 10
4407.1203120472182491
 20
269.9899344039108087
 30
0.0
  9
$EXTMAX
 10
4410.8813294315523308
 20
274.6509344039106963
 30
0.0
  9
$LIMMIN
 10
0.0
 20
0.0
  9
$LIMMAX
 10
11.6929133858000007
 20
8.2677165353999982
  9
$ORTHOMODE
 70
     0
  9
$REGENMODE
 70
     1
  9
$FILLMODE
 70
     1
  9
$QTEXTMODE
 70
     0
  9
$MIRRTEXT
 70
     0
  9
$DRAGMODE
 70
     2
  9
$LTSCALE
 40
0.6431102362
  9
$OSMODE
 70
  4095
  9
$ATTMODE
 70
     1
  9
$TEXTSIZE
 40
0.2
  9
$TRACEWID
 40
0.05
  9
$TEXTSTYLE
  7
STANDARD
  9
$CLAYER
  8
0
  9
$CELTYPE
  6
BYLAYER
  9
$CECOLOR
 62
   256
  9
$DIMSCALE
 40
1.0
  9
$DIMASZ
 40
0.1875
  9
$DIMEXO
 40
0.0625
  9
$DIMDLI
 40
0.4443307087
  9
$DIMRND
 40
0.0
  9
$DIMDLE
 40
0.0
  9
$DIMEXE
 40
0.125
  9
$DIMTP
 40
0.01
  9
$DIMTM
 40
0.01
  9
$DIMTXT
 40
2.0
  9
$DIMCEN
 40
0.1052362205
  9
$DIMTSZ
 40
0.0
  9
$DIMTOL
 70
     1
  9
$DIMLIM
 70
     0
  9
$DIMTIH
 70
     1
  9
$DIMTOH
 70
     1
  9
$DIMSE1
 70
     0
  9
$DIMSE2
 70
     0
  9
$DIMTAD
 70
     0
  9
$DIMZIN
 70
     0
  9
$DIMBLK
  1

  9
$DIMASO
 70
     1
  9
$DIMSHO
 70
     1
  9
$DIMPOST
  1
\X
  9
$DIMAPOST
  1

  9
$DIMALT
 70
     1
  9
$DIMALTD
 70
     2
  9
$DIMALTF
 40
25.3999999999999986
  9
$DIMLFAC
 40
1.0
  9
$DIMTOFL
 70
     0
  9
$DIMTVP
 40
0.0
  9
$DIMTIX
 70
     0
  9
$DIMSOXD
 70
     0
  9
$DIMSAH
 70
     0
  9
$DIMBLK1
  1

  9
$DIMBLK2
  1

  9
$DIMSTYLE
  2
STANDARD
  9
$DIMCLRD
 70
     0
  9
$DIMCLRE
 70
     0
  9
$DIMCLRT
 70
     0
  9
$DIMTFAC
 40
1.0
  9
$DIMGAP
 40
0.09
  9
$LUNITS
 70
     2
  9
$LUPREC
 70
     4
  9
$SKETCHINC
 40
0.1
  9
$FILLETRAD
 40
0.0
  9
$AUNITS
 70
     0
  9
$AUPREC
 70
     0
  9
$MENU
  1
.
  9
$ELEVATION
 40
0.0
  9
$PELEVATION
 40
0.0
  9
$THICKNESS
 40
0.0
  9
$LIMCHECK
 70
     0
  9
$BLIPMODE
 70
     0
  9
$CHAMFERA
 40
0.0
  9
$CHAMFERB
 40
0.0
  9
$SKPOLY
 70
     0
  9
$TDCREATE
 40
2458060.468368056230247
  9
$TDUPDATE
 40
2459986.6064004627987742
  9
$TDINDWG
 40
0.6282709491
  9
$TDUSRTIMER
 40
0.6282709491
  9
$USRTIMER
 70
     1
  9
$ANGBASE
 50
0.0
  9
$ANGDIR
 70
     0
  9
$PDMODE
 70
     0
  9
$PDSIZE
 40
0.3125
  9
$PLINEWID
 40
0.0
  9
$COORDS
 70
     1
  9
$SPLFRAME
 70
     0
  9
$SPLINETYPE
 70
     6
  9
$SPLINESEGS
 70
     8
  9
$ATTDIA
 70
     1
  9
$ATTREQ
 70
     1
  9
$HANDLING
 70
     1
  9
$HANDSEED
  5
B665
  9
$SURFTAB1
 70
     6
  9
$SURFTAB2
 70
     6
  9
$SURFTYPE
 70
     6
  9
$SURFU
 70
     6
  9
$SURFV
 70
     6
  9
$UCSNAME
  2

  9
$UCSORG
 10
0.0
 20
0.0
 30
0.0
  9
$UCSXDIR
 10
1.0
 20
0.0
 30
0.0
  9
$UCSYDIR
 10
0.0
 20
1.0
 30
0.0
  9
$PUCSNAME
  2

  9
$PUCSORG
 10
0.0
 20
0.0
 30
0.0
  9
$PUCSXDIR
 10
1.0
 20
0.0
 30
0.0
  9
$PUCSYDIR
 10
0.0
 20
1.0
 30
0.0
  9
$USERI1
 70
     0
  9
$USERI2
 70
     0
  9
$USERI3
 70
     0
  9
$USERI4
 70
     0
  9
$USERI5
 70
     0
  9
$USERR1
 40
0.0
  9
$USERR2
 40
0.0
  9
$USERR3
 40
0.0
  9
$USERR4
 40
0.0
  9
$USERR5
 40
0.0
  9
$WORLDVIEW
 70
     1
  9
$SHADEDGE
 70
     3
  9
$SHADEDIF
 70
    70
  9
$TILEMODE
 70
     1
  9
$MAXACTVP
 70
    64
  9
$PLIMCHECK
 70
     0
  9
$PEXTMIN
 10
1.0000000000000000E+20
 20
1.0000000000000000E+20
 30
1.0000000000000000E+20
  9
$PEXTMAX
 10
-1.0000000000000000E+20
 20
-1.0000000000000000E+20
 30
-1.0000000000000000E+20
  9
$PLIMMIN
 10
0.0
 20
0.0
  9
$PLIMMAX
 10
12.0
 20
9.0
  9
$UNITMODE
 70
     0
  9
$VISRETAIN
 70
     1
  9
$PLINEGEN
 70
     0
  9
$PSLTSCALE
 70
     1
  0
ENDSEC
  0
SECTION
  2
TABLES
  0
TABLE
  2
VPORT
 70
     1
  0
VPORT
  2
*ACTIVE
 70
     0
 10
0.0
 20
0.0
 11
1.0
 21
1.0
 12
124.9319730831348068
 22
47.0720747237349713
 13
0.0
 23
0.0
 14
1.0
 24
1.0
 15
0.0
 25
0.0
 16
0.0
 26
0.0
 36
27.5337298366232197
 17
4284.0688476562490905
 27
225.2483596801758097
 37
0.0
 40
4.698945725915876
 41
2.5801630434782599
 42
50.0
 43
0.0
 44
0.0
 50
0.0
 51
0.0
 71
     0
 72
   100
 73
     1
 74
     1
 75
     0
 76
     0
 77
     0
 78
     0
  0
ENDTAB
  0
TABLE
  2
LTYPE
 70
     3
  0
LTYPE
  2
CONTINUOUS
 70
     0
  3
Solid line
 72
    65
 73
     0
 40
0.0
  0
LTYPE
  2
PHANTOM2
 70
     0
  3
___ _ _ ___ _ _ ___ _ _ ___ _ _
 72
    65
 73
     6
 40
1.25
 49
0.625
 49
-0.125
 49
0.125
 49
-0.125
 49
0.125
 49
-0.125
  0
ENDTAB
  0
TABLE
  2
LAYER
 70
     2
  0
LAYER
  2
0
 70
     0
 62
   255
  6
CONTINUOUS
  0
LAYER
  2
DEFPOINTS
 70
     0
 62
     7
  6
CONTINUOUS
  0
ENDTAB
  0
TABLE
  2
STYLE
 70
     1
  0
STYLE
  2
STANDARD
 70
     0
 40
0.0
 41
0.8
 50
0.0
 71
     0
 42
0.2
  3
txt
  4

  0
ENDTAB
  0
TABLE
  2
VIEW
 70
     0
  0
ENDTAB
  0
TABLE
  2
UCS
 70
     0
  0
ENDTAB
  0
TABLE
  2
APPID
 70
     9
  0
APPID
  2
ACAD
 70
     0
  0
APPID
  2
ACAD_MLEADERVER
 70
     0
  0
APPID
  2
ACAD_EXEMPT_FROM_CAD_STANDARDS
 70
     0
  0
APPID
  2
ACAD_NAV_VCDISPLAY
 70
     0
  0
APPID
  2
ACAECLAYERSTANDARD
 70
     0
  0
APPID
  2
ACCMTRANSPARENCY
 70
     0
  0
APPID
  2
ACAD_DSTYLE_DIMJAG
 70
     0
  0
APPID
  2
ACAD_DSTYLE_DIMTALN
 70
     0
  0
APPID
  2
ACDBATTR
 70
     0
  0
ENDTAB
  0
TABLE
  2
DIMSTYLE
 70
     2
  0
DIMSTYLE
  2
STANDARD
 70
     0
  3

  4

  5

  6

  7

 40
1.0
 41
0.1875
 42
0.0625
 43
0.38
 44
0.125
 45
0.0
 46
0.0
 47
0.01
 48
0.01
140
0.15625
141
0.09
142
0.0
143
25.3999999999999986
144
1.0
145
0.0
146
1.0
147
0.09
 71
     1
 72
     0
 73
     1
 74
     1
 75
     0
 76
     0
 77
     0
 78
     4
170
     0
171
     2
172
     0
173
     0
174
     0
175
     0
176
     0
177
     0
178
     0
  0
ENDTAB
  0
ENDSEC
  0
SECTION
  2
BLOCKS
  0
BLOCK
  8
0
  2
$MODEL_SPACE
 70
     0
 10
0.0
 20
0.0
 30
0.0
  3
$MODEL_SPACE
  1

  0
ENDBLK
  5
21
  8
0
  0
BLOCK
 67
     1
  8
0
  2
$PAPER_SPACE
 70
     0
 10
0.0
 20
0.0
 30
0.0
  3
$PAPER_SPACE
  1

  0
ENDBLK
  5
1D
 67
     1
  8
0
  0
BLOCK
  8
0
  2
_FILLED
 70
     0
 10
0.0
 20
0.0
 30
0.0
  3
_FILLED
  1

  0
SOLID
  5
B38C
  8
0
  6
BYBLOCK
 62
     0
 10
0.0
 20
0.0
 30
0.0
 11
-1.0
 21
0.1666666667
 31
0.0
 12
-1.0
 22
-0.1666666667
 32
0.0
 13
-1.0
 23
-0.1666666667
 33
0.0
  0
ENDBLK
  5
B38D
  8
0
  6
BYBLOCK
 62
     0
  0
ENDSEC
  0
SECTION
  2
ENTITIES
  0
ATTDEF
  5
3930
  8
DEFPOINTS
 10
4410.8706627648825815
 20
272.7790051897715102
 30
0.0
 40
0.001
  1
P32360-ULB
  3

  2
MODELNUMBER
 70
     0
1001
ACDBATTR
1070
     0
1070
     1
  0
ATTDEF
  5
3931
  8
DEFPOINTS
 10
4410.8706627648825815
 20
272.7773385231047882
 30
0.0
 40
0.001
  1
ONE
  3

  2
TRADENAME
 70
     0
1001
ACDBATTR
1070
     0
1070
     1
  0
ATTDEF
  5
3932
  8
DEFPOINTS
 10
4410.8706627648825815
 20
272.7756718564381231
 30
0.0
 40
0.001
  1
VALVE TRIM
  3

  2
PRODUCT
 70
     0
1001
ACDBATTR
1070
     0
1070
     1
  0
LINE
  5
B428
  8
0
 10
4407.1303120472166484
 20
272.1899344039107973
 30
0.0
 11
4407.9173120472169103
 21
272.1899344039107973
 31
0.0
  0
LINE
  5
B429
  8
0
 10
4407.1403120472168666
 20
269.9899344039108087
 30
0.0
 11
4407.907312047216692
 21
269.9899344039108087
 31
0.0
  0
LINE
  5
B42A
  8
0
 10
4408.9298120472176379
 20
273.6759344039107873
 30
0.0
 11
4410.1698120472174196
 21
273.6759344039107873
 31
0.0
  0
LINE
  5
B42B
  8
0
 10
4408.6198120472172377
 20
273.1779142750964979
 30
0.0
 11
4408.899812047216983
 21
273.1779142750964979
 31
0.0
  0
LINE
  5
B42C
  8
0
 10
4410.8698120472172377
 20
274.6509344039106963
 30
0.0
 11
4410.8698120472172377
 21
270.9009344039106963
 31
0.0
  0
LINE
  5
B42D
  8
0
 10
4410.1698120472174196
 20
274.5699270500488751
 30
0.0
 11
4410.1698120472174196
 21
270.9819417577725744
 31
0.0
  0
LINE
  5
B42E
  8
0
 10
4408.899812047216983
 20
273.6459344039108146
 30
0.0
 11
4408.899812047216983
 21
271.9059344039108055
 31
0.0
  0
LINE
  5
B42F
  8
0
 10
4410.8698120472172377
 20
274.6509344039106963
 30
0.0
 11
4410.2385903765807598
 21
274.6399163886716792
 31
0.0
  0
ARC
  5
B430
  8
0
 10
4410.2398120472180381
 20
274.5699270500488751
 30
0.0
 40
0.07
 50
90.9999999994545306
 51
180.0
  0
ARC
  5
B431
  8
0
 10
4408.9298120472176379
 20
273.6459344039108146
 30
0.0
 40
0.03
 50
90.0
 51
179.9999999999967031
  0
LINE
  5
B432
  8
0
 10
4408.5898120472165829
 20
273.1479142750965252
 30
0.0
 11
4408.5898120472165829
 21
272.4039545327249812
 31
0.0
  0
LINE
  5
B433
  8
0
 10
4408.5698120472170558
 20
273.164434403910775
 30
0.0
 11
4408.5698120472170558
 21
272.3874344039107882
 31
0.0
  0
ARC
  5
B434
  8
0
 10
4408.6198120472172377
 20
273.1479142750965252
 30
0.0
 40
0.03
 50
90.0
 51
180.0000000000163141
  0
LINE
  5
B435
  8
0
 10
4408.5548120472167284
 20
273.1794344039108182
 30
0.0
 11
4408.1083120472167138
 21
273.1794344039108182
 31
0.0
  0
ARC
  5
B436
  8
0
 10
4408.5548120472167284
 20
273.164434403910775
 30
0.0
 40
0.015
 50
0.0
 51
90.0
  0
LINE
  5
B437
  8
0
 10
4408.9298120472176379
 20
271.8759344039107759
 30
0.0
 11
4410.1698120472174196
 21
271.8759344039107759
 31
0.0
  0
LINE
  5
B438
  8
0
 10
4408.6198120472172377
 20
272.3739545327251221
 30
0.0
 11
4408.899812047216983
 21
272.3739545327251221
 31
0.0
  0
LINE
  5
B439
  8
0
 10
4410.8698120472172377
 20
270.9009344039106963
 30
0.0
 11
4410.2385903765807598
 21
270.9119524191498272
 31
0.0
  0
ARC
  5
B43A
  8
0
 10
4410.2398120472180381
 20
270.9819417577725744
 30
0.0
 40
0.07
 50
180.0
 51
269.0000000005455263
  0
ARC
  5
B43B
  8
0
 10
4408.9298120472176379
 20
271.9059344039108055
 30
0.0
 40
0.03
 50
180.0000000000032117
 51
270.0
  0
ARC
  5
B43C
  8
0
 10
4408.6198120472172377
 20
272.4039545327249812
 30
0.0
 40
0.03
 50
179.9999999999836859
 51
270.0
  0
LINE
  5
B43D
  8
0
 10
4408.5548120472167284
 20
272.3724344039108018
 30
0.0
 11
4408.111312047217325
 21
272.3724344039108018
 31
0.0
  0
ARC
  5
B43E
  8
0
 10
4408.5548120472167284
 20
272.3874344039107882
 30
0.0
 40
0.015
 50
270.0
 51
0.0
  0
LINE
  5
B43F
  8
0
 10
4408.5898120472165829
 20
273.0759344039108214
 30
0.0
 11
4408.5698120472170558
 21
273.0759344039108214
 31
0.0
  0
LINE
  5
B440
  8
0
 10
4408.5898120472165829
 20
272.4759344039107987
 30
0.0
 11
4408.5698120472170558
 21
272.4759344039107987
 31
0.0
  0
LINE
  5
B441
  8
0
 10
4407.1203120472182491
 20
272.1799344039108064
 30
0.0
 11
4407.1203120472182491
 21
270.0099344039107905
 31
0.0
  0
LINE
  5
B442
  8
0
 10
4407.9273120472180381
 20
272.1799344039108064
 30
0.0
 11
4407.9273120472180381
 21
270.0099344039107905
 31
0.0
  0
ARC
  5
B443
  8
0
 10
4408.111312047217325
 20
272.1884344039107759
 30
0.0
 40
0.184
 50
90.0
 51
175.2438846841669999
  0
ARC
  5
B444
  8
0
 10
4407.912997272175744
 20
272.2049344039107837
 30
0.0
 40
0.015
 50
270.0
 51
355.2438846841670284
  0
ARC
  5
B445
  8
0
 10
4408.1083120472167138
 20
272.1914344039108187
 30
0.0
 40
0.9879999999999999
 50
90.0
 51
179.2050176336620098
  0
ARC
  5
B446
  8
0
 10
4407.1354057053740689
 20
272.2049344039107837
 30
0.0
 40
0.015
 50
179.2050176336620098
 51
270.0
  0
ARC
  5
B447
  8
0
 10
4407.9173120472169103
 20
272.1799344039108064
 30
0.0
 40
0.01
 50
0.0000000000065138
 51
90.0
  0
ARC
  5
B448
  8
0
 10
4407.1303120472166484
 20
272.1799344039108064
 30
0.0
 40
0.01
 50
90.0
 51
180.0
  0
ARC
  5
B449
  8
0
 10
4407.1403120472168666
 20
270.0099344039107905
 30
0.0
 40
0.02
 50
180.0
 51
270.0
  0
ARC
  5
B44A
  8
0
 10
4407.907312047216692
 20
270.0099344039107905
 30
0.0
 40
0.02
 50
270.0
 51
0.0
  0
ENDSEC
  0
EOF
