  0
SECTION
  2
HEADER
  9
$ACADVER
  1
AC1009
  9
$INSBASE
 10
4392.5605554710837168
 20
263.2509062491017175
 30
0.0
  9
$EXTMIN
 10
4388.5382833892335839
 20
259.2286353916016992
 30
0.0
  9
$EXTMAX
 10
4396.5828275529347593
 20
267.2731795553016809
 30
0.0
  9
$LIMMIN
 10
0.0
 20
0.0
  9
$LIMMAX
 10
11.6929133858000007
 20
8.2677165353999982
  9
$ORTHOMODE
 70
     0
  9
$REGENMODE
 70
     1
  9
$FILLMODE
 70
     1
  9
$QTEXTMODE
 70
     0
  9
$MIRRTEXT
 70
     0
  9
$DRAGMODE
 70
     2
  9
$LTSCALE
 40
0.6431102362
  9
$OSMODE
 70
  4095
  9
$ATTMODE
 70
     1
  9
$TEXTSIZE
 40
0.2
  9
$TRACEWID
 40
0.05
  9
$TEXTSTYLE
  7
STANDARD
  9
$CLAYER
  8
0
  9
$CELTYPE
  6
BYLAYER
  9
$CECOLOR
 62
   256
  9
$DIMSCALE
 40
1.0
  9
$DIMASZ
 40
0.1875
  9
$DIMEXO
 40
0.0625
  9
$DIMDLI
 40
0.4443307087
  9
$DIMRND
 40
0.0
  9
$DIMDLE
 40
0.0
  9
$DIMEXE
 40
0.125
  9
$DIMTP
 40
0.01
  9
$DIMTM
 40
0.01
  9
$DIMTXT
 40
2.0
  9
$DIMCEN
 40
0.1052362205
  9
$DIMTSZ
 40
0.0
  9
$DIMTOL
 70
     1
  9
$DIMLIM
 70
     0
  9
$DIMTIH
 70
     1
  9
$DIMTOH
 70
     1
  9
$DIMSE1
 70
     0
  9
$DIMSE2
 70
     0
  9
$DIMTAD
 70
     0
  9
$DIMZIN
 70
     0
  9
$DIMBLK
  1

  9
$DIMASO
 70
     1
  9
$DIMSHO
 70
     1
  9
$DIMPOST
  1
\X
  9
$DIMAPOST
  1

  9
$DIMALT
 70
     1
  9
$DIMALTD
 70
     2
  9
$DIMALTF
 40
25.3999999999999986
  9
$DIMLFAC
 40
1.0
  9
$DIMTOFL
 70
     0
  9
$DIMTVP
 40
0.0
  9
$DIMTIX
 70
     0
  9
$DIMSOXD
 70
     0
  9
$DIMSAH
 70
     0
  9
$DIMBLK1
  1

  9
$DIMBLK2
  1

  9
$DIMSTYLE
  2
STANDARD
  9
$DIMCLRD
 70
     0
  9
$DIMCLRE
 70
     0
  9
$DIMCLRT
 70
     0
  9
$DIMTFAC
 40
1.0
  9
$DIMGAP
 40
0.09
  9
$LUNITS
 70
     2
  9
$LUPREC
 70
     4
  9
$SKETCHINC
 40
0.1
  9
$FILLETRAD
 40
0.0
  9
$AUNITS
 70
     0
  9
$AUPREC
 70
     0
  9
$MENU
  1
.
  9
$ELEVATION
 40
0.0
  9
$PELEVATION
 40
0.0
  9
$THICKNESS
 40
0.0
  9
$LIMCHECK
 70
     0
  9
$BLIPMODE
 70
     0
  9
$CHAMFERA
 40
0.0
  9
$CHAMFERB
 40
0.0
  9
$SKPOLY
 70
     0
  9
$TDCREATE
 40
2458060.468368056230247
  9
$TDUPDATE
 40
2459979.4724074071273208
  9
$TDINDWG
 40
0.6239538194000001
  9
$TDUSRTIMER
 40
0.6239538194000001
  9
$USRTIMER
 70
     1
  9
$ANGBASE
 50
0.0
  9
$ANGDIR
 70
     0
  9
$PDMODE
 70
     0
  9
$PDSIZE
 40
0.3125
  9
$PLINEWID
 40
0.0
  9
$COORDS
 70
     1
  9
$SPLFRAME
 70
     0
  9
$SPLINETYPE
 70
     6
  9
$SPLINESEGS
 70
     8
  9
$ATTDIA
 70
     1
  9
$ATTREQ
 70
     1
  9
$HANDLING
 70
     1
  9
$HANDSEED
  5
B3CA
  9
$SURFTAB1
 70
     6
  9
$SURFTAB2
 70
     6
  9
$SURFTYPE
 70
     6
  9
$SURFU
 70
     6
  9
$SURFV
 70
     6
  9
$UCSNAME
  2

  9
$UCSORG
 10
0.0
 20
0.0
 30
0.0
  9
$UCSXDIR
 10
1.0
 20
0.0
 30
0.0
  9
$UCSYDIR
 10
0.0
 20
1.0
 30
0.0
  9
$PUCSNAME
  2

  9
$PUCSORG
 10
0.0
 20
0.0
 30
0.0
  9
$PUCSXDIR
 10
1.0
 20
0.0
 30
0.0
  9
$PUCSYDIR
 10
0.0
 20
1.0
 30
0.0
  9
$USERI1
 70
     0
  9
$USERI2
 70
     0
  9
$USERI3
 70
     0
  9
$USERI4
 70
     0
  9
$USERI5
 70
     0
  9
$USERR1
 40
0.0
  9
$USERR2
 40
0.0
  9
$USERR3
 40
0.0
  9
$USERR4
 40
0.0
  9
$USERR5
 40
0.0
  9
$WORLDVIEW
 70
     1
  9
$SHADEDGE
 70
     3
  9
$SHADEDIF
 70
    70
  9
$TILEMODE
 70
     1
  9
$MAXACTVP
 70
    64
  9
$PLIMCHECK
 70
     0
  9
$PEXTMIN
 10
1.0000000000000000E+20
 20
1.0000000000000000E+20
 30
1.0000000000000000E+20
  9
$PEXTMAX
 10
-1.0000000000000000E+20
 20
-1.0000000000000000E+20
 30
-1.0000000000000000E+20
  9
$PLIMMIN
 10
0.0
 20
0.0
  9
$PLIMMAX
 10
12.0
 20
9.0
  9
$UNITMODE
 70
     0
  9
$VISRETAIN
 70
     1
  9
$PLINEGEN
 70
     0
  9
$PSLTSCALE
 70
     1
  0
ENDSEC
  0
SECTION
  2
TABLES
  0
TABLE
  2
VPORT
 70
     1
  0
VPORT
  2
*ACTIVE
 70
     0
 10
0.0
 20
0.0
 11
1.0
 21
1.0
 12
108.4774881941065985
 22
38.1723406349207508
 13
0.0
 23
0.0
 14
1.0
 24
1.0
 15
0.0
 25
0.0
 16
0.0
 26
0.0
 36
27.5337298366232197
 17
4284.0688476562490905
 27
225.2483596801758097
 37
0.0
 40
8.4634510453811895
 41
1.811304347826086
 42
50.0
 43
0.0
 44
0.0
 50
0.0
 51
0.0
 71
     0
 72
   100
 73
     1
 74
     1
 75
     0
 76
     0
 77
     0
 78
     0
  0
ENDTAB
  0
TABLE
  2
LTYPE
 70
     2
  0
LTYPE
  2
CONTINUOUS
 70
     0
  3
Solid line
 72
    65
 73
     0
 40
0.0
  0
LTYPE
  2
PHANTOM2
 70
     0
  3
___ _ _ ___ _ _ ___ _ _ ___ _ _
 72
    65
 73
     6
 40
1.25
 49
0.625
 49
-0.125
 49
0.125
 49
-0.125
 49
0.125
 49
-0.125
  0
ENDTAB
  0
TABLE
  2
LAYER
 70
     2
  0
LAYER
  2
0
 70
     0
 62
   255
  6
CONTINUOUS
  0
LAYER
  2
DEFPOINTS
 70
     0
 62
     7
  6
CONTINUOUS
  0
ENDTAB
  0
TABLE
  2
STYLE
 70
     1
  0
STYLE
  2
STANDARD
 70
     0
 40
0.0
 41
0.8
 50
0.0
 71
     0
 42
0.2
  3
txt
  4

  0
ENDTAB
  0
TABLE
  2
VIEW
 70
     0
  0
ENDTAB
  0
TABLE
  2
UCS
 70
     0
  0
ENDTAB
  0
TABLE
  2
APPID
 70
     9
  0
APPID
  2
ACAD
 70
     0
  0
APPID
  2
ACAD_MLEADERVER
 70
     0
  0
APPID
  2
ACAD_EXEMPT_FROM_CAD_STANDARDS
 70
     0
  0
APPID
  2
ACAD_NAV_VCDISPLAY
 70
     0
  0
APPID
  2
ACAECLAYERSTANDARD
 70
     0
  0
APPID
  2
ACCMTRANSPARENCY
 70
     0
  0
APPID
  2
ACAD_DSTYLE_DIMJAG
 70
     0
  0
APPID
  2
ACAD_DSTYLE_DIMTALN
 70
     0
  0
APPID
  2
ACDBATTR
 70
     0
  0
ENDTAB
  0
TABLE
  2
DIMSTYLE
 70
     1
  0
DIMSTYLE
  2
STANDARD
 70
     0
  3

  4

  5

  6

  7

 40
1.0
 41
0.1875
 42
0.0625
 43
0.38
 44
0.125
 45
0.0
 46
0.0
 47
0.01
 48
0.01
140
0.15625
141
0.09
142
0.0
143
25.3999999999999986
144
1.0
145
0.0
146
1.0
147
0.09
 71
     1
 72
     0
 73
     1
 74
     1
 75
     0
 76
     0
 77
     0
 78
     4
170
     0
171
     2
172
     0
173
     0
174
     0
175
     0
176
     0
177
     0
178
     0
  0
ENDTAB
  0
ENDSEC
  0
SECTION
  2
BLOCKS
  0
BLOCK
  8
0
  2
$MODEL_SPACE
 70
     0
 10
0.0
 20
0.0
 30
0.0
  3
$MODEL_SPACE
  1

  0
ENDBLK
  5
21
  8
0
  0
BLOCK
 67
     1
  8
0
  2
$PAPER_SPACE
 70
     0
 10
0.0
 20
0.0
 30
0.0
  3
$PAPER_SPACE
  1

  0
ENDBLK
  5
1D
 67
     1
  8
0
  0
ENDSEC
  0
SECTION
  2
ENTITIES
  0
ATTDEF
  5
3930
  8
DEFPOINTS
 10
4392.5568938123233238
 20
263.2554853745617152
 30
0.0
 40
0.001
  1
P32361-AD
  3

  2
MODELNUMBER
 70
     0
1001
ACDBATTR
1070
     0
1070
     1
  0
ATTDEF
  5
3931
  8
DEFPOINTS
 10
4392.5568938123233238
 20
263.2538187078949932
 30
0.0
 40
0.001
  1
ONE
  3

  2
TRADENAME
 70
     0
1001
ACDBATTR
1070
     0
1070
     1
  0
ATTDEF
  5
3932
  8
DEFPOINTS
 10
4392.5568938123233238
 20
263.2521520412283849
 30
0.0
 40
0.001
  1
VALVE TRIM
  3

  2
PRODUCT
 70
     0
1001
ACDBATTR
1070
     0
1070
     1
  0
CIRCLE
  5
B228
  8
0
 10
4392.5605554710837168
 20
263.2509074734517185
 30
0.0
 40
4.0222720818500006
  0
CIRCLE
  5
B229
  8
0
 10
4392.5605554710837168
 20
263.2509074734517185
 30
0.0
 40
3.584352636458108
  0
CIRCLE
  5
B22A
  8
0
 10
4392.5605554710837168
 20
263.2509074734517185
 30
0.0
 40
2.9960387717350692
  0
ARC
  5
B22B
  8
0
 10
4392.5605554710837168
 20
263.2509074734517185
 30
0.0
 40
2.7989823021747462
 50
264.4797223622172737
 51
275.5202776377827263
  0
ARC
  5
B22C
  8
0
 10
4392.5605554710837168
 20
263.2509074734517185
 30
0.0
 40
2.7989823021747462
 50
278.2575594747689252
 51
261.742440525282916
  0
ARC
  5
B22D
  8
0
 10
4392.5605554710837168
 20
263.2509074734517185
 30
0.0
 40
2.0091385186152459
 50
281.5419382347304236
 51
258.4580617652699175
  0
ARC
  5
B22E
  8
0
 10
4392.5605554710837168
 20
263.2509074734517185
 30
0.0
 40
0.786998775649999
 50
300.7171151954962056
 51
239.2828848045552945
  0
LINE
  5
B22F
  8
0
 10
4392.9625542467347259
 20
260.4749062491015934
 30
0.0
 11
4392.9625542467347259
 21
262.6549062491017139
 31
0.0
  0
ARC
  5
B230
  8
0
 10
4392.5605554710846263
 20
263.2509074734516048
 30
0.0
 40
0.4019987756501413
 50
0.0
 51
180.0
  0
LINE
  5
B231
  8
0
 10
4392.1585566954354363
 20
260.4749062491015934
 30
0.0
 11
4392.1585566954354363
 21
262.6549062491017139
 31
0.0
  0
LINE
  5
B232
  8
0
 10
4392.9525542467354171
 20
262.6649062491015911
 30
0.0
 11
4392.1685566954338356
 21
262.6649062491015911
 31
0.0
  0
LINE
  5
B233
  8
0
 10
4392.9525542467354171
 20
260.4649062491017162
 30
0.0
 11
4392.1685566954338356
 21
260.4649062491017162
 31
0.0
  0
ARC
  5
B234
  8
0
 10
4392.9525542467354171
 20
260.4749062491015934
 30
0.0
 40
0.01
 50
270.0
 51
0.0000000000032569
  0
ARC
  5
B235
  8
0
 10
4392.1685566954338356
 20
260.4749062491015934
 30
0.0
 40
0.01
 50
180.0000000000048885
 51
270.0
  0
ARC
  5
B236
  8
0
 10
4392.9525542467354171
 20
262.6549062491017139
 30
0.0
 40
0.01
 50
0.0
 51
90.0
  0
ARC
  5
B237
  8
0
 10
4392.1685566954338356
 20
262.6549062491017139
 30
0.0
 40
0.01
 50
90.0
 51
180.0000000000048885
  0
LINE
  5
B238
  8
0
 10
4392.1585566954354363
 20
262.6799062491016912
 30
0.0
 11
4392.1585566954354363
 21
263.2509074734516048
 31
0.0
  0
ARC
  5
B239
  8
0
 10
4392.1735566954348542
 20
262.6799062491016912
 30
0.0
 40
0.015
 50
180.0
 51
270.0
  0
LINE
  5
B23A
  8
0
 10
4392.9625542467347259
 20
262.6799062491016912
 30
0.0
 11
4392.9625542467347259
 21
263.2509074734516048
 31
0.0
  0
ARC
  5
B23B
  8
0
 10
4392.947554246735308
 20
262.6799062491016912
 30
0.0
 40
0.015
 50
270.0
 51
0.0
  0
ARC
  5
B23C
  8
0
 10
4392.5605554710837168
 20
263.2509062491017175
 30
0.0
 40
0.4169999999999999
 50
344.5849983016771034
 51
195.4150016984717126
  0
ARC
  5
B23D
  8
0
 10
4392.5605554710837168
 20
263.2509062491017175
 30
0.0
 40
0.805
 50
299.9588150815058043
 51
240.0411849184997948
  0
ENDSEC
  0
EOF
