  0
SECTION
  2
HEADER
  9
$ACADVER
  1
AC1009
  9
$INSBASE
 10
2923.4114006039258129
 20
144.4371350558760128
 30
0.0
  9
$EXTMIN
 10
2916.5987048175420568
 20
144.4322987670828127
 30
-0.0000000000000058
  9
$EXTMAX
 10
2930.3891868557411726
 20
150.9286736017579074
 30
0.0000000000000104
  9
$LIMMIN
 10
0.0
 20
0.0
  9
$LIMMAX
 10
11.6929133858000007
 20
8.2677165353999982
  9
$ORTHOMODE
 70
     0
  9
$REGENMODE
 70
     1
  9
$FILLMODE
 70
     1
  9
$QTEXTMODE
 70
     0
  9
$MIRRTEXT
 70
     0
  9
$DRAGMODE
 70
     2
  9
$LTSCALE
 40
0.6431102362
  9
$OSMODE
 70
  4095
  9
$ATTMODE
 70
     1
  9
$TEXTSIZE
 40
0.2
  9
$TRACEWID
 40
0.05
  9
$TEXTSTYLE
  7
STANDARD
  9
$CLAYER
  8
0
  9
$CELTYPE
  6
BYLAYER
  9
$CECOLOR
 62
   256
  9
$DIMSCALE
 40
1.0
  9
$DIMASZ
 40
0.1875
  9
$DIMEXO
 40
0.0625
  9
$DIMDLI
 40
0.4443307087
  9
$DIMRND
 40
0.0
  9
$DIMDLE
 40
0.0
  9
$DIMEXE
 40
0.125
  9
$DIMTP
 40
0.01
  9
$DIMTM
 40
0.01
  9
$DIMTXT
 40
2.0
  9
$DIMCEN
 40
0.1052362205
  9
$DIMTSZ
 40
0.0
  9
$DIMTOL
 70
     1
  9
$DIMLIM
 70
     0
  9
$DIMTIH
 70
     1
  9
$DIMTOH
 70
     1
  9
$DIMSE1
 70
     0
  9
$DIMSE2
 70
     0
  9
$DIMTAD
 70
     0
  9
$DIMZIN
 70
     0
  9
$DIMBLK
  1

  9
$DIMASO
 70
     1
  9
$DIMSHO
 70
     1
  9
$DIMPOST
  1
\X
  9
$DIMAPOST
  1

  9
$DIMALT
 70
     1
  9
$DIMALTD
 70
     2
  9
$DIMALTF
 40
25.3999999999999986
  9
$DIMLFAC
 40
1.0
  9
$DIMTOFL
 70
     0
  9
$DIMTVP
 40
0.0
  9
$DIMTIX
 70
     0
  9
$DIMSOXD
 70
     0
  9
$DIMSAH
 70
     0
  9
$DIMBLK1
  1

  9
$DIMBLK2
  1

  9
$DIMSTYLE
  2
STANDARD
  9
$DIMCLRD
 70
     0
  9
$DIMCLRE
 70
     0
  9
$DIMCLRT
 70
     0
  9
$DIMTFAC
 40
1.0
  9
$DIMGAP
 40
0.09
  9
$LUNITS
 70
     2
  9
$LUPREC
 70
     4
  9
$SKETCHINC
 40
0.1
  9
$FILLETRAD
 40
0.03
  9
$AUNITS
 70
     0
  9
$AUPREC
 70
     0
  9
$MENU
  1
.
  9
$ELEVATION
 40
0.0
  9
$PELEVATION
 40
0.0
  9
$THICKNESS
 40
0.0
  9
$LIMCHECK
 70
     0
  9
$BLIPMODE
 70
     0
  9
$CHAMFERA
 40
0.0
  9
$CHAMFERB
 40
0.0
  9
$SKPOLY
 70
     0
  9
$TDCREATE
 40
2458060.468368056230247
  9
$TDUPDATE
 40
2460110.5252314819954336
  9
$TDINDWG
 40
0.6920209491
  9
$TDUSRTIMER
 40
0.6920209491
  9
$USRTIMER
 70
     1
  9
$ANGBASE
 50
0.0
  9
$ANGDIR
 70
     0
  9
$PDMODE
 70
     0
  9
$PDSIZE
 40
0.3125
  9
$PLINEWID
 40
0.0
  9
$COORDS
 70
     1
  9
$SPLFRAME
 70
     0
  9
$SPLINETYPE
 70
     6
  9
$SPLINESEGS
 70
     8
  9
$ATTDIA
 70
     1
  9
$ATTREQ
 70
     1
  9
$HANDLING
 70
     1
  9
$HANDSEED
  5
396A9
  9
$SURFTAB1
 70
     6
  9
$SURFTAB2
 70
     6
  9
$SURFTYPE
 70
     6
  9
$SURFU
 70
     6
  9
$SURFV
 70
     6
  9
$UCSNAME
  2

  9
$UCSORG
 10
0.0
 20
0.0
 30
0.0
  9
$UCSXDIR
 10
1.0
 20
0.0
 30
0.0
  9
$UCSYDIR
 10
0.0
 20
1.0
 30
0.0
  9
$PUCSNAME
  2

  9
$PUCSORG
 10
0.0
 20
0.0
 30
0.0
  9
$PUCSXDIR
 10
1.0
 20
0.0
 30
0.0
  9
$PUCSYDIR
 10
0.0
 20
1.0
 30
0.0
  9
$USERI1
 70
     0
  9
$USERI2
 70
     0
  9
$USERI3
 70
     0
  9
$USERI4
 70
     0
  9
$USERI5
 70
     0
  9
$USERR1
 40
0.0
  9
$USERR2
 40
0.0
  9
$USERR3
 40
0.0
  9
$USERR4
 40
0.0
  9
$USERR5
 40
0.0
  9
$WORLDVIEW
 70
     1
  9
$SHADEDGE
 70
     3
  9
$SHADEDIF
 70
    70
  9
$TILEMODE
 70
     1
  9
$MAXACTVP
 70
    64
  9
$PLIMCHECK
 70
     0
  9
$PEXTMIN
 10
1.0000000000000000E+20
 20
1.0000000000000000E+20
 30
1.0000000000000000E+20
  9
$PEXTMAX
 10
-1.0000000000000000E+20
 20
-1.0000000000000000E+20
 30
-1.0000000000000000E+20
  9
$PLIMMIN
 10
0.0
 20
0.0
  9
$PLIMMAX
 10
12.0
 20
9.0
  9
$UNITMODE
 70
     0
  9
$VISRETAIN
 70
     1
  9
$PLINEGEN
 70
     0
  9
$PSLTSCALE
 70
     1
  0
ENDSEC
  0
SECTION
  2
TABLES
  0
TABLE
  2
VPORT
 70
     1
  0
VPORT
  2
*ACTIVE
 70
     0
 10
0.0
 20
0.0
 11
1.0
 21
1.0
 12
-380.1991693977342948
 22
-47.5810253914674206
 13
0.0
 23
0.0
 14
1.0
 24
1.0
 15
0.0
 25
0.0
 16
0.0
 26
0.0
 36
96.5995694866707311
 17
3303.693115234375
 27
195.2615115758877096
 37
0.0
 40
9.6902625412724017
 41
1.4307692307692299
 42
50.0
 43
0.0
 44
0.0
 50
0.0
 51
0.0
 71
     0
 72
   100
 73
     1
 74
     1
 75
     0
 76
     0
 77
     0
 78
     0
  0
ENDTAB
  0
TABLE
  2
LTYPE
 70
     2
  0
LTYPE
  2
CONTINUOUS
 70
     0
  3
Solid line
 72
    65
 73
     0
 40
0.0
  0
LTYPE
  2
PHANTOM2
 70
     0
  3
___ _ _ ___ _ _ ___ _ _ ___ _ _
 72
    65
 73
     6
 40
1.25
 49
0.625
 49
-0.125
 49
0.125
 49
-0.125
 49
0.125
 49
-0.125
  0
ENDTAB
  0
TABLE
  2
LAYER
 70
     2
  0
LAYER
  2
0
 70
     0
 62
   255
  6
CONTINUOUS
  0
LAYER
  2
DEFPOINTS
 70
     0
 62
     7
  6
CONTINUOUS
  0
ENDTAB
  0
TABLE
  2
STYLE
 70
     1
  0
STYLE
  2
STANDARD
 70
     0
 40
0.0
 41
0.8
 50
0.0
 71
     0
 42
0.2
  3
txt
  4

  0
ENDTAB
  0
TABLE
  2
VIEW
 70
     0
  0
ENDTAB
  0
TABLE
  2
UCS
 70
     0
  0
ENDTAB
  0
TABLE
  2
APPID
 70
     9
  0
APPID
  2
ACAD
 70
     0
  0
APPID
  2
ACAD_MLEADERVER
 70
     0
  0
APPID
  2
ACAD_EXEMPT_FROM_CAD_STANDARDS
 70
     0
  0
APPID
  2
ACAD_NAV_VCDISPLAY
 70
     0
  0
APPID
  2
ACAECLAYERSTANDARD
 70
     0
  0
APPID
  2
ACCMTRANSPARENCY
 70
     0
  0
APPID
  2
ACAD_DSTYLE_DIMJAG
 70
     0
  0
APPID
  2
ACAD_DSTYLE_DIMTALN
 70
     0
  0
APPID
  2
ACDBATTR
 70
     0
  0
ENDTAB
  0
TABLE
  2
DIMSTYLE
 70
     1
  0
DIMSTYLE
  2
STANDARD
 70
     0
  3

  4

  5

  6

  7

 40
1.0
 41
0.1875
 42
0.0625
 43
0.38
 44
0.125
 45
0.0
 46
0.0
 47
0.01
 48
0.01
140
0.15625
141
0.09
142
0.0
143
25.3999999999999986
144
1.0
145
0.0
146
1.0
147
0.09
 71
     1
 72
     0
 73
     1
 74
     1
 75
     0
 76
     0
 77
     0
 78
     4
170
     0
171
     2
172
     0
173
     0
174
     0
175
     0
176
     0
177
     0
178
     0
  0
ENDTAB
  0
ENDSEC
  0
SECTION
  2
BLOCKS
  0
BLOCK
  8
0
  2
$MODEL_SPACE
 70
     0
 10
0.0
 20
0.0
 30
0.0
  3
$MODEL_SPACE
  1

  0
ENDBLK
  5
21
  8
0
  0
BLOCK
 67
     1
  8
0
  2
$PAPER_SPACE
 70
     0
 10
0.0
 20
0.0
 30
0.0
  3
$PAPER_SPACE
  1

  0
ENDBLK
  5
1D
 67
     1
  8
0
  0
ENDSEC
  0
SECTION
  2
ENTITIES
  0
ATTDEF
  5
35BFF
  8
DEFPOINTS
 10
2923.4070470182828103
 20
144.4412013464479969
 30
0.0
 40
0.001
  1
P32413-BLE
  3

  2
MODELNUMBER
 70
     0
1001
ACDBATTR
1070
     0
1070
     1
  0
ATTDEF
  5
35C00
  8
DEFPOINTS
 10
2923.4070470182828103
 20
144.4395346797813033
 30
0.0
 40
0.001
  1
ONE
  3

  2
TRADENAME
 70
     0
1001
ACDBATTR
1070
     0
1070
     1
  0
ATTDEF
  5
35C01
  8
DEFPOINTS
 10
2923.4070470182828103
 20
144.4378680131146098
 30
0.0
 40
0.001
  1
BATHROOM SINK FAUCET
  3

  2
PRODUCT
 70
     0
1001
ACDBATTR
1070
     0
1070
     1
  0
ARC
  5
39568
  8
0
 10
2923.411400013662842
 20
150.4871350565360899
 30
0.0
 40
0.4399999993398963
 50
89.999923137287027
 51
134.8926133299378876
  0
ARC
  5
39569
  8
0
 10
2923.4113994241461114
 20
150.4871354513286121
 30
0.0
 40
0.4399993035872586
 50
134.8925952302678013
 51
180.0000514819737134
  0
LINE
  5
3956A
  8
0
 10
2922.9714001205588829
 20
150.4871350559760117
 30
0.0
 11
2922.9714001205588829
 21
144.83713505587599
 31
0.0
  0
LINE
  5
3956B
  8
0
 10
2922.2964006036258979
 20
144.83713505587599
 30
0.0
 11
2924.5264006042261826
 21
144.83713505587599
 31
0.0
  0
LINE
  5
3956C
  8
0
 10
2924.5364006039258129
 20
144.8271350558759991
 30
0.0
 11
2924.5364006039258129
 21
144.4371350558760128
 31
0.0
  0
LINE
  5
3956D
  8
0
 10
2924.5364006039258129
 20
144.4371350558760128
 30
0.0
 11
2922.2864006039258129
 21
144.4371350558760128
 31
0.0
  0
LINE
  5
3956E
  8
0
 10
2922.2864006039258129
 20
144.4371350558760128
 30
0.0
 11
2922.2864006039258129
 21
144.8271350558759991
 31
0.0
  0
ARC
  5
3956F
  8
0
 10
2922.2964006039260312
 20
144.8271350558759991
 30
0.0
 40
0.01
 50
90.0000017188812649
 51
180.0
  0
ARC
  5
39570
  8
0
 10
2924.5264006039260494
 20
144.8271350558759991
 30
0.0
 40
0.01
 50
0.0
 51
89.9999982811187351
  0
ARC
  5
39571
  8
0
 10
2923.4114000144090824
 20
150.4871350565360899
 30
0.0
 40
0.4399999993398828
 50
45.1073866700620627
 51
89.9999232344725471
  0
ARC
  5
39572
  8
0
 10
2923.4114006039258129
 20
150.4871354513286121
 30
0.0
 40
0.4399993035872222
 50
359.9999485180246097
 51
45.1074047697321632
  0
LINE
  5
39573
  8
0
 10
2923.8513999075130414
 20
150.4871350559760117
 30
0.0
 11
2923.8513999075130414
 21
144.83713505587599
 31
0.0
  0
ARC
  5
39574
  8
0
 10
2922.9734093434640272
 20
149.2873422889101107
 30
0.0
 40
0.0020153236821308
 50
167.0663506217813108
 51
174.4096471878191039
  0
ARC
  5
39575
  8
0
 10
2922.9726847289548459
 20
149.2875086957307929
 30
0.0
 40
0.0012718471079406
 50
147.2624930483407866
 51
167.0663506217564134
  0
ARC
  5
39576
  8
0
 10
2922.974540897857878
 20
149.2863153398710097
 30
0.0
 40
0.0034785326776002
 50
118.4501724645417937
 51
147.2624930483353012
  0
ARC
  5
39577
  8
0
 10
2922.9848094252729425
 20
149.2673637801553923
 30
0.0
 40
0.0250332136295965
 50
107.3156939906486969
 51
118.4501724645417937
  0
ARC
  5
39578
  8
0
 10
2923.0174846637969495
 20
149.1625567877825063
 30
0.0
 40
0.1348156205208026
 50
91.7070163425551357
 51
107.3156939906486969
  0
ARC
  5
39579
  8
0
 10
2923.2565960917950179
 20
146.6032734270195874
 30
0.0
 40
2.7049875953159139
 50
91.2375995838782359
 51
95.1567699318153331
  0
ARC
  5
3957A
  8
0
 10
2923.5519843528059027
 20
132.7023365108134954
 30
0.0
 40
16.6092709738332687
 50
90.4849672013058353
 51
91.0942646928125868
  0
ARC
  5
3957B
  8
0
 10
2923.3410585596011515
 20
144.4981402379438009
 30
0.0
 40
4.811611828165832
 50
91.2655159006117884
 51
91.701712061061798
  0
ARC
  5
3957C
  8
0
 10
2923.243410997240062
 20
135.5720900737705961
 30
0.0
 40
13.6836177615820898
 50
89.2965794991222026
 51
89.6772469088814006
  0
ARC
  5
3957D
  8
0
 10
2923.3750320879380524
 20
154.9971614677295975
 30
0.0
 40
5.741929768826652
 50
268.2098761350783889
 51
269.455762515993797
  0
ARC
  5
3957E
  8
0
 10
2923.3428301904068576
 20
153.9668235849945859
 30
0.0
 40
4.7110887942804966
 50
266.9949227548169119
 51
268.2098761350783889
  0
ARC
  5
3957F
  8
0
 10
2923.1813691960092001
 20
150.8911790983308947
 30
0.0
 40
1.63120914386282
 50
265.0055834694642272
 51
266.9949227548169119
  0
ARC
  5
39580
  8
0
 10
2923.0905289333381916
 20
149.8517034644299883
 30
0.0
 40
0.5877717730561747
 50
260.4359972895620103
 51
265.0055834694642272
  0
ARC
  5
39581
  8
0
 10
2923.0020125486089455
 20
149.3263561245910864
 30
0.0
 40
0.0550195061992414
 50
244.5436425260388944
 51
260.4359972895620103
  0
ARC
  5
39582
  8
0
 10
2922.9835589910057934
 20
149.2875914751388962
 30
0.0
 40
0.0120866302720813
 50
208.1150283667410008
 51
244.5436425260382123
  0
ARC
  5
39583
  8
0
 10
2922.9847985941901243
 20
149.2882537794965003
 30
0.0
 40
0.0134920708142322
 50
186.8774535557244008
 51
208.1150283667410008
  0
ARC
  5
39584
  8
0
 10
2923.0338500304001172
 20
149.2774872351697013
 30
0.0
 40
0.0014134081039379
 50
125.6194765576062053
 51
240.1784218887565885
  0
ARC
  5
39585
  8
0
 10
2923.4106352029020854
 20
156.2942966778346943
 30
0.0
 40
7.0366302658161981
 50
269.3358747580571162
 51
270.0062322797573984
  0
ARC
  5
39586
  8
0
 10
2923.3967679492648131
 20
155.0979868961281909
 30
0.0
 40
5.8402401143480178
 50
267.9456413370629093
 51
269.3358747580571162
  0
ARC
  5
39587
  8
0
 10
2923.2779837070920621
 20
151.7865305837622998
 30
0.0
 40
2.5266540501426
 50
266.3278163615311769
 51
267.9456413370629093
  0
ARC
  5
39588
  8
0
 10
2923.1871630256050594
 20
150.3714285020458874
 30
0.0
 40
1.1086405460236191
 50
263.3023321659492808
 51
266.3278163615311769
  0
ARC
  5
39589
  8
0
 10
2923.0733323450549506
 20
149.4020935972066866
 30
0.0
 40
0.1326448587511827
 50
253.4827886932527008
 51
263.3023321659492808
  0
ARC
  5
3958A
  8
0
 10
2923.0375599245771809
 20
149.2814610104902897
 30
0.0
 40
0.0068200319295774
 50
229.681754732671692
 51
253.4827886932530987
  0
ARC
  5
3958B
  8
0
 10
2923.0373962610101444
 20
149.2734912659477118
 30
0.0
 40
0.0067499611773428
 50
113.7745050856084958
 51
130.3399971422439876
  0
ARC
  5
3958C
  8
0
 10
2923.0485011279370156
 20
149.2482827884311973
 30
0.0
 40
0.0342960209346441
 50
100.017244790685595
 51
113.7745050856084958
  0
ARC
  5
3958D
  8
0
 10
2923.1929006999148442
 20
148.4307909861917096
 30
0.0
 40
0.8644430459347308
 50
98.9128236309710189
 51
100.017244790685595
  0
ARC
  5
3958E
  8
0
 10
2923.116797680128002
 20
148.9160640976236891
 30
0.0
 40
0.3732387480100064
 50
91.8845130813887749
 51
98.9128236309710189
  0
ARC
  5
3958F
  8
0
 10
2923.2673369805779657
 20
146.9897553670363095
 30
0.0
 40
2.3051026853949792
 50
92.0444889206359562
 51
94.0502694221199533
  0
ARC
  5
39590
  8
0
 10
2923.3446317614871077
 20
145.2718299729831131
 30
0.0
 40
4.0247236596805473
 50
91.452775938991806
 51
92.2716632312988168
  0
ARC
  5
39591
  8
0
 10
2923.4160057456269897
 20
142.329642679845108
 30
0.0
 40
6.9677755181197467
 50
90.8575048006098456
 51
91.4261150099910509
  0
ARC
  5
39592
  8
0
 10
2923.4114115400120681
 20
142.0634177838823007
 30
0.0
 40
7.2339183648910712
 50
90.0
 51
90.2243577169017641
  0
ARC
  5
39593
  8
0
 10
2923.4091930329550451
 20
142.6299703555073961
 30
0.0
 40
6.6673614496667231
 50
90.2243577169017641
 51
90.7406224439938711
  0
ARC
  5
39594
  8
0
 10
2923.230798717118887
 20
156.4300815683558028
 30
0.0
 40
7.1339027684731251
 50
270.6499952096633024
 51
270.7406224439939137
  0
LINE
  5
39595
  8
0
 10
2923.2075979543910762
 20
149.2942200923654923
 30
0.0
 11
2923.2075983850991179
 21
149.2886164639079141
 31
0.0
  0
LINE
  5
39596
  8
0
 10
2923.2075983850991179
 20
149.2886164639079141
 30
0.0
 11
2923.3414040883981215
 21
149.285715788707904
 31
0.0
  0
LINE
  5
39597
  8
0
 10
2923.3414040883981215
 20
149.285715788707904
 30
0.0
 11
2923.3414040883981215
 21
149.296987181607193
 31
0.0
  0
ARC
  5
39598
  8
0
 10
2923.8493976535528418
 20
149.2873422889101107
 30
0.0
 40
0.0020153236821308
 50
5.5903528121809281
 51
12.9336493782187105
  0
ARC
  5
39599
  8
0
 10
2923.8501222680620231
 20
149.2875086957307929
 30
0.0
 40
0.0012718471079406
 50
12.9336493782435902
 51
32.7375069516592418
  0
ARC
  5
3959A
  8
0
 10
2923.848266099158991
 20
149.2863153398710097
 30
0.0
 40
0.0034785326776002
 50
32.7375069516647201
 51
61.5498275354581494
  0
ARC
  5
3959B
  8
0
 10
2923.8379975717439265
 20
149.2673637801553923
 30
0.0
 40
0.0250332136295965
 50
61.5498275354581494
 51
72.6843060093512321
  0
ARC
  5
3959C
  8
0
 10
2923.8165074731409732
 20
149.2258205203843886
 30
0.0
 40
0.0715557423631335
 50
66.1431819582815166
 51
87.5825405360380813
  0
ARC
  5
3959D
  8
0
 10
2923.5763982991020384
 20
146.6032734270195874
 30
0.0
 40
2.7049875953159139
 50
84.8432300681846527
 51
88.7624004161217641
  0
ARC
  5
3959E
  8
0
 10
2923.3172930637538229
 20
134.9194868311869016
 30
0.0
 40
14.3918333659320705
 50
88.8815885071361009
 51
89.625342848220015
  0
ARC
  5
3959F
  8
0
 10
2923.4919358312968143
 20
144.4981402379438009
 30
0.0
 40
4.811611828165832
 50
88.2982879389382163
 51
88.7344840993882258
  0
ARC
  5
395A0
  8
0
 10
2923.7834165773201676
 20
109.3335113199838986
 30
0.0
 40
39.922898625058032
 50
90.3888081675952151
 51
90.5339104724931047
  0
ARC
  5
395A1
  8
0
 10
2923.4579623029599134
 20
154.9971614677295975
 30
0.0
 40
5.741929768826652
 50
270.544237484006203
 51
271.7901238649216111
  0
ARC
  5
395A2
  8
0
 10
2923.4901642004911082
 20
153.9668235849945859
 30
0.0
 40
4.7110887942804966
 50
271.7901238649216111
 51
273.0050772451829744
  0
ARC
  5
395A3
  8
0
 10
2923.6516251948869467
 20
150.8911790983308947
 30
0.0
 40
1.63120914386282
 50
273.0050772451829744
 51
274.9944165305357728
  0
ARC
  5
395A4
  8
0
 10
2923.7536337624960652
 20
149.6217684556567917
 30
0.0
 40
0.3578479789055713
 50
276.418268935220226
 51
282.2749347588413116
  0
ARC
  5
395A5
  8
0
 10
2923.8204519876730956
 20
149.3278974440316915
 30
0.0
 40
0.0565594844881304
 50
279.4243092952623897
 51
295.0984730494892005
  0
ARC
  5
395A6
  8
0
 10
2923.8392480060110756
 20
149.2875914751388962
 30
0.0
 40
0.0120866302720813
 50
295.4563574739618161
 51
331.8849716332589992
  0
ARC
  5
395A7
  8
0
 10
2923.8380084028271995
 20
149.2882537794965003
 30
0.0
 40
0.0134920708142322
 50
331.8849716332589992
 51
353.1225464442754856
  0
ARC
  5
395A8
  8
0
 10
2923.799144360496939
 20
149.2774872351697013
 30
0.0
 40
0.0014134081039379
 50
299.8215781112432978
 51
54.3805234423937733
  0
ARC
  5
395A9
  8
0
 10
2923.4207362138167809
 20
156.4855652459978046
 30
0.0
 40
7.2279048213219559
 50
269.9259963699103082
 51
270.6594157007024251
  0
ARC
  5
395AA
  8
0
 10
2923.4362264416317885
 20
155.0979868961281909
 30
0.0
 40
5.8402401143480178
 50
270.6641252419429975
 51
272.0543586629370907
  0
ARC
  5
395AB
  8
0
 10
2923.5550106838049942
 20
151.7865305837622998
 30
0.0
 40
2.5266540501426
 50
272.0543586629370907
 51
273.6721836384688231
  0
ARC
  5
395AC
  8
0
 10
2923.6458313652919969
 20
150.3714285020458874
 30
0.0
 40
1.1086405460236191
 50
273.6721836384688231
 51
276.6976678340507192
  0
ARC
  5
395AD
  8
0
 10
2923.7596620458421057
 20
149.4020935972066866
 30
0.0
 40
0.1326448587511827
 50
276.6976678340507192
 51
286.5172113067472992
  0
ARC
  5
395AE
  8
0
 10
2923.7954344663198754
 20
149.2814610104902897
 30
0.0
 40
0.0068200319295774
 50
286.5172113067469013
 51
310.3182452673282796
  0
ARC
  5
395AF
  8
0
 10
2923.7955981298869119
 20
149.2734912659477118
 30
0.0
 40
0.0067499611773428
 50
49.6600028577559982
 51
66.2254949143914615
  0
ARC
  5
395B0
  8
0
 10
2923.7844932629600407
 20
149.2482827884311973
 30
0.0
 40
0.0342960209346441
 50
66.2254949143914615
 51
79.982755209314405
  0
ARC
  5
395B1
  8
0
 10
2923.6400936909808479
 20
148.4307909861917096
 30
0.0
 40
0.8644430459347308
 50
79.982755209314405
 51
81.0871763690289811
  0
ARC
  5
395B2
  8
0
 10
2923.7161967107690543
 20
148.9160640976236891
 30
0.0
 40
0.3732387480100064
 50
81.0871763690289811
 51
88.1154869186112393
  0
ARC
  5
395B3
  8
0
 10
2923.5656574103190906
 20
146.9897553670363095
 30
0.0
 40
2.3051026853949792
 50
85.9497305778800467
 51
87.955511079364058
  0
ARC
  5
395B4
  8
0
 10
2923.4883626294099486
 20
145.2718299729831131
 30
0.0
 40
4.0247236596805473
 50
87.7283367687011832
 51
88.5472240610082082
  0
ARC
  5
395B5
  8
0
 10
2923.4169886452691571
 20
142.329642679845108
 30
0.0
 40
6.9677755181197467
 50
88.5738849900089349
 51
89.1424951993901544
  0
ARC
  5
395B6
  8
0
 10
2923.4187732954042076
 20
141.0458630500345123
 30
0.0
 40
8.2514763827241797
 50
89.7838009729161683
 51
90.0511178303324158
  0
ARC
  5
395B7
  8
0
 10
2923.4238013579420112
 20
142.6299703555073961
 30
0.0
 40
6.6673614496667231
 50
89.2593775560061147
 51
89.7756422830982359
  0
ARC
  5
395B8
  8
0
 10
2923.6021956737781693
 20
156.4300815683558028
 30
0.0
 40
7.1339027684731251
 50
269.2593775560060863
 51
269.3500047903368113
  0
LINE
  5
395B9
  8
0
 10
2923.6152069711561126
 20
149.294554304795895
 30
0.0
 11
2923.6152064977841292
 21
149.2883955730754053
 31
0.0
  0
LINE
  5
395BA
  8
0
 10
2923.6152064977841292
 20
149.2883955730754053
 30
0.0
 11
2923.4814006039259766
 21
149.2854948937444988
 31
0.0
  0
LINE
  5
395BB
  8
0
 10
2923.4814006039259766
 20
149.2854948937444988
 30
0.0
 11
2923.4814006039259766
 21
149.2970830009757037
 31
0.0
  0
LINE
  5
395BC
  8
0
 10
2928.5364006039258129
 20
144.8171350558760082
 30
0.0
 11
2928.5364006039258129
 21
144.4371350558760128
 31
0.0
  0
LINE
  5
395BD
  8
0
 10
2928.5364006039258129
 20
144.4371350558760128
 30
0.0
 11
2926.2864006039258129
 21
144.4371350558760128
 31
0.0
  0
LINE
  5
395BE
  8
0
 10
2928.5164006039258311
 20
144.83713505587599
 30
0.0
 11
2926.3064006039257947
 21
144.83713505587599
 31
0.0
  0
ARC
  5
395BF
  8
0
 10
2926.3064006039257947
 20
144.8171350558760082
 30
0.0
 40
0.02
 50
90.0
 51
180.0
  0
ARC
  5
395C0
  8
0
 10
2928.5164006039258311
 20
144.8171350558760082
 30
0.0
 40
0.02
 50
0.0
 51
90.0
  0
LINE
  5
395C1
  8
0
 10
2926.2864006039258129
 20
144.8171350558760082
 30
0.0
 11
2926.2864006039258129
 21
144.4371350558760128
 31
0.0
  0
LINE
  5
395C2
  8
0
 10
2930.1696006039260283
 20
147.4070126663395115
 30
0.0
 11
2928.0252006039258958
 21
147.4070126663395115
 31
0.0
  0
LINE
  5
395C3
  8
0
 10
2930.1696006039260283
 20
146.5016986897597064
 30
0.0
 11
2928.0252006039258958
 21
146.5016986897597064
 31
0.0
  0
LINE
  5
395C4
  8
0
 10
2927.7734006038258485
 20
146.0071350558760059
 30
0.0
 11
2927.0494006039261876
 21
146.0071350558760059
 31
0.0
  0
LINE
  5
395C5
  8
0
 10
2927.7994006038261432
 20
146.0151350558759873
 30
0.0
 11
2927.0234006040259374
 21
146.0151350558759873
 31
0.0
  0
LINE
  5
395C6
  8
0
 10
2927.8134006039258566
 20
144.8771350558760105
 30
0.0
 11
2927.8134006039258566
 21
145.9671350558760139
 31
0.0
  0
LINE
  5
395C7
  8
0
 10
2927.8134006039258566
 20
146.0291350558759973
 30
0.0
 11
2927.8134006039258566
 21
146.3401350558671936
 31
0.0
  0
LINE
  5
395C8
  8
0
 10
2927.7614006039261767
 20
146.0071350558760059
 30
0.0
 11
2927.7614006039261767
 21
146.0151350558759873
 31
0.0
  0
LINE
  5
395C9
  8
0
 10
2927.0614006039259039
 20
146.0071350558760059
 30
0.0
 11
2927.0614006039259039
 21
146.0151350558759873
 31
0.0
  0
LINE
  5
395CA
  8
0
 10
2927.009400603926224
 20
144.8771350558760105
 30
0.0
 11
2927.009400603926224
 21
145.9671350558760139
 31
0.0
  0
LINE
  5
395CB
  8
0
 10
2927.009400603926224
 20
146.0291350558759973
 30
0.0
 11
2927.009400603926224
 21
146.3399780808568096
 31
0.0
  0
ARC
  5
395CC
  8
0
 10
2927.7734006039258929
 20
145.9671350558760139
 30
0.0
 40
0.04
 50
0.0
 51
90.0
  0
ARC
  5
395CD
  8
0
 10
2927.0494006039261876
 20
145.9671350558760139
 30
0.0
 40
0.04
 50
90.0
 51
180.0
  0
ARC
  5
395CE
  8
0
 10
2926.9694006039258056
 20
144.8771350558760105
 30
0.0
 40
0.04
 50
270.0
 51
0.0
  0
ARC
  5
395CF
  8
0
 10
2927.8534006039258202
 20
144.8771350558760105
 30
0.0
 40
0.04
 50
180.0
 51
270.0
  0
ARC
  5
395D0
  8
0
 10
2927.0234006039258929
 20
146.0291350558759973
 30
0.0
 40
0.014
 50
180.0
 51
270.0
  0
ARC
  5
395D1
  8
0
 10
2927.7994006039261876
 20
146.0291350558759973
 30
0.0
 40
0.014
 50
270.0
 51
0.0
  0
LINE
  5
395D2
  8
0
 10
2927.997400603926053
 20
147.3792126663394981
 30
0.0
 11
2927.997400603926053
 21
146.5294986897596914
 31
0.0
  0
ARC
  5
395D3
  8
0
 10
2928.0252006039258958
 20
146.5294986897596914
 30
0.0
 40
0.0278
 50
180.0
 51
270.0
  0
LINE
  5
395D4
  8
0
 10
2930.1974006039258711
 20
146.5294986897596914
 30
0.0
 11
2930.1974006039258711
 21
147.3792126663394981
 31
0.0
  0
ARC
  5
395D5
  8
0
 10
2930.1696006039260283
 20
146.5294986897596914
 30
0.0
 40
0.0278
 50
270.0
 51
0.0
  0
ARC
  5
395D6
  8
0
 10
2930.1696006039260283
 20
147.3792126663394981
 30
0.0
 40
0.0278
 50
0.0000000000032569
 51
90.0
  0
ARC
  5
395D7
  8
0
 10
2928.0252006039258958
 20
147.3792126663394981
 30
0.0
 40
0.0278
 50
90.0
 51
179.9999999999967031
  0
ARC
  5
395D8
  8
0
 10
2927.9970629353269942
 20
146.3404497202151049
 30
0.0
 40
0.1836626009540769
 50
93.9634132465428564
 51
180.0981634139137952
  0
ARC
  5
395D9
  8
0
 10
2927.9834006039259293
 20
146.5376395894190011
 30
0.0
 40
0.014
 50
273.9634132465429275
 51
0.0
  0
ARC
  5
395DA
  8
0
 10
2927.9975262684752124
 20
146.3400565684102048
 30
0.0
 40
0.9881256676657564
 50
90.8308674691882629
 51
180.0045510461989124
  0
ARC
  5
395DB
  8
0
 10
2927.9834006039259293
 20
147.3140798135160026
 30
0.0
 40
0.014
 50
0.0
 51
90.8308674691882629
  0
LINE
  5
395DC
  8
0
 10
2930.1696006039260283
 20
147.266499126313505
 30
0.0
 11
2928.0252006039258958
 21
147.266499126313505
 31
0.0
  0
ARC
  5
395DD
  8
0
 10
2930.1696006039260283
 20
147.2386991263134917
 30
0.0
 40
0.0278
 50
0.0000000000032569
 51
90.0
  0
ARC
  5
395DE
  8
0
 10
2928.0252006039258958
 20
147.2386991263134917
 30
0.0
 40
0.0278
 50
90.0
 51
179.9999999999967031
  0
LINE
  5
395DF
  8
0
 10
2930.1696006039260283
 20
147.192298182164393
 30
0.0
 11
2928.0252006039258958
 21
147.192298182164393
 31
0.0
  0
ARC
  5
395E0
  8
0
 10
2930.1696006039260283
 20
147.164498182164408
 30
0.0
 40
0.0278
 50
0.0000000000032569
 51
90.0
  0
ARC
  5
395E1
  8
0
 10
2928.0252006039258958
 20
147.164498182164408
 30
0.0
 40
0.0278
 50
90.0
 51
179.9999999999967031
  0
LINE
  5
395E2
  8
0
 10
2930.1696006039260283
 20
147.0701339718166878
 30
0.0
 11
2928.0252006039258958
 21
147.0701339718166878
 31
0.0
  0
ARC
  5
395E3
  8
0
 10
2930.1696006039260283
 20
147.0423339718167028
 30
0.0
 40
0.0278
 50
0.0000000000032569
 51
90.0
  0
ARC
  5
395E4
  8
0
 10
2928.0252006039258958
 20
147.0423339718167028
 30
0.0
 40
0.0278
 50
90.0
 51
179.9999999999967031
  0
LINE
  5
395E5
  8
0
 10
2930.1696006039260283
 20
146.5370136180517875
 30
0.0
 11
2928.0252006039258958
 21
146.5370136180517875
 31
0.0
  0
ARC
  5
395E6
  8
0
 10
2928.0252006039258958
 20
146.5648136180518861
 30
0.0
 40
0.0278
 50
180.0
 51
270.0
  0
ARC
  5
395E7
  8
0
 10
2930.1696006039260283
 20
146.5648136180518861
 30
0.0
 40
0.0278
 50
270.0
 51
0.0
  0
LINE
  5
395E8
  8
0
 10
2930.1696006039260283
 20
146.7802522825172105
 30
0.0
 11
2928.0252006039258958
 21
146.7802522825172105
 31
0.0
  0
ARC
  5
395E9
  8
0
 10
2928.0252006039258958
 20
146.8080522825171954
 30
0.0
 40
0.0278
 50
180.0
 51
270.0
  0
ARC
  5
395EA
  8
0
 10
2930.1696006039260283
 20
146.8080522825171954
 30
0.0
 40
0.0278
 50
270.0
 51
0.0
  0
LINE
  5
395EB
  8
0
 10
2930.1696006039260283
 20
146.9008312194384018
 30
0.0
 11
2928.0252006039258958
 21
146.9008312194384018
 31
0.0
  0
ARC
  5
395EC
  8
0
 10
2928.0252006039258958
 20
146.9286312194383868
 30
0.0
 40
0.0278
 50
180.0
 51
270.0
  0
ARC
  5
395ED
  8
0
 10
2930.1696006039260283
 20
146.9286312194383868
 30
0.0
 40
0.0278
 50
270.0
 51
0.0
  0
LINE
  5
395EE
  8
0
 10
2930.1974006039258711
 20
146.6814509066759911
 30
0.0
 11
2927.997400603926053
 21
146.6814509066759911
 31
0.0
  0
LINE
  5
395F0
  8
0
 10
2918.2864006039258129
 20
144.8171350558760082
 30
0.0
 11
2918.2864006039258129
 21
144.4371350558760128
 31
0.0
  0
LINE
  5
395F1
  8
0
 10
2918.2864006039258129
 20
144.4371350558760128
 30
0.0
 11
2920.5364006039258129
 21
144.4371350558760128
 31
0.0
  0
LINE
  5
395F2
  8
0
 10
2918.3064006039257947
 20
144.83713505587599
 30
0.0
 11
2920.5164006039258311
 21
144.83713505587599
 31
0.0
  0
ARC
  5
395F3
  8
0
 10
2920.5164006039258311
 20
144.8171350558760082
 30
0.0
 40
0.02
 50
0.0
 51
90.0
  0
ARC
  5
395F4
  8
0
 10
2918.3064006039257947
 20
144.8171350558760082
 30
0.0
 40
0.02
 50
90.0
 51
180.0
  0
LINE
  5
395F5
  8
0
 10
2920.5364006039258129
 20
144.8171350558760082
 30
0.0
 11
2920.5364006039258129
 21
144.4371350558760128
 31
0.0
  0
LINE
  5
395F6
  8
0
 10
2916.6532006039260523
 20
147.4070126663395115
 30
0.0
 11
2918.7976006039261847
 21
147.4070126663395115
 31
0.0
  0
LINE
  5
395F7
  8
0
 10
2916.6532006039260523
 20
146.5016986897597064
 30
0.0
 11
2918.7976006039261847
 21
146.5016986897597064
 31
0.0
  0
LINE
  5
395F8
  8
0
 10
2919.0494006040257773
 20
146.0071350558760059
 30
0.0
 11
2919.7734006039258929
 21
146.0071350558760059
 31
0.0
  0
LINE
  5
395F9
  8
0
 10
2919.0234006040259374
 20
146.0151350558759873
 30
0.0
 11
2919.7994006038261432
 21
146.0151350558759873
 31
0.0
  0
LINE
  5
395FA
  8
0
 10
2919.009400603926224
 20
144.8771350558760105
 30
0.0
 11
2919.009400603926224
 21
145.9671350558760139
 31
0.0
  0
LINE
  5
395FB
  8
0
 10
2919.009400603926224
 20
146.0291350558759973
 30
0.0
 11
2919.009400603926224
 21
146.3401350558671936
 31
0.0
  0
LINE
  5
395FC
  8
0
 10
2919.0614006039259039
 20
146.0071350558760059
 30
0.0
 11
2919.0614006039259039
 21
146.0151350558759873
 31
0.0
  0
LINE
  5
395FD
  8
0
 10
2919.7614006039261767
 20
146.0071350558760059
 30
0.0
 11
2919.7614006039261767
 21
146.0151350558759873
 31
0.0
  0
LINE
  5
395FE
  8
0
 10
2919.8134006039258566
 20
144.8771350558760105
 30
0.0
 11
2919.8134006039258566
 21
145.9671350558760139
 31
0.0
  0
LINE
  5
395FF
  8
0
 10
2919.8134006039258566
 20
146.0291350558759973
 30
0.0
 11
2919.8134006039258566
 21
146.3399780808568096
 31
0.0
  0
ARC
  5
39600
  8
0
 10
2919.0494006039261876
 20
145.9671350558760139
 30
0.0
 40
0.04
 50
90.0
 51
180.0
  0
ARC
  5
39601
  8
0
 10
2919.7734006039258929
 20
145.9671350558760139
 30
0.0
 40
0.04
 50
0.0
 51
90.0
  0
ARC
  5
39602
  8
0
 10
2919.8534006039258202
 20
144.8771350558760105
 30
0.0
 40
0.04
 50
180.0
 51
270.0
  0
ARC
  5
39603
  8
0
 10
2918.9694006039258056
 20
144.8771350558760105
 30
0.0
 40
0.04
 50
270.0
 51
0.0
  0
ARC
  5
39604
  8
0
 10
2919.7994006039261876
 20
146.0291350558759973
 30
0.0
 40
0.014
 50
270.0
 51
0.0
  0
ARC
  5
39605
  8
0
 10
2919.0234006039258929
 20
146.0291350558759973
 30
0.0
 40
0.014
 50
180.0
 51
270.0
  0
LINE
  5
39606
  8
0
 10
2918.8254006039260275
 20
147.3792126663394981
 30
0.0
 11
2918.8254006039260275
 21
146.5294986897596914
 31
0.0
  0
ARC
  5
39607
  8
0
 10
2918.7976006039261847
 20
146.5294986897596914
 30
0.0
 40
0.0278
 50
270.0
 51
0.0
  0
LINE
  5
39608
  8
0
 10
2916.6254006039262094
 20
146.5294986897596914
 30
0.0
 11
2916.6254006039262094
 21
147.3792126663394981
 31
0.0
  0
ARC
  5
39609
  8
0
 10
2916.6532006039260523
 20
146.5294986897596914
 30
0.0
 40
0.0278
 50
180.0
 51
270.0
  0
ARC
  5
3960A
  8
0
 10
2916.6532006039260523
 20
147.3792126663394981
 30
0.0
 40
0.0278
 50
90.0
 51
179.9999999999967031
  0
ARC
  5
3960B
  8
0
 10
2918.7976006039261847
 20
147.3792126663394981
 30
0.0
 40
0.0278
 50
0.0000000000032569
 51
90.0
  0
ARC
  5
3960C
  8
0
 10
2918.8257382725250864
 20
146.3404497202151049
 30
0.0
 40
0.1836626009540769
 50
359.9018365860861763
 51
86.0365867534571152
  0
ARC
  5
3960D
  8
0
 10
2918.8394006039261512
 20
146.5376395894190011
 30
0.0
 40
0.014
 50
180.0
 51
266.0365867534570725
  0
ARC
  5
3960E
  8
0
 10
2918.8252749393768681
 20
146.3400565684102048
 30
0.0
 40
0.9881256676657564
 50
359.9954489538009739
 51
89.1691325308117371
  0
ARC
  5
3960F
  8
0
 10
2918.8394006039261512
 20
147.3140798135160026
 30
0.0
 40
0.014
 50
89.1691325308117371
 51
180.0
  0
LINE
  5
39610
  8
0
 10
2916.6532006039260523
 20
147.266499126313505
 30
0.0
 11
2918.7976006039261847
 21
147.266499126313505
 31
0.0
  0
ARC
  5
39611
  8
0
 10
2916.6532006039260523
 20
147.2386991263134917
 30
0.0
 40
0.0278
 50
90.0
 51
179.9999999999967031
  0
ARC
  5
39612
  8
0
 10
2918.7976006039261847
 20
147.2386991263134917
 30
0.0
 40
0.0278
 50
0.0000000000032569
 51
90.0
  0
LINE
  5
39613
  8
0
 10
2916.6532006039260523
 20
147.192298182164393
 30
0.0
 11
2918.7976006039261847
 21
147.192298182164393
 31
0.0
  0
ARC
  5
39614
  8
0
 10
2916.6532006039260523
 20
147.164498182164408
 30
0.0
 40
0.0278
 50
90.0
 51
179.9999999999967031
  0
ARC
  5
39615
  8
0
 10
2918.7976006039261847
 20
147.164498182164408
 30
0.0
 40
0.0278
 50
0.0000000000032569
 51
90.0
  0
LINE
  5
39616
  8
0
 10
2916.6532006039260523
 20
147.0701339718166878
 30
0.0
 11
2918.7976006039261847
 21
147.0701339718166878
 31
0.0
  0
ARC
  5
39617
  8
0
 10
2916.6532006039260523
 20
147.0423339718167028
 30
0.0
 40
0.0278
 50
90.0
 51
179.9999999999967031
  0
ARC
  5
39618
  8
0
 10
2918.7976006039261847
 20
147.0423339718167028
 30
0.0
 40
0.0278
 50
0.0000000000032569
 51
90.0
  0
LINE
  5
39619
  8
0
 10
2916.6532006039260523
 20
146.5370136180517875
 30
0.0
 11
2918.7976006039261847
 21
146.5370136180517875
 31
0.0
  0
ARC
  5
3961A
  8
0
 10
2918.7976006039261847
 20
146.5648136180518861
 30
0.0
 40
0.0278
 50
270.0
 51
0.0
  0
ARC
  5
3961B
  8
0
 10
2916.6532006039260523
 20
146.5648136180518861
 30
0.0
 40
0.0278
 50
180.0
 51
270.0
  0
LINE
  5
3961C
  8
0
 10
2916.6532006039260523
 20
146.7802522825172105
 30
0.0
 11
2918.7976006039261847
 21
146.7802522825172105
 31
0.0
  0
ARC
  5
3961D
  8
0
 10
2918.7976006039261847
 20
146.8080522825171954
 30
0.0
 40
0.0278
 50
270.0
 51
0.0
  0
ARC
  5
3961E
  8
0
 10
2916.6532006039260523
 20
146.8080522825171954
 30
0.0
 40
0.0278
 50
180.0
 51
270.0
  0
LINE
  5
3961F
  8
0
 10
2916.6532006039260523
 20
146.9008312194384018
 30
0.0
 11
2918.7976006039261847
 21
146.9008312194384018
 31
0.0
  0
ARC
  5
39620
  8
0
 10
2918.7976006039261847
 20
146.9286312194383868
 30
0.0
 40
0.0278
 50
270.0
 51
0.0
  0
ARC
  5
39621
  8
0
 10
2916.6532006039260523
 20
146.9286312194383868
 30
0.0
 40
0.0278
 50
180.0
 51
270.0
  0
LINE
  5
39622
  8
0
 10
2916.6254006039262094
 20
146.6814509066759911
 30
0.0
 11
2918.8254006039260275
 21
146.6814509066759911
 31
0.0
  0
LINE
  5
39623
  8
0
 10
2923.2357864967389105
 20
149.2950815491506091
 30
0.0
 11
2923.2357815073328311
 21
149.2880055027777075
 31
0.0
  0
LINE
  5
39624
  8
0
 10
2923.5870156320511342
 20
149.2953433979836007
 30
0.0
 11
2923.5870156320511342
 21
149.2877844440795911
 31
0.0
  0
ENDSEC
  0
EOF
