  0
SECTION
  2
HEADER
  9
$ACADVER
  1
AC1009
  9
$INSBASE
 10
2905.0844093459008946
 20
141.1177261926783046
 30
0.0
  9
$EXTMIN
 10
2899.2557269430822089
 20
141.1085790939368962
 30
-0.0000000000112498
  9
$EXTMAX
 10
2906.3316092768259296
 20
147.6123154673697115
 30
0.0000000000002956
  9
$LIMMIN
 10
0.0
 20
0.0
  9
$LIMMAX
 10
11.6929133858000007
 20
8.2677165353999982
  9
$ORTHOMODE
 70
     0
  9
$REGENMODE
 70
     1
  9
$FILLMODE
 70
     1
  9
$QTEXTMODE
 70
     0
  9
$MIRRTEXT
 70
     0
  9
$DRAGMODE
 70
     2
  9
$LTSCALE
 40
0.6431102362
  9
$OSMODE
 70
  4095
  9
$ATTMODE
 70
     1
  9
$TEXTSIZE
 40
0.2
  9
$TRACEWID
 40
0.05
  9
$TEXTSTYLE
  7
STANDARD
  9
$CLAYER
  8
0
  9
$CELTYPE
  6
BYLAYER
  9
$CECOLOR
 62
   256
  9
$DIMSCALE
 40
1.0
  9
$DIMASZ
 40
0.1875
  9
$DIMEXO
 40
0.0625
  9
$DIMDLI
 40
0.4443307087
  9
$DIMRND
 40
0.0
  9
$DIMDLE
 40
0.0
  9
$DIMEXE
 40
0.125
  9
$DIMTP
 40
0.01
  9
$DIMTM
 40
0.01
  9
$DIMTXT
 40
2.0
  9
$DIMCEN
 40
0.1052362205
  9
$DIMTSZ
 40
0.0
  9
$DIMTOL
 70
     1
  9
$DIMLIM
 70
     0
  9
$DIMTIH
 70
     1
  9
$DIMTOH
 70
     1
  9
$DIMSE1
 70
     0
  9
$DIMSE2
 70
     0
  9
$DIMTAD
 70
     0
  9
$DIMZIN
 70
     0
  9
$DIMBLK
  1

  9
$DIMASO
 70
     1
  9
$DIMSHO
 70
     1
  9
$DIMPOST
  1
\X
  9
$DIMAPOST
  1

  9
$DIMALT
 70
     1
  9
$DIMALTD
 70
     2
  9
$DIMALTF
 40
25.3999999999999986
  9
$DIMLFAC
 40
1.0
  9
$DIMTOFL
 70
     0
  9
$DIMTVP
 40
0.0
  9
$DIMTIX
 70
     0
  9
$DIMSOXD
 70
     0
  9
$DIMSAH
 70
     0
  9
$DIMBLK1
  1

  9
$DIMBLK2
  1

  9
$DIMSTYLE
  2
STANDARD
  9
$DIMCLRD
 70
     0
  9
$DIMCLRE
 70
     0
  9
$DIMCLRT
 70
     0
  9
$DIMTFAC
 40
1.0
  9
$DIMGAP
 40
0.09
  9
$LUNITS
 70
     2
  9
$LUPREC
 70
     4
  9
$SKETCHINC
 40
0.1
  9
$FILLETRAD
 40
0.03
  9
$AUNITS
 70
     0
  9
$AUPREC
 70
     0
  9
$MENU
  1
.
  9
$ELEVATION
 40
0.0
  9
$PELEVATION
 40
0.0
  9
$THICKNESS
 40
0.0
  9
$LIMCHECK
 70
     0
  9
$BLIPMODE
 70
     0
  9
$CHAMFERA
 40
0.0
  9
$CHAMFERB
 40
0.0
  9
$SKPOLY
 70
     0
  9
$TDCREATE
 40
2458060.468368056230247
  9
$TDUPDATE
 40
2460110.5253935190849006
  9
$TDINDWG
 40
0.6914769676
  9
$TDUSRTIMER
 40
0.6914769676
  9
$USRTIMER
 70
     1
  9
$ANGBASE
 50
0.0
  9
$ANGDIR
 70
     0
  9
$PDMODE
 70
     0
  9
$PDSIZE
 40
0.3125
  9
$PLINEWID
 40
0.0
  9
$COORDS
 70
     1
  9
$SPLFRAME
 70
     0
  9
$SPLINETYPE
 70
     6
  9
$SPLINESEGS
 70
     8
  9
$ATTDIA
 70
     1
  9
$ATTREQ
 70
     1
  9
$HANDLING
 70
     1
  9
$HANDSEED
  5
393DD
  9
$SURFTAB1
 70
     6
  9
$SURFTAB2
 70
     6
  9
$SURFTYPE
 70
     6
  9
$SURFU
 70
     6
  9
$SURFV
 70
     6
  9
$UCSNAME
  2

  9
$UCSORG
 10
0.0
 20
0.0
 30
0.0
  9
$UCSXDIR
 10
1.0
 20
0.0
 30
0.0
  9
$UCSYDIR
 10
0.0
 20
1.0
 30
0.0
  9
$PUCSNAME
  2

  9
$PUCSORG
 10
0.0
 20
0.0
 30
0.0
  9
$PUCSXDIR
 10
1.0
 20
0.0
 30
0.0
  9
$PUCSYDIR
 10
0.0
 20
1.0
 30
0.0
  9
$USERI1
 70
     0
  9
$USERI2
 70
     0
  9
$USERI3
 70
     0
  9
$USERI4
 70
     0
  9
$USERI5
 70
     0
  9
$USERR1
 40
0.0
  9
$USERR2
 40
0.0
  9
$USERR3
 40
0.0
  9
$USERR4
 40
0.0
  9
$USERR5
 40
0.0
  9
$WORLDVIEW
 70
     1
  9
$SHADEDGE
 70
     3
  9
$SHADEDIF
 70
    70
  9
$TILEMODE
 70
     1
  9
$MAXACTVP
 70
    64
  9
$PLIMCHECK
 70
     0
  9
$PEXTMIN
 10
1.0000000000000000E+20
 20
1.0000000000000000E+20
 30
1.0000000000000000E+20
  9
$PEXTMAX
 10
-1.0000000000000000E+20
 20
-1.0000000000000000E+20
 30
-1.0000000000000000E+20
  9
$PLIMMIN
 10
0.0
 20
0.0
  9
$PLIMMAX
 10
12.0
 20
9.0
  9
$UNITMODE
 70
     0
  9
$VISRETAIN
 70
     1
  9
$PLINEGEN
 70
     0
  9
$PSLTSCALE
 70
     1
  0
ENDSEC
  0
SECTION
  2
TABLES
  0
TABLE
  2
VPORT
 70
     1
  0
VPORT
  2
*ACTIVE
 70
     0
 10
0.0
 20
0.0
 11
1.0
 21
1.0
 12
-400.8994471244212718
 22
-50.9010642952344199
 13
0.0
 23
0.0
 14
1.0
 24
1.0
 15
0.0
 25
0.0
 16
0.0
 26
0.0
 36
96.5995694866707311
 17
3303.693115234375
 27
195.2615115758877096
 37
0.0
 40
6.5537010574796417
 41
1.4307692307692299
 42
50.0
 43
0.0
 44
0.0
 50
0.0
 51
0.0
 71
     0
 72
   100
 73
     1
 74
     1
 75
     0
 76
     0
 77
     0
 78
     0
  0
ENDTAB
  0
TABLE
  2
LTYPE
 70
     2
  0
LTYPE
  2
CONTINUOUS
 70
     0
  3
Solid line
 72
    65
 73
     0
 40
0.0
  0
LTYPE
  2
PHANTOM2
 70
     0
  3
___ _ _ ___ _ _ ___ _ _ ___ _ _
 72
    65
 73
     6
 40
1.25
 49
0.625
 49
-0.125
 49
0.125
 49
-0.125
 49
0.125
 49
-0.125
  0
ENDTAB
  0
TABLE
  2
LAYER
 70
     2
  0
LAYER
  2
0
 70
     0
 62
   255
  6
CONTINUOUS
  0
LAYER
  2
DEFPOINTS
 70
     0
 62
     7
  6
CONTINUOUS
  0
ENDTAB
  0
TABLE
  2
STYLE
 70
     1
  0
STYLE
  2
STANDARD
 70
     0
 40
0.0
 41
0.8
 50
0.0
 71
     0
 42
0.2
  3
txt
  4

  0
ENDTAB
  0
TABLE
  2
VIEW
 70
     0
  0
ENDTAB
  0
TABLE
  2
UCS
 70
     0
  0
ENDTAB
  0
TABLE
  2
APPID
 70
     9
  0
APPID
  2
ACAD
 70
     0
  0
APPID
  2
ACAD_MLEADERVER
 70
     0
  0
APPID
  2
ACAD_EXEMPT_FROM_CAD_STANDARDS
 70
     0
  0
APPID
  2
ACAD_NAV_VCDISPLAY
 70
     0
  0
APPID
  2
ACAECLAYERSTANDARD
 70
     0
  0
APPID
  2
ACCMTRANSPARENCY
 70
     0
  0
APPID
  2
ACAD_DSTYLE_DIMJAG
 70
     0
  0
APPID
  2
ACAD_DSTYLE_DIMTALN
 70
     0
  0
APPID
  2
ACDBATTR
 70
     0
  0
ENDTAB
  0
TABLE
  2
DIMSTYLE
 70
     1
  0
DIMSTYLE
  2
STANDARD
 70
     0
  3

  4

  5

  6

  7

 40
1.0
 41
0.1875
 42
0.0625
 43
0.38
 44
0.125
 45
0.0
 46
0.0
 47
0.01
 48
0.01
140
0.15625
141
0.09
142
0.0
143
25.3999999999999986
144
1.0
145
0.0
146
1.0
147
0.09
 71
     1
 72
     0
 73
     1
 74
     1
 75
     0
 76
     0
 77
     0
 78
     4
170
     0
171
     2
172
     0
173
     0
174
     0
175
     0
176
     0
177
     0
178
     0
  0
ENDTAB
  0
ENDSEC
  0
SECTION
  2
BLOCKS
  0
BLOCK
  8
0
  2
$MODEL_SPACE
 70
     0
 10
0.0
 20
0.0
 30
0.0
  3
$MODEL_SPACE
  1

  0
ENDBLK
  5
21
  8
0
  0
BLOCK
 67
     1
  8
0
  2
$PAPER_SPACE
 70
     0
 10
0.0
 20
0.0
 30
0.0
  3
$PAPER_SPACE
  1

  0
ENDBLK
  5
1D
 67
     1
  8
0
  0
ENDSEC
  0
SECTION
  2
ENTITIES
  0
ATTDEF
  5
35BFF
  8
DEFPOINTS
 10
2905.0803837026719521
 20
141.1214374779005141
 30
0.0
 40
0.001
  1
P32413-BLE
  3

  2
MODELNUMBER
 70
     0
1001
ACDBATTR
1070
     0
1070
     1
  0
ATTDEF
  5
35C00
  8
DEFPOINTS
 10
2905.0803837026719521
 20
141.1197708112339058
 30
0.0
 40
0.001
  1
ONE
  3

  2
TRADENAME
 70
     0
1001
ACDBATTR
1070
     0
1070
     1
  0
ATTDEF
  5
35C01
  8
DEFPOINTS
 10
2905.0803837026719521
 20
141.1181041445672122
 30
0.0
 40
0.001
  1
BATHROOM SINK FAUCET
  3

  2
PRODUCT
 70
     0
1001
ACDBATTR
1070
     0
1070
     1
  0
LINE
  5
3931E
  8
0
 10
2904.6784093459009455
 20
141.5177261926781966
 30
0.0
 11
2904.6784091073509444
 21
141.5177261926781966
 31
0.0
  0
ARC
  5
3931F
  8
0
 10
2906.199409345901131
 20
141.5077261926782057
 30
0.0
 40
0.0099999999999998
 50
0.0
 51
90.0
  0
LINE
  5
39320
  8
0
 10
2906.2094093459008946
 20
141.5077261926782057
 30
0.0
 11
2906.2094093459008946
 21
141.1177261926783046
 31
0.0
  0
ARC
  5
39321
  8
0
 10
2906.1894093459009127
 20
141.4977261926781864
 30
0.0
 40
0.02
 50
0.0
 51
90.0
  0
LINE
  5
39322
  8
0
 10
2906.2094093459008946
 20
141.1177261926783046
 30
0.0
 11
2903.9594093459008946
 21
141.1177261926783046
 31
0.0
  0
LINE
  5
39323
  8
0
 10
2906.199409345901131
 20
141.5177261926781966
 30
0.0
 11
2903.9694093459011128
 21
141.5177261926781966
 31
0.0
  0
ARC
  5
39324
  8
0
 10
2903.9794093459008764
 20
141.4977261926781864
 30
0.0
 40
0.02
 50
90.0
 51
180.0
  0
ARC
  5
39325
  8
0
 10
2903.9694093459011128
 20
141.5077261926782057
 30
0.0
 40
0.0099999999999998
 50
90.0
 51
180.0
  0
LINE
  5
39326
  8
0
 10
2903.9594093459008946
 20
141.5077261926782057
 30
0.0
 11
2903.9594093459008946
 21
141.1177261926783046
 31
0.0
  0
LINE
  5
39327
  8
0
 10
2904.6444096715881642
 20
146.293726547152005
 30
0.0
 11
2904.6444094387547921
 21
143.7937340899918865
 31
0.0
  0
LINE
  5
39328
  8
0
 10
2904.6444094209391551
 20
143.6024308330916881
 30
0.0
 11
2904.6444092267870474
 21
141.5177762164834974
 31
0.0
  0
ARC
  5
39329
  8
0
 10
2904.2044096715890191
 20
146.2937265881307951
 30
0.0
 40
0.4400000000000001
 50
359.9999946638349115
 51
90.0
  0
LINE
  5
3932A
  8
0
 10
2905.5244094316080918
 20
146.2877261359977012
 30
0.0
 11
2905.5244093245369186
 21
143.7942227581816041
 31
0.0
  0
LINE
  5
3932B
  8
0
 10
2905.5244093161081764
 20
143.597927345488813
 30
0.0
 11
2905.5244092267871565
 21
141.5177762314517906
 31
0.0
  0
LINE
  5
3932C
  8
0
 10
2900.6719115777509614
 20
146.7337265881307928
 30
0.0
 11
2904.2044096715890191
 21
146.7337265881307928
 31
0.0
  0
LINE
  5
3932D
  8
0
 10
2904.2044094316079281
 20
147.6077261926782001
 30
0.0
 11
2900.6719115777509614
 21
147.6077261926782001
 31
0.0
  0
ARC
  5
3932E
  8
0
 10
2904.2044094316079281
 20
146.2877261926782069
 30
0.0
 40
1.3200000000000001
 50
359.9999975397304866
 51
90.0
  0
LINE
  5
3932F
  8
0
 10
2899.3537205918541986
 20
146.356810050348912
 30
0.0
 11
2899.3345357101047739
 21
145.9907403088433
 31
0.0
  0
LINE
  5
39330
  8
0
 10
2900.232514582451131
 20
146.3107544087808094
 30
0.0
 11
2900.2133297007048895
 21
145.9446846673579046
 31
0.0
  0
LINE
  5
39331
  8
0
 10
2900.2025255928710976
 20
145.935237163159087
 30
0.0
 11
2899.3439988051068212
 21
145.980230645565598
 31
0.0
  0
ARC
  5
39332
  8
0
 10
2899.3445220055691607
 20
145.9902169493743997
 30
0.0
 40
0.0100000001119116
 50
177.0000005700692896
 51
267.000912828576304
  0
ARC
  5
39333
  8
0
 10
2900.2033367646031365
 20
145.9452110200070081
 30
0.0
 40
0.0100067886943289
 50
265.3503801409318044
 51
356.9848757348735262
  0
ARC
  5
39334
  8
0
 10
2900.6771736107680226
 20
146.2885443215861869
 30
0.0
 40
0.4452133639473031
 50
90.6772018266810136
 51
177.1405335574324909
  0
ARC
  5
39335
  8
0
 10
2900.6719108738911928
 20
146.2877269125322073
 30
0.0
 40
1.319999280146211
 50
89.9999694483322656
 51
177.0000124637194006
  0
ARC
  5
39336
  8
0
 10
2905.0844093763162164
 20
143.8948799311282016
 30
0.0
 40
0.1927238720135538
 50
38.6152432497688025
 51
141.3847565535465094
  0
ARC
  5
39337
  8
0
 10
2905.5004813198179363
 20
144.2272070736935916
 30
0.0
 40
0.3397770123566013
 50
218.6152432497688096
 51
235.5579712818338862
  0
ARC
  5
39338
  8
0
 10
2905.084808307331059
 20
143.6068541018073859
 30
0.0
 40
0.4070000346346677
 50
50.869267608972919
 51
56.6911895144165712
  0
ARC
  5
39339
  8
0
 10
2905.5198452232361888
 20
144.1446590999181012
 30
0.0
 40
0.2847345455844259
 50
231.2602102835085134
 51
250.7388933848766897
  0
ARC
  5
3933A
  8
0
 10
2905.3599724281712042
 20
143.6960750588960991
 30
0.0
 40
0.1915005581232555
 50
326.4323887582218049
 51
69.8568722544072642
  0
ARC
  5
3933B
  8
0
 10
2905.7667217251550937
 20
143.4201910257839927
 30
0.0
 40
0.2999999974238189
 50
145.4820248495470025
 51
164.6911898215294059
  0
ARC
  5
3933C
  8
0
 10
2905.0848083187238444
 20
143.606854133110005
 30
0.0
 40
0.4070000092987466
 50
338.8692673265645112
 51
344.6911896027160083
  0
ARC
  5
3933D
  8
0
 10
2905.7458462849699572
 20
143.3515207955900053
 30
0.0
 40
0.3016369440037122
 50
158.8953894192777909
 51
177.7661679736588098
  0
ARC
  5
3933E
  8
0
 10
2905.2550471668500904
 20
143.3718763037506108
 30
0.0
 40
0.189586477188717
 50
254.1598943939154083
 51
357.4005626137030731
  0
ARC
  5
3933F
  8
0
 10
2905.1161675600978924
 20
142.8508151970276003
 30
0.0
 40
0.3497024135643713
 50
75.5722870080137312
 51
92.0073746886325523
  0
ARC
  5
39340
  8
0
 10
2905.0848083274950113
 20
143.6068541294708041
 30
0.0
 40
0.4069999994925735
 50
266.869267295413124
 51
272.6911897003262197
  0
ARC
  5
39341
  8
0
 10
2905.0461959416829814
 20
142.9009093136783122
 30
0.0
 40
0.2999999999999197
 50
86.869267298596526
 51
106.0784321078150043
  0
ARC
  5
39342
  8
0
 10
2904.9125184941422049
 20
143.3716202884571089
 30
0.0
 40
0.1893304618952361
 50
182.0619668062527978
 51
285.4984901732890989
  0
ARC
  5
39343
  8
0
 10
2904.4234109776830337
 20
143.3570491147781922
 30
0.0
 40
0.3000000000000193
 50
1.4820248895832111
 51
20.6911896915892406
  0
ARC
  5
39344
  8
0
 10
2905.0848083176229011
 20
143.606854127297197
 30
0.0
 40
0.4069999897877766
 50
194.8692672838323006
 51
200.6911898357479913
  0
ARC
  5
39345
  8
0
 10
2904.4014830263831755
 20
143.4254277457783076
 30
0.0
 40
0.2999999999999833
 50
14.8692673093175394
 51
34.0784321170501983
  0
ARC
  5
39346
  8
0
 10
2904.8076581936938965
 20
143.6980824463379065
 30
0.0
 40
0.1892072750260152
 50
110.0146767365097986
 51
213.5457802756544083
  0
ARC
  5
39347
  8
0
 10
2904.6428466189499886
 20
144.1586863942357013
 30
0.0
 40
0.299999999705359
 50
289.482024867072198
 51
308.6911896936509265
  0
ARC
  5
39348
  8
0
 10
2905.0848083400951509
 20
143.6068541112767036
 30
0.0
 40
0.4070000225524768
 50
122.8692673594061944
 51
128.6911894394486069
  0
ARC
  5
39349
  8
0
 10
2904.6854487835980763
 20
144.2064149557166957
 30
0.0
 40
0.3134803170487914
 50
304.7028781124971033
 51
322.4023146370964241
  0
LINE
  5
3934A
  8
0
 10
2904.7224093763829842
 20
142.6877261926782126
 30
0.0
 11
2905.4464093762830998
 21
142.6877261926782126
 31
0.0
  0
LINE
  5
3934B
  8
0
 10
2904.6964093763831443
 20
142.6957261926783076
 30
0.0
 11
2905.4724093761828954
 21
142.6957261926783076
 31
0.0
  0
LINE
  5
3934C
  8
0
 10
2904.6824093762829762
 20
141.5577261926783024
 30
0.0
 11
2904.6824093762829762
 21
142.6477261926781921
 31
0.0
  0
LINE
  5
3934D
  8
0
 10
2904.6824093762829762
 20
142.7096970260442959
 30
0.0
 11
2904.6824093762829762
 21
143.530691157901714
 31
0.0
  0
LINE
  5
3934E
  8
0
 10
2904.7344093762831108
 20
142.6877261926782126
 30
0.0
 11
2904.7344093762831108
 21
142.6957261926783076
 31
0.0
  0
LINE
  5
3934F
  8
0
 10
2905.4344093762829289
 20
142.6877261926782126
 30
0.0
 11
2905.4344093762829289
 21
142.6957261926783076
 31
0.0
  0
LINE
  5
39350
  8
0
 10
2905.4864093762830635
 20
141.5577261926783024
 30
0.0
 11
2905.4864093762830635
 21
142.6477261926781921
 31
0.0
  0
LINE
  5
39351
  8
0
 10
2905.4864093762830635
 20
142.7097261926782039
 30
0.0
 11
2905.4864093762830635
 21
143.5270787497024969
 31
0.0
  0
ARC
  5
39352
  8
0
 10
2904.7224093762829398
 20
142.6477261926781921
 30
0.0
 40
0.04
 50
90.0
 51
180.0
  0
ARC
  5
39353
  8
0
 10
2905.4464093762830998
 20
142.6477261926781921
 30
0.0
 40
0.04
 50
0.0
 51
90.0
  0
ARC
  5
39354
  8
0
 10
2905.5264093762830271
 20
141.5577261926783024
 30
0.0
 40
0.04
 50
180.0
 51
270.0
  0
ARC
  5
39355
  8
0
 10
2904.6424093762830125
 20
141.5577261926783024
 30
0.0
 40
0.04
 50
270.0
 51
0.0
  0
ARC
  5
39356
  8
0
 10
2905.4724093762829398
 20
142.7097261926782039
 30
0.0
 40
0.014
 50
270.0
 51
0.0
  0
ARC
  5
39357
  8
0
 10
2904.6964093762830998
 20
142.7097261926782039
 30
0.0
 40
0.014
 50
180.0
 51
270.0
  0
ENDSEC
  0
EOF
