  0
SECTION
  2
HEADER
  9
$ACADVER
  1
AC1009
  9
$INSBASE
 10
4800.9643881672091084
 20
236.767093533204104
 30
0.0
  9
$EXTMIN
 10
4793.8734910772491276
 20
236.7502816555449101
 30
-0.0000000349181948
  9
$EXTMAX
 10
4802.3001160324565717
 20
247.5738205785833941
 30
0.0000000814935746
  9
$LIMMIN
 10
0.0
 20
0.0
  9
$LIMMAX
 10
11.6929133858000007
 20
8.2677165353999982
  9
$ORTHOMODE
 70
     0
  9
$REGENMODE
 70
     1
  9
$FILLMODE
 70
     1
  9
$QTEXTMODE
 70
     0
  9
$MIRRTEXT
 70
     0
  9
$DRAGMODE
 70
     2
  9
$LTSCALE
 40
0.6431102362
  9
$OSMODE
 70
  4095
  9
$ATTMODE
 70
     1
  9
$TEXTSIZE
 40
0.2
  9
$TRACEWID
 40
0.05
  9
$TEXTSTYLE
  7
STANDARD
  9
$CLAYER
  8
0
  9
$CELTYPE
  6
BYLAYER
  9
$CECOLOR
 62
   256
  9
$DIMSCALE
 40
1.0
  9
$DIMASZ
 40
0.1875
  9
$DIMEXO
 40
0.0625
  9
$DIMDLI
 40
0.4443307087
  9
$DIMRND
 40
0.0
  9
$DIMDLE
 40
0.0
  9
$DIMEXE
 40
0.125
  9
$DIMTP
 40
0.01
  9
$DIMTM
 40
0.01
  9
$DIMTXT
 40
2.0
  9
$DIMCEN
 40
0.1052362205
  9
$DIMTSZ
 40
0.0
  9
$DIMTOL
 70
     1
  9
$DIMLIM
 70
     0
  9
$DIMTIH
 70
     1
  9
$DIMTOH
 70
     1
  9
$DIMSE1
 70
     0
  9
$DIMSE2
 70
     0
  9
$DIMTAD
 70
     0
  9
$DIMZIN
 70
     0
  9
$DIMBLK
  1

  9
$DIMASO
 70
     1
  9
$DIMSHO
 70
     1
  9
$DIMPOST
  1
\X
  9
$DIMAPOST
  1

  9
$DIMALT
 70
     1
  9
$DIMALTD
 70
     2
  9
$DIMALTF
 40
25.3999999999999986
  9
$DIMLFAC
 40
1.0
  9
$DIMTOFL
 70
     0
  9
$DIMTVP
 40
0.0
  9
$DIMTIX
 70
     0
  9
$DIMSOXD
 70
     0
  9
$DIMSAH
 70
     0
  9
$DIMBLK1
  1

  9
$DIMBLK2
  1

  9
$DIMSTYLE
  2
STANDARD
  9
$DIMCLRD
 70
     0
  9
$DIMCLRE
 70
     0
  9
$DIMCLRT
 70
     0
  9
$DIMTFAC
 40
1.0
  9
$DIMGAP
 40
0.09
  9
$LUNITS
 70
     2
  9
$LUPREC
 70
     4
  9
$SKETCHINC
 40
0.1
  9
$FILLETRAD
 40
0.0
  9
$AUNITS
 70
     0
  9
$AUPREC
 70
     0
  9
$MENU
  1
.
  9
$ELEVATION
 40
0.0
  9
$PELEVATION
 40
0.0
  9
$THICKNESS
 40
0.0
  9
$LIMCHECK
 70
     0
  9
$BLIPMODE
 70
     0
  9
$CHAMFERA
 40
0.0
  9
$CHAMFERB
 40
0.0
  9
$SKPOLY
 70
     0
  9
$TDCREATE
 40
2458060.468368056230247
  9
$TDUPDATE
 40
2460136.8613888891413808
  9
$TDINDWG
 40
0.371222338
  9
$TDUSRTIMER
 40
0.371222338
  9
$USRTIMER
 70
     1
  9
$ANGBASE
 50
0.0
  9
$ANGDIR
 70
     0
  9
$PDMODE
 70
     0
  9
$PDSIZE
 40
0.3125
  9
$PLINEWID
 40
0.0
  9
$COORDS
 70
     1
  9
$SPLFRAME
 70
     0
  9
$SPLINETYPE
 70
     6
  9
$SPLINESEGS
 70
     8
  9
$ATTDIA
 70
     1
  9
$ATTREQ
 70
     1
  9
$HANDLING
 70
     1
  9
$HANDSEED
  5
CF99
  9
$SURFTAB1
 70
     6
  9
$SURFTAB2
 70
     6
  9
$SURFTYPE
 70
     6
  9
$SURFU
 70
     6
  9
$SURFV
 70
     6
  9
$UCSNAME
  2

  9
$UCSORG
 10
0.0
 20
0.0
 30
0.0
  9
$UCSXDIR
 10
1.0
 20
0.0
 30
0.0
  9
$UCSYDIR
 10
0.0
 20
1.0
 30
0.0
  9
$PUCSNAME
  2

  9
$PUCSORG
 10
0.0
 20
0.0
 30
0.0
  9
$PUCSXDIR
 10
1.0
 20
0.0
 30
0.0
  9
$PUCSYDIR
 10
0.0
 20
1.0
 30
0.0
  9
$USERI1
 70
     0
  9
$USERI2
 70
     0
  9
$USERI3
 70
     0
  9
$USERI4
 70
     0
  9
$USERI5
 70
     0
  9
$USERR1
 40
0.0
  9
$USERR2
 40
0.0
  9
$USERR3
 40
0.0
  9
$USERR4
 40
0.0
  9
$USERR5
 40
0.0
  9
$WORLDVIEW
 70
     1
  9
$SHADEDGE
 70
     3
  9
$SHADEDIF
 70
    70
  9
$TILEMODE
 70
     1
  9
$MAXACTVP
 70
    64
  9
$PLIMCHECK
 70
     0
  9
$PEXTMIN
 10
1.0000000000000000E+20
 20
1.0000000000000000E+20
 30
1.0000000000000000E+20
  9
$PEXTMAX
 10
-1.0000000000000000E+20
 20
-1.0000000000000000E+20
 30
-1.0000000000000000E+20
  9
$PLIMMIN
 10
0.0
 20
0.0
  9
$PLIMMAX
 10
12.0
 20
9.0
  9
$UNITMODE
 70
     0
  9
$VISRETAIN
 70
     1
  9
$PLINEGEN
 70
     0
  9
$PSLTSCALE
 70
     1
  0
ENDSEC
  0
SECTION
  2
TABLES
  0
TABLE
  2
VPORT
 70
     1
  0
VPORT
  2
*ACTIVE
 70
     0
 10
0.0
 20
0.0
 11
1.0
 21
1.0
 12
32.8719598048528496
 22
4.0110119935289941
 13
0.0
 23
0.0
 14
1.0
 24
1.0
 15
0.0
 25
0.0
 16
0.0
 26
0.0
 36
7.415161564861446
 17
4765.21484375
 27
238.1510391235352131
 37
0.0
 40
10.9066903104114292
 41
1.4307692307692299
 42
50.0
 43
0.0
 44
0.0
 50
0.0
 51
0.0
 71
     0
 72
   100
 73
     1
 74
     1
 75
     0
 76
     0
 77
     0
 78
     0
  0
ENDTAB
  0
TABLE
  2
LTYPE
 70
     2
  0
LTYPE
  2
CONTINUOUS
 70
     0
  3
Solid line
 72
    65
 73
     0
 40
0.0
  0
LTYPE
  2
PHANTOM2
 70
     0
  3
___ _ _ ___ _ _ ___ _ _ ___ _ _
 72
    65
 73
     6
 40
1.25
 49
0.625
 49
-0.125
 49
0.125
 49
-0.125
 49
0.125
 49
-0.125
  0
ENDTAB
  0
TABLE
  2
LAYER
 70
     2
  0
LAYER
  2
0
 70
     0
 62
   255
  6
CONTINUOUS
  0
LAYER
  2
DEFPOINTS
 70
     0
 62
     7
  6
CONTINUOUS
  0
ENDTAB
  0
TABLE
  2
STYLE
 70
     1
  0
STYLE
  2
STANDARD
 70
     0
 40
0.0
 41
0.8
 50
0.0
 71
     0
 42
0.2
  3
txt
  4

  0
ENDTAB
  0
TABLE
  2
VIEW
 70
     0
  0
ENDTAB
  0
TABLE
  2
UCS
 70
     0
  0
ENDTAB
  0
TABLE
  2
APPID
 70
     9
  0
APPID
  2
ACAD
 70
     0
  0
APPID
  2
ACAD_MLEADERVER
 70
     0
  0
APPID
  2
ACAD_EXEMPT_FROM_CAD_STANDARDS
 70
     0
  0
APPID
  2
ACAD_NAV_VCDISPLAY
 70
     0
  0
APPID
  2
ACAECLAYERSTANDARD
 70
     0
  0
APPID
  2
ACCMTRANSPARENCY
 70
     0
  0
APPID
  2
ACAD_DSTYLE_DIMJAG
 70
     0
  0
APPID
  2
ACAD_DSTYLE_DIMTALN
 70
     0
  0
APPID
  2
ACDBATTR
 70
     0
  0
ENDTAB
  0
TABLE
  2
DIMSTYLE
 70
     1
  0
DIMSTYLE
  2
STANDARD
 70
     0
  3

  4

  5

  6

  7

 40
1.0
 41
0.1875
 42
0.0625
 43
0.38
 44
0.125
 45
0.0
 46
0.0
 47
0.01
 48
0.01
140
0.15625
141
0.09
142
0.0
143
25.3999999999999986
144
1.0
145
0.0
146
1.0
147
0.09
 71
     1
 72
     0
 73
     1
 74
     1
 75
     0
 76
     0
 77
     0
 78
     4
170
     0
171
     2
172
     0
173
     0
174
     0
175
     0
176
     0
177
     0
178
     0
  0
ENDTAB
  0
ENDSEC
  0
SECTION
  2
BLOCKS
  0
BLOCK
  8
0
  2
$MODEL_SPACE
 70
     0
 10
0.0
 20
0.0
 30
0.0
  3
$MODEL_SPACE
  1

  0
ENDBLK
  5
21
  8
0
  0
BLOCK
 67
     1
  8
0
  2
$PAPER_SPACE
 70
     0
 10
0.0
 20
0.0
 30
0.0
  3
$PAPER_SPACE
  1

  0
ENDBLK
  5
1D
 67
     1
  8
0
  0
ENDSEC
  0
SECTION
  2
ENTITIES
  0
ATTDEF
  5
3930
  8
DEFPOINTS
 10
4800.9664233560297362
 20
236.7709539301579014
 30
0.0
 40
0.001
  1
P32414-LV
  3

  2
MODELNUMBER
 70
     0
1001
ACDBATTR
1070
     0
1070
     1
  0
ATTDEF
  5
3931
  8
DEFPOINTS
 10
4800.9664233560297362
 20
236.7692872634912078
 30
0.0
 40
0.001
  1
ONE
  3

  2
TRADENAME
 70
     0
1001
ACDBATTR
1070
     0
1070
     1
  0
ATTDEF
  5
3932
  8
DEFPOINTS
 10
4800.9664233560297362
 20
236.7676205968244858
 30
0.0
 40
0.001
  1
BATHROOM SINK FAUCET
  3

  2
PRODUCT
 70
     0
1001
ACDBATTR
1070
     0
1070
     1
  0
LINE
  5
CD52
  8
0
 10
4800.5583881672100688
 20
237.1670935332041097
 30
0.0
 11
4800.558387928659613
 21
237.1670935332041097
 31
0.0
  0
ARC
  5
CD53
  8
0
 10
4802.0793881672088901
 20
237.1570935332040904
 30
0.0
 40
0.0099999999999998
 50
0.0
 51
90.0
  0
LINE
  5
CD54
  8
0
 10
4802.0893881672091084
 20
237.1570935332040904
 30
0.0
 11
4802.0893881672091084
 21
236.767093533204104
 31
0.0
  0
ARC
  5
CD55
  8
0
 10
4802.0693881672086718
 20
237.1470935332040995
 30
0.0
 40
0.02
 50
0.0
 51
90.0
  0
LINE
  5
CD56
  8
0
 10
4802.0893881672091084
 20
236.767093533204104
 30
0.0
 11
4799.8393881672091084
 21
236.767093533204104
 31
0.0
  0
LINE
  5
CD57
  8
0
 10
4802.0793881672088901
 20
237.1670935332041097
 30
0.0
 11
4799.8493881672093266
 21
237.1670935332041097
 31
0.0
  0
ARC
  5
CD58
  8
0
 10
4799.8593881672086354
 20
237.1470935332040995
 30
0.0
 40
0.02
 50
90.0
 51
180.0
  0
ARC
  5
CD59
  8
0
 10
4799.8493881672093266
 20
237.1570935332040904
 30
0.0
 40
0.0099999999999998
 50
90.0
 51
180.0
  0
LINE
  5
CD5A
  8
0
 10
4799.8393881672091084
 20
237.1570935332040904
 30
0.0
 11
4799.8393881672091084
 21
236.767093533204104
 31
0.0
  0
ARC
  5
CD5B
  8
0
 10
4800.9643881976226112
 20
239.5442472716540863
 30
0.0
 40
0.1927238720135538
 50
38.6152432497688025
 51
141.3847565535301953
  0
ARC
  5
CD5C
  8
0
 10
4801.3804601411256954
 20
239.8765744142195047
 30
0.0
 40
0.3397770123566013
 50
218.6152432497688096
 51
235.5579712818338862
  0
ARC
  5
CD5D
  8
0
 10
4800.9647871286388181
 20
239.2562214423334126
 30
0.0
 40
0.4070000346346677
 50
50.869267608972919
 51
56.6911895144383422
  0
ARC
  5
CD5E
  8
0
 10
4801.3998240445444026
 20
239.7940264404439858
 30
0.0
 40
0.2847345455844259
 50
231.2602102835085134
 51
250.7388933848521901
  0
ARC
  5
CD5F
  8
0
 10
4801.239951249479418
 20
239.3454423994220122
 30
0.0
 40
0.1915005581232555
 50
326.4323887582074235
 51
69.8568722543828216
  0
ARC
  5
CD60
  8
0
 10
4801.6467005464628528
 20
239.069558366309991
 30
0.0
 40
0.2999999974238189
 50
145.4820248495321948
 51
164.6911898215363124
  0
ARC
  5
CD61
  8
0
 10
4800.9647871400311487
 20
239.2562214736360033
 30
0.0
 40
0.4070000092987466
 50
338.8692673265645112
 51
344.6911896027160083
  0
ARC
  5
CD62
  8
0
 10
4801.625825106278171
 20
239.0008881361158899
 30
0.0
 40
0.3016369440037122
 50
158.8953894192777909
 51
177.7661679736577867
  0
ARC
  5
CD63
  8
0
 10
4801.1350259881583042
 20
239.0212436442764954
 30
0.0
 40
0.189586477188717
 50
254.159894393940391
 51
357.4005626137043237
  0
ARC
  5
CD64
  8
0
 10
4800.9961463814070157
 20
238.5001825375533997
 30
0.0
 40
0.3497024135643713
 50
75.572287007988507
 51
92.0073746886325523
  0
ARC
  5
CD65
  8
0
 10
4800.9647871488032251
 20
239.2562214699966887
 30
0.0
 40
0.4069999994925735
 50
266.8692672954392151
 51
272.6911897003521972
  0
ARC
  5
CD66
  8
0
 10
4800.9261747629907404
 20
238.5502766542041968
 30
0.0
 40
0.2999999999999197
 50
86.869267298622546
 51
106.0784321077899932
  0
ARC
  5
CD67
  8
0
 10
4800.7924973154485997
 20
239.0209876289831072
 30
0.0
 40
0.1893304618952361
 50
182.0619668062527978
 51
285.4984901733142806
  0
ARC
  5
CD68
  8
0
 10
4800.3033897989898833
 20
239.0064164553041905
 30
0.0
 40
0.3000000000000193
 50
1.482024889583885
 51
20.6911896915892406
  0
ARC
  5
CD69
  8
0
 10
4800.9647871389315696
 20
239.2562214678231953
 30
0.0
 40
0.4069999897877766
 50
194.8692672838388944
 51
200.6911898357388964
  0
ARC
  5
CD6A
  8
0
 10
4800.2814618476922988
 20
239.0747950863041922
 30
0.0
 40
0.2999999999999833
 50
14.8692673093175394
 51
34.0784321170501983
  0
ARC
  5
CD6B
  8
0
 10
4800.6876370150021103
 20
239.3474497868637911
 30
0.0
 40
0.1892072750260152
 50
110.0146767365097986
 51
213.5457802756544083
  0
ARC
  5
CD6C
  8
0
 10
4800.5228254402600214
 20
239.8080537347615859
 30
0.0
 40
0.299999999705359
 50
289.4820248670476985
 51
308.6911896936509265
  0
ARC
  5
CD6D
  8
0
 10
4800.9647871614042742
 20
239.2562214518025883
 30
0.0
 40
0.4070000225524768
 50
122.8692673594061944
 51
128.6911894394282001
  0
ARC
  5
CD6E
  8
0
 10
4800.5654276049062901
 20
239.8557822962426087
 30
0.0
 40
0.3134803170487914
 50
304.7028781124756733
 51
322.402314637080508
  0
LINE
  5
CD6F
  8
0
 10
4800.6023881976907433
 20
238.3370935332042109
 30
0.0
 11
4801.3263881975899494
 21
238.3370935332042109
 31
0.0
  0
LINE
  5
CD70
  8
0
 10
4800.5763881976909033
 20
238.3450935332041922
 30
0.0
 11
4801.3523881974897449
 21
238.3450935332041922
 31
0.0
  0
LINE
  5
CD71
  8
0
 10
4800.5623881975898257
 20
237.2070935332041017
 30
0.0
 11
4800.5623881975898257
 21
238.2970935332041904
 31
0.0
  0
LINE
  5
CD72
  8
0
 10
4800.5623881975898257
 20
238.3590643665702089
 30
0.0
 11
4800.5623881975898257
 21
239.1800584984275986
 31
0.0
  0
LINE
  5
CD73
  8
0
 10
4800.6143881975913246
 20
238.3370935332042109
 30
0.0
 11
4800.6143881975913246
 21
238.3450935332041922
 31
0.0
  0
LINE
  5
CD74
  8
0
 10
4801.3143881975911427
 20
238.3370935332042109
 30
0.0
 11
4801.3143881975911427
 21
238.3450935332041922
 31
0.0
  0
LINE
  5
CD75
  8
0
 10
4801.3663881975908225
 20
237.2070935332041017
 30
0.0
 11
4801.3663881975908225
 21
238.2970935332041904
 31
0.0
  0
LINE
  5
CD76
  8
0
 10
4801.3663881975908225
 20
238.3590935332042022
 30
0.0
 11
4801.3663881975908225
 21
239.1764460902284952
 31
0.0
  0
ARC
  5
CD77
  8
0
 10
4800.6023881975897893
 20
238.2970935332041904
 30
0.0
 40
0.04
 50
90.0
 51
180.0
  0
ARC
  5
CD78
  8
0
 10
4801.3263881975899494
 20
238.2970935332041904
 30
0.0
 40
0.04
 50
0.0
 51
90.0
  0
ARC
  5
CD79
  8
0
 10
4801.4063881975907861
 20
237.2070935332041017
 30
0.0
 40
0.04
 50
180.0
 51
270.0
  0
ARC
  5
CD7A
  8
0
 10
4800.5223881975907716
 20
237.2070935332041017
 30
0.0
 40
0.04
 50
270.0
 51
0.0
  0
ARC
  5
CD7B
  8
0
 10
4801.3523881975906988
 20
238.3590935332042022
 30
0.0
 40
0.014
 50
270.0
 51
0.0
  0
ARC
  5
CD7C
  8
0
 10
4800.5763881975899494
 20
238.3590935332042022
 30
0.0
 40
0.014
 50
180.0
 51
270.0
  0
LINE
  5
CD7D
  8
0
 10
4794.0683881672093776
 20
242.667093533204195
 30
0.0
 11
4794.8603881671615454
 21
242.667093533204195
 31
0.0
  0
LINE
  5
CD7E
  8
0
 10
4794.0583881672091593
 20
243.917093533204195
 30
0.0
 11
4794.0583881672091593
 21
242.6770935332041006
 31
0.0
  0
ARC
  5
CD7F
  8
0
 10
4794.0683881672093776
 20
242.6770935332041006
 30
0.0
 40
0.0100000000000016
 50
180.0000000000260059
 51
270.0
  0
ARC
  5
CD80
  8
0
 10
4794.8603881672088391
 20
242.6770935332041006
 30
0.0
 40
0.0100000000000051
 50
270.0
 51
359.9999999999852776
  0
LINE
  5
CD81
  8
0
 10
4794.8703881672090574
 20
242.6770935332041006
 30
0.0
 11
4794.8703881672090574
 21
243.917093533204195
 31
0.0
  0
LINE
  5
CD82
  8
0
 10
4800.5583881672100688
 20
243.917093533204195
 30
0.0
 11
4800.5583881672100688
 21
239.4856312916575121
 31
0.0
  0
LINE
  5
CD83
  8
0
 10
4800.5583881672100688
 20
239.1901719191527036
 30
0.0
 11
4800.5583881672100688
 21
237.1897041169042097
 31
0.0
  0
LINE
  5
CD84
  8
0
 10
4801.3703881672090574
 20
243.917093533204195
 30
0.0
 11
4801.3703881672090574
 21
239.4856517937384126
 31
0.0
  0
LINE
  5
CD85
  8
0
 10
4801.3703881672090574
 20
239.1862659204041961
 30
0.0
 11
4801.3703881672090574
 21
237.1897041169042097
 31
0.0
  0
ARC
  5
CD86
  8
0
 10
4797.7143881672091084
 20
243.917093533204195
 30
0.0
 40
2.8440000000000039
 50
0.0
 51
180.0
  0
ARC
  5
CD87
  8
0
 10
4797.7143881672091084
 20
243.917093533204195
 30
0.0
 40
3.655999999999997
 50
0.0
 51
180.0
  0
ENDSEC
  0
EOF
