  0
SECTION
  2
HEADER
  9
$ACADVER
  1
AC1009
  9
$INSBASE
 10
5191.6358377317292252
 20
469.8669441556086213
 30
0.0
  9
$EXTMIN
 10
5189.7608377317292252
 20
466.0400696330086134
 30
0.0
  9
$EXTMAX
 10
5193.5108377317292252
 20
469.8717360153747791
 30
0.0
  9
$LIMMIN
 10
0.0
 20
0.0
  9
$LIMMAX
 10
11.6929133858000007
 20
8.2677165353999982
  9
$ORTHOMODE
 70
     0
  9
$REGENMODE
 70
     1
  9
$FILLMODE
 70
     1
  9
$QTEXTMODE
 70
     0
  9
$MIRRTEXT
 70
     0
  9
$DRAGMODE
 70
     2
  9
$LTSCALE
 40
0.6431102362
  9
$OSMODE
 70
  4095
  9
$ATTMODE
 70
     1
  9
$TEXTSIZE
 40
0.2
  9
$TRACEWID
 40
0.05
  9
$TEXTSTYLE
  7
STANDARD
  9
$CLAYER
  8
0
  9
$CELTYPE
  6
BYLAYER
  9
$CECOLOR
 62
   256
  9
$DIMSCALE
 40
1.0
  9
$DIMASZ
 40
0.1875
  9
$DIMEXO
 40
0.0625
  9
$DIMDLI
 40
0.4443307087
  9
$DIMRND
 40
0.0
  9
$DIMDLE
 40
0.0
  9
$DIMEXE
 40
0.125
  9
$DIMTP
 40
0.01
  9
$DIMTM
 40
0.01
  9
$DIMTXT
 40
2.0
  9
$DIMCEN
 40
0.1052362205
  9
$DIMTSZ
 40
0.0
  9
$DIMTOL
 70
     1
  9
$DIMLIM
 70
     0
  9
$DIMTIH
 70
     1
  9
$DIMTOH
 70
     1
  9
$DIMSE1
 70
     0
  9
$DIMSE2
 70
     0
  9
$DIMTAD
 70
     0
  9
$DIMZIN
 70
     0
  9
$DIMBLK
  1

  9
$DIMASO
 70
     1
  9
$DIMSHO
 70
     1
  9
$DIMPOST
  1
\X
  9
$DIMAPOST
  1

  9
$DIMALT
 70
     1
  9
$DIMALTD
 70
     2
  9
$DIMALTF
 40
25.3999999999999986
  9
$DIMLFAC
 40
1.0
  9
$DIMTOFL
 70
     0
  9
$DIMTVP
 40
0.0
  9
$DIMTIX
 70
     0
  9
$DIMSOXD
 70
     0
  9
$DIMSAH
 70
     0
  9
$DIMBLK1
  1

  9
$DIMBLK2
  1

  9
$DIMSTYLE
  2
STANDARD
  9
$DIMCLRD
 70
     0
  9
$DIMCLRE
 70
     0
  9
$DIMCLRT
 70
     0
  9
$DIMTFAC
 40
1.0
  9
$DIMGAP
 40
0.09
  9
$LUNITS
 70
     2
  9
$LUPREC
 70
     4
  9
$SKETCHINC
 40
0.1
  9
$FILLETRAD
 40
0.0
  9
$AUNITS
 70
     0
  9
$AUPREC
 70
     0
  9
$MENU
  1
.
  9
$ELEVATION
 40
0.0
  9
$PELEVATION
 40
0.0
  9
$THICKNESS
 40
0.0
  9
$LIMCHECK
 70
     0
  9
$BLIPMODE
 70
     0
  9
$CHAMFERA
 40
0.0
  9
$CHAMFERB
 40
0.0
  9
$SKPOLY
 70
     0
  9
$TDCREATE
 40
2458060.468368056230247
  9
$TDUPDATE
 40
2460090.6554513890296221
  9
$TDINDWG
 40
0.6497408565
  9
$TDUSRTIMER
 40
0.6497408565
  9
$USRTIMER
 70
     1
  9
$ANGBASE
 50
0.0
  9
$ANGDIR
 70
     0
  9
$PDMODE
 70
     0
  9
$PDSIZE
 40
0.3125
  9
$PLINEWID
 40
0.0
  9
$COORDS
 70
     1
  9
$SPLFRAME
 70
     0
  9
$SPLINETYPE
 70
     6
  9
$SPLINESEGS
 70
     8
  9
$ATTDIA
 70
     1
  9
$ATTREQ
 70
     1
  9
$HANDLING
 70
     1
  9
$HANDSEED
  5
18559
  9
$SURFTAB1
 70
     6
  9
$SURFTAB2
 70
     6
  9
$SURFTYPE
 70
     6
  9
$SURFU
 70
     6
  9
$SURFV
 70
     6
  9
$UCSNAME
  2

  9
$UCSORG
 10
0.0
 20
0.0
 30
0.0
  9
$UCSXDIR
 10
1.0
 20
0.0
 30
0.0
  9
$UCSYDIR
 10
0.0
 20
1.0
 30
0.0
  9
$PUCSNAME
  2

  9
$PUCSORG
 10
0.0
 20
0.0
 30
0.0
  9
$PUCSXDIR
 10
1.0
 20
0.0
 30
0.0
  9
$PUCSYDIR
 10
0.0
 20
1.0
 30
0.0
  9
$USERI1
 70
     0
  9
$USERI2
 70
     0
  9
$USERI3
 70
     0
  9
$USERI4
 70
     0
  9
$USERI5
 70
     0
  9
$USERR1
 40
0.0
  9
$USERR2
 40
0.0
  9
$USERR3
 40
0.0
  9
$USERR4
 40
0.0
  9
$USERR5
 40
0.0
  9
$WORLDVIEW
 70
     1
  9
$SHADEDGE
 70
     3
  9
$SHADEDIF
 70
    70
  9
$TILEMODE
 70
     1
  9
$MAXACTVP
 70
    64
  9
$PLIMCHECK
 70
     0
  9
$PEXTMIN
 10
1.0000000000000000E+20
 20
1.0000000000000000E+20
 30
1.0000000000000000E+20
  9
$PEXTMAX
 10
-1.0000000000000000E+20
 20
-1.0000000000000000E+20
 30
-1.0000000000000000E+20
  9
$PLIMMIN
 10
0.0
 20
0.0
  9
$PLIMMAX
 10
12.0
 20
9.0
  9
$UNITMODE
 70
     0
  9
$VISRETAIN
 70
     1
  9
$PLINEGEN
 70
     0
  9
$PSLTSCALE
 70
     1
  0
ENDSEC
  0
SECTION
  2
TABLES
  0
TABLE
  2
VPORT
 70
     1
  0
VPORT
  2
*ACTIVE
 70
     0
 10
0.0
 20
0.0
 11
1.0
 21
1.0
 12
1388.0917703489169526
 22
341.9606406274418191
 13
0.0
 23
0.0
 14
1.0
 24
1.0
 15
0.0
 25
0.0
 16
0.0
 26
0.0
 36
17.1152628219792007
 17
3803.5440673828129547
 27
125.9952621967499056
 37
0.0
 40
3.8620362612225558
 41
2.5251322751322749
 42
50.0
 43
0.0
 44
0.0
 50
0.0
 51
0.0
 71
     0
 72
   100
 73
     1
 74
     1
 75
     0
 76
     0
 77
     0
 78
     0
  0
ENDTAB
  0
TABLE
  2
LTYPE
 70
     2
  0
LTYPE
  2
CONTINUOUS
 70
     0
  3
Solid line
 72
    65
 73
     0
 40
0.0
  0
LTYPE
  2
PHANTOM2
 70
     0
  3
___ _ _ ___ _ _ ___ _ _ ___ _ _
 72
    65
 73
     6
 40
1.25
 49
0.625
 49
-0.125
 49
0.125
 49
-0.125
 49
0.125
 49
-0.125
  0
ENDTAB
  0
TABLE
  2
LAYER
 70
     2
  0
LAYER
  2
0
 70
     0
 62
   255
  6
CONTINUOUS
  0
LAYER
  2
DEFPOINTS
 70
     0
 62
     7
  6
CONTINUOUS
  0
ENDTAB
  0
TABLE
  2
STYLE
 70
     1
  0
STYLE
  2
STANDARD
 70
     0
 40
0.0
 41
0.8
 50
0.0
 71
     0
 42
0.2
  3
txt
  4

  0
ENDTAB
  0
TABLE
  2
VIEW
 70
     0
  0
ENDTAB
  0
TABLE
  2
UCS
 70
     0
  0
ENDTAB
  0
TABLE
  2
APPID
 70
    10
  0
APPID
  2
ACAD
 70
     0
  0
APPID
  2
ACAD_MLEADERVER
 70
     0
  0
APPID
  2
ACAD_EXEMPT_FROM_CAD_STANDARDS
 70
     0
  0
APPID
  2
ACAD_NAV_VCDISPLAY
 70
     0
  0
APPID
  2
ACAECLAYERSTANDARD
 70
     0
  0
APPID
  2
ACCMTRANSPARENCY
 70
     0
  0
APPID
  2
ACAD_DSTYLE_DIMJAG
 70
     0
  0
APPID
  2
ACAD_DSTYLE_DIMTALN
 70
     0
  0
APPID
  2
ACDBATTR
 70
     0
  0
APPID
  2
ACADANNOTATIVE
 70
     0
  0
ENDTAB
  0
TABLE
  2
DIMSTYLE
 70
     2
  0
DIMSTYLE
  2
STANDARD
 70
     0
  3

  4

  5

  6

  7

 40
1.0
 41
0.1875
 42
0.0625
 43
0.38
 44
0.125
 45
0.0
 46
0.0
 47
0.01
 48
0.01
140
0.15625
141
0.09
142
0.0
143
25.3999999999999986
144
1.0
145
0.0
146
1.0
147
0.09
 71
     1
 72
     0
 73
     1
 74
     1
 75
     0
 76
     0
 77
     0
 78
     4
170
     0
171
     2
172
     0
173
     0
174
     0
175
     0
176
     0
177
     0
178
     0
  0
DIMSTYLE
  2
ANNOTATIVE
 70
     0
  3

  4

  5

  6

  7

 40
0.0
 41
0.18
 42
0.0625
 43
0.38
 44
0.18
 45
0.0
 46
0.0
 47
0.0
 48
0.0
140
0.18
141
0.09
142
0.0
143
25.3999999999999986
144
1.0
145
0.0
146
1.0
147
0.09
 71
     0
 72
     0
 73
     1
 74
     1
 75
     0
 76
     0
 77
     0
 78
     0
170
     0
171
     2
172
     0
173
     0
174
     0
175
     0
176
     0
177
     0
178
     0
  0
ENDTAB
  0
ENDSEC
  0
SECTION
  2
BLOCKS
  0
BLOCK
  8
0
  2
$MODEL_SPACE
 70
     0
 10
0.0
 20
0.0
 30
0.0
  3
$MODEL_SPACE
  1

  0
ENDBLK
  5
21
  8
0
  0
BLOCK
 67
     1
  8
0
  2
$PAPER_SPACE
 70
     0
 10
0.0
 20
0.0
 30
0.0
  3
$PAPER_SPACE
  1

  0
ENDBLK
  5
1D
 67
     1
  8
0
  0
BLOCK
  8
0
  2
_FILLED
 70
     0
 10
0.0
 20
0.0
 30
0.0
  3
_FILLED
  1

  0
SOLID
  5
13053
  8
0
  6
BYBLOCK
 62
     0
 10
0.0
 20
0.0
 30
0.0
 11
-1.0
 21
0.1666666667
 31
0.0
 12
-1.0
 22
-0.1666666667
 32
0.0
 13
-1.0
 23
-0.1666666667
 33
0.0
  0
ENDBLK
  5
13054
  8
0
  6
BYBLOCK
 62
     0
  0
ENDSEC
  0
SECTION
  2
ENTITIES
  0
ATTDEF
  5
3930
  8
DEFPOINTS
 10
5191.6364436956737336
 20
469.8707360153749164
 30
0.0
 40
0.001
  1
P32415-PNK
  3

  2
MODELNUMBER
 70
     0
1001
ACDBATTR
1070
     0
1070
     1
  0
ATTDEF
  5
3931
  8
DEFPOINTS
 10
5191.6364436956737336
 20
469.8690693487081944
 30
0.0
 40
0.001
  1
ONE
  3

  2
TRADENAME
 70
     0
1001
ACDBATTR
1070
     0
1070
     1
  0
ATTDEF
  5
3932
  8
DEFPOINTS
 10
5191.6364436956737336
 20
469.8674026820414724
 30
0.0
 40
0.001
  1
VALVE TRIM
  3

  2
PRODUCT
 70
     0
1001
ACDBATTR
1070
     0
1070
     1
  0
LINE
  5
18421
  8
0
 10
5191.2338377317291815
 20
466.4959602747287022
 30
0.0
 11
5191.2338377317291815
 21
467.5519441556085098
 31
0.0
  0
LINE
  5
18422
  8
0
 10
5191.2338377317291815
 20
467.6169441556086213
 30
0.0
 11
5191.2338377317291815
 21
467.896944155608594
 31
0.0
  0
LINE
  5
18423
  8
0
 10
5189.7608377317292252
 20
469.8669441556086213
 30
0.0
 11
5193.5108377317292252
 21
469.8669441556086213
 31
0.0
  0
LINE
  5
18424
  8
0
 10
5190.7358377317286795
 20
467.9269441556085098
 30
0.0
 11
5190.7358377317286795
 21
469.1669441556085758
 31
0.0
  0
LINE
  5
18425
  8
0
 10
5189.8418450855906485
 20
469.1669441556085758
 30
0.0
 11
5193.4298303778659829
 21
469.1669441556085758
 31
0.0
  0
LINE
  5
18426
  8
0
 10
5190.7658377317302438
 20
467.896944155608594
 30
0.0
 11
5192.5058377317291161
 21
467.896944155608594
 31
0.0
  0
LINE
  5
18427
  8
0
 10
5191.2638377317289269
 20
467.5869441556085917
 30
0.0
 11
5192.007837731728614
 21
467.5869441556085917
 31
0.0
  0
LINE
  5
18428
  8
0
 10
5191.2488377317304185
 20
467.5669441556084962
 30
0.0
 11
5192.0228377317289414
 21
467.5669441556084962
 31
0.0
  0
LINE
  5
18429
  8
0
 10
5189.7608377317292252
 20
469.8669441556086213
 30
0.0
 11
5189.7718557469288498
 21
469.2357224871580001
 31
0.0
  0
ARC
  5
1842A
  8
0
 10
5189.8418450855906485
 20
469.2369441556086258
 30
0.0
 40
0.07
 50
180.9999999994541895
 51
270.0
  0
ARC
  5
1842B
  8
0
 10
5190.7658377317302438
 20
467.9269441556086235
 30
0.0
 40
0.03
 50
180.0000000000032117
 51
270.0
  0
ARC
  5
1842C
  8
0
 10
5191.2638377317289269
 20
467.6169441556086213
 30
0.0
 40
0.03
 50
180.0
 51
270.0
  0
ARC
  5
1842D
  8
0
 10
5191.2488377317304185
 20
467.5519441556085098
 30
0.0
 40
0.015
 50
90.0
 51
179.9999999999934914
  0
ARC
  5
1842E
  8
0
 10
5191.6360958303293955
 20
466.5212471512086267
 30
0.0
 40
0.4022385540000363
 50
240.104270708298003
 51
269.9632297020102101
  0
ARC
  5
1842F
  8
0
 10
5191.6360958303293955
 20
466.5212471512085131
 30
0.0
 40
0.4022385539999399
 50
218.411680537409211
 51
240.104270708298003
  0
ARC
  5
18430
  8
0
 10
5191.6360958303293955
 20
466.5212471512086267
 30
0.0
 40
0.4022385540000554
 50
189.3773885397727099
 51
218.411680537409211
  0
ARC
  5
18431
  8
0
 10
5191.8976124912978776
 20
466.5644349260023773
 30
0.0
 40
0.6672973170242195
 50
185.8897683846606128
 51
189.3773885397727099
  0
ARC
  5
18432
  8
0
 10
5191.3560294249291474
 20
466.4262202581085717
 30
0.0
 40
0.1864562598312195
 50
150.2146394131877116
 51
256.1362786364198882
  0
ARC
  5
18433
  8
0
 10
5190.9338377317289996
 20
466.6678684878183958
 30
0.0
 40
0.3000000000000009
 50
330.2146394131876832
 51
0.0
  0
ARC
  5
18434
  8
0
 10
5191.1942749744557659
 20
465.9689839537177249
 30
0.0
 40
0.3
 50
51.3088104076957379
 51
67.029520689382224
  0
ARC
  5
18435
  8
0
 10
5191.6351281043289418
 20
466.2250743137086033
 30
0.0
 40
0.1850046807000005
 50
217.9215679255194118
 51
270.2197714922389764
  0
ARC
  5
18436
  8
0
 10
5191.2525308074627901
 20
465.9269990736576119
 30
0.0
 40
0.3
 50
37.9215679255194331
 51
57.130732471348793
  0
ARC
  5
18437
  8
0
 10
5191.6362367076217197
 20
466.5208162507980774
 30
0.0
 40
0.4070000407947528
 50
231.3088104076956881
 51
237.1307324713488072
  0
LINE
  5
18438
  8
0
 10
5192.0378377317292689
 20
466.4959602747287022
 30
0.0
 11
5192.0378377317292689
 21
467.5519441556085098
 31
0.0
  0
LINE
  5
18439
  8
0
 10
5192.0378377317292689
 20
467.6169441556086213
 30
0.0
 11
5192.0378377317292689
 21
467.896944155608594
 31
0.0
  0
LINE
  5
1843A
  8
0
 10
5192.5358377317279519
 20
467.9269441556085098
 30
0.0
 11
5192.5358377317279519
 21
469.1669441556085758
 31
0.0
  0
LINE
  5
1843B
  8
0
 10
5193.5108377317292252
 20
469.8669441556086213
 30
0.0
 11
5193.4998197165277816
 21
469.2357224871580001
 31
0.0
  0
ARC
  5
1843C
  8
0
 10
5193.4298303778659829
 20
469.2369441556086258
 30
0.0
 40
0.07
 50
270.0
 51
359.0000000005458105
  0
ARC
  5
1843D
  8
0
 10
5192.5058377317291161
 20
467.9269441556086235
 30
0.0
 40
0.03
 50
270.0
 51
359.9999999999968168
  0
ARC
  5
1843E
  8
0
 10
5192.007837731728614
 20
467.6169441556086213
 30
0.0
 40
0.03
 50
270.0
 51
0.0
  0
ARC
  5
1843F
  8
0
 10
5192.0228377317289414
 20
467.5519441556085098
 30
0.0
 40
0.015
 50
0.0000000000065138
 51
90.0
  0
ARC
  5
18440
  8
0
 10
5191.6355796331281454
 20
466.5212471512086267
 30
0.0
 40
0.4022385540000363
 50
270.0367702979896762
 51
299.8957292917020254
  0
ARC
  5
18441
  8
0
 10
5191.6355796331281454
 20
466.5212471512085131
 30
0.0
 40
0.4022385539999399
 50
299.8957292917020254
 51
321.588319462590789
  0
ARC
  5
18442
  8
0
 10
5191.6355796331281454
 20
466.5212471512086267
 30
0.0
 40
0.4022385540000554
 50
321.588319462590789
 51
350.6226114602271764
  0
ARC
  5
18443
  8
0
 10
5191.3740629721605728
 20
466.5644349260023773
 30
0.0
 40
0.6672973170242195
 50
350.6226114602271764
 51
354.1102316153392735
  0
ARC
  5
18444
  8
0
 10
5191.9156460385302125
 20
466.4262202581085717
 30
0.0
 40
0.1864562598312195
 50
283.8637213635799981
 51
29.7853605868122706
  0
ARC
  5
18445
  8
0
 10
5192.3378377317303602
 20
466.6678684878183958
 30
0.0
 40
0.3000000000000009
 50
180.0
 51
209.7853605868122031
  0
ARC
  5
18446
  8
0
 10
5192.0774004890026845
 20
465.9689839537177249
 30
0.0
 40
0.3
 50
112.9704793106178045
 51
128.6911895923041982
  0
ARC
  5
18447
  8
0
 10
5191.636547359130418
 20
466.2250743137086033
 30
0.0
 40
0.1850046807000005
 50
269.7802285077610236
 51
322.0784320744805882
  0
ARC
  5
18448
  8
0
 10
5192.0191446559947508
 20
465.9269990736576119
 30
0.0
 40
0.3
 50
122.869267528651207
 51
142.0784320744805882
  0
ARC
  5
18449
  8
0
 10
5191.6354387558367307
 20
466.5208162507980774
 30
0.0
 40
0.4070000407947528
 50
302.8692675286512213
 51
308.6911895923042266
  0
LINE
  5
1844A
  8
0
 10
5191.3358377317290433
 20
467.5869441556085917
 30
0.0
 11
5191.3358377317290433
 21
467.5669441556084962
 31
0.0
  0
LINE
  5
1844B
  8
0
 10
5191.9358377317303166
 20
467.5869441556085917
 30
0.0
 11
5191.9358377317303166
 21
467.5669441556084962
 31
0.0
  0
ENDSEC
  0
EOF
