  0
SECTION
  2
HEADER
  9
$ACADVER
  1
AC1009
  9
$INSBASE
 10
5201.2267449855862651
 20
468.7129910531807013
 30
0.0
  9
$EXTMIN
 10
5198.1017449855853556
 20
464.7761204067697918
 30
0.0
  9
$EXTMAX
 10
5204.3517449855862651
 20
468.7182570209868118
 30
0.0
  9
$LIMMIN
 10
0.0
 20
0.0
  9
$LIMMAX
 10
11.6929133858000007
 20
8.2677165353999982
  9
$ORTHOMODE
 70
     0
  9
$REGENMODE
 70
     1
  9
$FILLMODE
 70
     1
  9
$QTEXTMODE
 70
     0
  9
$MIRRTEXT
 70
     0
  9
$DRAGMODE
 70
     2
  9
$LTSCALE
 40
0.6431102362
  9
$OSMODE
 70
  4095
  9
$ATTMODE
 70
     1
  9
$TEXTSIZE
 40
0.2
  9
$TRACEWID
 40
0.05
  9
$TEXTSTYLE
  7
STANDARD
  9
$CLAYER
  8
0
  9
$CELTYPE
  6
BYLAYER
  9
$CECOLOR
 62
   256
  9
$DIMSCALE
 40
1.0
  9
$DIMASZ
 40
0.1875
  9
$DIMEXO
 40
0.0625
  9
$DIMDLI
 40
0.4443307087
  9
$DIMRND
 40
0.0
  9
$DIMDLE
 40
0.0
  9
$DIMEXE
 40
0.125
  9
$DIMTP
 40
0.01
  9
$DIMTM
 40
0.01
  9
$DIMTXT
 40
2.0
  9
$DIMCEN
 40
0.1052362205
  9
$DIMTSZ
 40
0.0
  9
$DIMTOL
 70
     1
  9
$DIMLIM
 70
     0
  9
$DIMTIH
 70
     1
  9
$DIMTOH
 70
     1
  9
$DIMSE1
 70
     0
  9
$DIMSE2
 70
     0
  9
$DIMTAD
 70
     0
  9
$DIMZIN
 70
     0
  9
$DIMBLK
  1

  9
$DIMASO
 70
     1
  9
$DIMSHO
 70
     1
  9
$DIMPOST
  1
\X
  9
$DIMAPOST
  1

  9
$DIMALT
 70
     1
  9
$DIMALTD
 70
     2
  9
$DIMALTF
 40
25.3999999999999986
  9
$DIMLFAC
 40
1.0
  9
$DIMTOFL
 70
     0
  9
$DIMTVP
 40
0.0
  9
$DIMTIX
 70
     0
  9
$DIMSOXD
 70
     0
  9
$DIMSAH
 70
     0
  9
$DIMBLK1
  1

  9
$DIMBLK2
  1

  9
$DIMSTYLE
  2
STANDARD
  9
$DIMCLRD
 70
     0
  9
$DIMCLRE
 70
     0
  9
$DIMCLRT
 70
     0
  9
$DIMTFAC
 40
1.0
  9
$DIMGAP
 40
0.09
  9
$LUNITS
 70
     2
  9
$LUPREC
 70
     4
  9
$SKETCHINC
 40
0.1
  9
$FILLETRAD
 40
0.0
  9
$AUNITS
 70
     0
  9
$AUPREC
 70
     0
  9
$MENU
  1
.
  9
$ELEVATION
 40
0.0
  9
$PELEVATION
 40
0.0
  9
$THICKNESS
 40
0.0
  9
$LIMCHECK
 70
     0
  9
$BLIPMODE
 70
     0
  9
$CHAMFERA
 40
0.0
  9
$CHAMFERB
 40
0.0
  9
$SKPOLY
 70
     0
  9
$TDCREATE
 40
2458060.468368056230247
  9
$TDUPDATE
 40
2460090.7203356479294598
  9
$TDINDWG
 40
0.652784838
  9
$TDUSRTIMER
 40
0.652784838
  9
$USRTIMER
 70
     1
  9
$ANGBASE
 50
0.0
  9
$ANGDIR
 70
     0
  9
$PDMODE
 70
     0
  9
$PDSIZE
 40
0.3125
  9
$PLINEWID
 40
0.0
  9
$COORDS
 70
     1
  9
$SPLFRAME
 70
     0
  9
$SPLINETYPE
 70
     6
  9
$SPLINESEGS
 70
     8
  9
$ATTDIA
 70
     1
  9
$ATTREQ
 70
     1
  9
$HANDLING
 70
     1
  9
$HANDSEED
  5
1867B
  9
$SURFTAB1
 70
     6
  9
$SURFTAB2
 70
     6
  9
$SURFTYPE
 70
     6
  9
$SURFU
 70
     6
  9
$SURFV
 70
     6
  9
$UCSNAME
  2

  9
$UCSORG
 10
0.0
 20
0.0
 30
0.0
  9
$UCSXDIR
 10
1.0
 20
0.0
 30
0.0
  9
$UCSYDIR
 10
0.0
 20
1.0
 30
0.0
  9
$PUCSNAME
  2

  9
$PUCSORG
 10
0.0
 20
0.0
 30
0.0
  9
$PUCSXDIR
 10
1.0
 20
0.0
 30
0.0
  9
$PUCSYDIR
 10
0.0
 20
1.0
 30
0.0
  9
$USERI1
 70
     0
  9
$USERI2
 70
     0
  9
$USERI3
 70
     0
  9
$USERI4
 70
     0
  9
$USERI5
 70
     0
  9
$USERR1
 40
0.0
  9
$USERR2
 40
0.0
  9
$USERR3
 40
0.0
  9
$USERR4
 40
0.0
  9
$USERR5
 40
0.0
  9
$WORLDVIEW
 70
     1
  9
$SHADEDGE
 70
     3
  9
$SHADEDIF
 70
    70
  9
$TILEMODE
 70
     1
  9
$MAXACTVP
 70
    64
  9
$PLIMCHECK
 70
     0
  9
$PEXTMIN
 10
1.0000000000000000E+20
 20
1.0000000000000000E+20
 30
1.0000000000000000E+20
  9
$PEXTMAX
 10
-1.0000000000000000E+20
 20
-1.0000000000000000E+20
 30
-1.0000000000000000E+20
  9
$PLIMMIN
 10
0.0
 20
0.0
  9
$PLIMMAX
 10
12.0
 20
9.0
  9
$UNITMODE
 70
     0
  9
$VISRETAIN
 70
     1
  9
$PLINEGEN
 70
     0
  9
$PSLTSCALE
 70
     1
  0
ENDSEC
  0
SECTION
  2
TABLES
  0
TABLE
  2
VPORT
 70
     1
  0
VPORT
  2
*ACTIVE
 70
     0
 10
0.0
 20
0.0
 11
1.0
 21
1.0
 12
1397.682677602773083
 22
340.7519265171284246
 13
0.0
 23
0.0
 14
1.0
 24
1.0
 15
0.0
 25
0.0
 16
0.0
 26
0.0
 36
17.1152628219792007
 17
3803.5440673828129547
 27
125.9952621967499056
 37
0.0
 40
3.9733820827575519
 41
2.5251322751322749
 42
50.0
 43
0.0
 44
0.0
 50
0.0
 51
0.0
 71
     0
 72
   100
 73
     1
 74
     1
 75
     0
 76
     0
 77
     0
 78
     0
  0
ENDTAB
  0
TABLE
  2
LTYPE
 70
     2
  0
LTYPE
  2
CONTINUOUS
 70
     0
  3
Solid line
 72
    65
 73
     0
 40
0.0
  0
LTYPE
  2
PHANTOM2
 70
     0
  3
___ _ _ ___ _ _ ___ _ _ ___ _ _
 72
    65
 73
     6
 40
1.25
 49
0.625
 49
-0.125
 49
0.125
 49
-0.125
 49
0.125
 49
-0.125
  0
ENDTAB
  0
TABLE
  2
LAYER
 70
     2
  0
LAYER
  2
0
 70
     0
 62
   255
  6
CONTINUOUS
  0
LAYER
  2
DEFPOINTS
 70
     0
 62
     7
  6
CONTINUOUS
  0
ENDTAB
  0
TABLE
  2
STYLE
 70
     1
  0
STYLE
  2
STANDARD
 70
     0
 40
0.0
 41
0.8
 50
0.0
 71
     0
 42
0.2
  3
txt
  4

  0
ENDTAB
  0
TABLE
  2
VIEW
 70
     0
  0
ENDTAB
  0
TABLE
  2
UCS
 70
     0
  0
ENDTAB
  0
TABLE
  2
APPID
 70
    10
  0
APPID
  2
ACAD
 70
     0
  0
APPID
  2
ACAD_MLEADERVER
 70
     0
  0
APPID
  2
ACAD_EXEMPT_FROM_CAD_STANDARDS
 70
     0
  0
APPID
  2
ACAD_NAV_VCDISPLAY
 70
     0
  0
APPID
  2
ACAECLAYERSTANDARD
 70
     0
  0
APPID
  2
ACCMTRANSPARENCY
 70
     0
  0
APPID
  2
ACAD_DSTYLE_DIMJAG
 70
     0
  0
APPID
  2
ACAD_DSTYLE_DIMTALN
 70
     0
  0
APPID
  2
ACDBATTR
 70
     0
  0
APPID
  2
ACADANNOTATIVE
 70
     0
  0
ENDTAB
  0
TABLE
  2
DIMSTYLE
 70
     2
  0
DIMSTYLE
  2
STANDARD
 70
     0
  3

  4

  5

  6

  7

 40
1.0
 41
0.1875
 42
0.0625
 43
0.38
 44
0.125
 45
0.0
 46
0.0
 47
0.01
 48
0.01
140
0.15625
141
0.09
142
0.0
143
25.3999999999999986
144
1.0
145
0.0
146
1.0
147
0.09
 71
     1
 72
     0
 73
     1
 74
     1
 75
     0
 76
     0
 77
     0
 78
     4
170
     0
171
     2
172
     0
173
     0
174
     0
175
     0
176
     0
177
     0
178
     0
  0
DIMSTYLE
  2
ANNOTATIVE
 70
     0
  3

  4

  5

  6

  7

 40
0.0
 41
0.18
 42
0.0625
 43
0.38
 44
0.18
 45
0.0
 46
0.0
 47
0.0
 48
0.0
140
0.18
141
0.09
142
0.0
143
25.3999999999999986
144
1.0
145
0.0
146
1.0
147
0.09
 71
     0
 72
     0
 73
     1
 74
     1
 75
     0
 76
     0
 77
     0
 78
     0
170
     0
171
     2
172
     0
173
     0
174
     0
175
     0
176
     0
177
     0
178
     0
  0
ENDTAB
  0
ENDSEC
  0
SECTION
  2
BLOCKS
  0
BLOCK
  8
0
  2
$MODEL_SPACE
 70
     0
 10
0.0
 20
0.0
 30
0.0
  3
$MODEL_SPACE
  1

  0
ENDBLK
  5
21
  8
0
  0
BLOCK
 67
     1
  8
0
  2
$PAPER_SPACE
 70
     0
 10
0.0
 20
0.0
 30
0.0
  3
$PAPER_SPACE
  1

  0
ENDBLK
  5
1D
 67
     1
  8
0
  0
BLOCK
  8
0
  2
_FILLED
 70
     0
 10
0.0
 20
0.0
 30
0.0
  3
_FILLED
  1

  0
SOLID
  5
13053
  8
0
  6
BYBLOCK
 62
     0
 10
0.0
 20
0.0
 30
0.0
 11
-1.0
 21
0.1666666667
 31
0.0
 12
-1.0
 22
-0.1666666667
 32
0.0
 13
-1.0
 23
-0.1666666667
 33
0.0
  0
ENDBLK
  5
13054
  8
0
  6
BYBLOCK
 62
     0
  0
ENDSEC
  0
SECTION
  2
ENTITIES
  0
ATTDEF
  5
3930
  8
DEFPOINTS
 10
5201.2277636096141578
 20
468.7172570209867786
 30
0.0
 40
0.001
  1
P32417-CREM
  3

  2
MODELNUMBER
 70
     0
1001
ACDBATTR
1070
     0
1070
     1
  0
ATTDEF
  5
3931
  8
DEFPOINTS
 10
5201.2277636096141578
 20
468.7155903543201134
 30
0.0
 40
0.001
  1
ONE
  3

  2
TRADENAME
 70
     0
1001
ACDBATTR
1070
     0
1070
     1
  0
ATTDEF
  5
3932
  8
DEFPOINTS
 10
5201.2277636096141578
 20
468.7139236876535051
 30
0.0
 40
0.001
  1
VALVE TRIM
  3

  2
PRODUCT
 70
     0
1001
ACDBATTR
1070
     0
1070
     1
  0
LINE
  5
1853D
  8
0
 10
5200.8246911074320451
 20
465.2320110484898805
 30
0.0
 11
5200.8247399026849962
 21
466.2879917463079096
 31
0.0
  0
LINE
  5
1853E
  8
0
 10
5200.8247410578860581
 20
466.3129915152654803
 30
0.0
 11
5200.8247630068572107
 21
466.787990360053584
 31
0.0
  0
ARC
  5
1853F
  8
0
 10
5200.8097630068732542
 20
466.7879910531808036
 30
0.0
 40
0.015
 50
359.9973524495928245
 51
90.0
  0
LINE
  5
18540
  8
0
 10
5198.1017449855853556
 20
468.7129910531807013
 30
0.0
 11
5204.3517449855862651
 21
468.7129910531807013
 31
0.0
  0
ARC
  5
18541
  8
0
 10
5201.2269492060313496
 20
465.2572979249699188
 30
0.0
 40
0.4022385540000363
 50
240.104270708298003
 51
269.9632297020102101
  0
ARC
  5
18542
  8
0
 10
5201.2269492060313496
 20
465.2572979249698051
 30
0.0
 40
0.4022385539999399
 50
218.411680537409211
 51
240.104270708298003
  0
ARC
  5
18543
  8
0
 10
5201.2269492060313496
 20
465.2572979249699188
 30
0.0
 40
0.4022385540000554
 50
189.3773885397727099
 51
218.411680537409211
  0
ARC
  5
18544
  8
0
 10
5201.4884658670007411
 20
465.3004856997637262
 30
0.0
 40
0.6672973170242195
 50
185.8897683846606128
 51
189.3773885397727099
  0
ARC
  5
18545
  8
0
 10
5200.9468828006320109
 20
465.1622710318699205
 30
0.0
 40
0.1864562598312195
 50
150.2146394131877116
 51
256.1362786364198882
  0
ARC
  5
18546
  8
0
 10
5200.5246911074318632
 20
465.4039192615796878
 30
0.0
 40
0.3000000000000009
 50
330.2146394131876832
 51
0.0
  0
ARC
  5
18547
  8
0
 10
5200.78512835015772
 20
464.705034727479017
 30
0.0
 40
0.3
 50
51.3088104076957379
 51
67.029520689382224
  0
ARC
  5
18548
  8
0
 10
5201.2259814800318054
 20
464.9611250874697816
 30
0.0
 40
0.1850046807000005
 50
217.9215679255194118
 51
270.2197714922389764
  0
ARC
  5
18549
  8
0
 10
5200.8433841831656537
 20
464.6630498474189039
 30
0.0
 40
0.3
 50
37.9215679255194331
 51
57.130732471348793
  0
ARC
  5
1854A
  8
0
 10
5201.2270900833236738
 20
465.2568670245594262
 30
0.0
 40
0.4070000407947528
 50
231.3088104076956881
 51
237.1307324713488072
  0
LINE
  5
1854B
  8
0
 10
5201.6286911074312229
 20
465.2320110484898805
 30
0.0
 11
5201.6287399026223284
 21
466.287990360053584
 31
0.0
  0
ARC
  5
1854C
  8
0
 10
5201.6137399026365529
 20
466.2879910531808036
 30
0.0
 40
0.015
 50
359.9973524495928245
 51
90.0
  0
LINE
  5
1854D
  8
0
 10
5201.6287410578443087
 20
466.3129905910960247
 30
0.0
 11
5201.6287630408878613
 21
466.7887268065813942
 31
0.0
  0
ARC
  5
1854E
  8
0
 10
5201.2264330088319184
 20
465.2572979249699188
 30
0.0
 40
0.4022385540000363
 50
270.0367702979896762
 51
299.8957292917020254
  0
ARC
  5
1854F
  8
0
 10
5201.2264330088319184
 20
465.2572979249698051
 30
0.0
 40
0.4022385539999399
 50
299.8957292917020254
 51
321.588319462590789
  0
ARC
  5
18550
  8
0
 10
5201.2264330088319184
 20
465.2572979249699188
 30
0.0
 40
0.4022385540000554
 50
321.588319462590789
 51
350.6226114602271764
  0
ARC
  5
18551
  8
0
 10
5200.9649163478634364
 20
465.3004856997637262
 30
0.0
 40
0.6672973170242195
 50
350.6226114602271764
 51
354.1102316153392735
  0
ARC
  5
18552
  8
0
 10
5201.5064994142312571
 20
465.1622710318699205
 30
0.0
 40
0.1864562598312195
 50
283.8637213635799981
 51
29.7853605868122706
  0
ARC
  5
18553
  8
0
 10
5201.9286911074323143
 20
465.4039192615796878
 30
0.0
 40
0.3000000000000009
 50
180.0
 51
209.7853605868122031
  0
ARC
  5
18554
  8
0
 10
5201.6682538647037291
 20
464.705034727479017
 30
0.0
 40
0.3
 50
112.9704793106178045
 51
128.6911895923041982
  0
ARC
  5
18555
  8
0
 10
5201.2274007348323721
 20
464.9611250874697816
 30
0.0
 40
0.1850046807000005
 50
269.7802285077610236
 51
322.0784320744805882
  0
ARC
  5
18556
  8
0
 10
5201.6099980316976144
 20
464.6630498474189039
 30
0.0
 40
0.3
 50
122.869267528651207
 51
142.0784320744805882
  0
ARC
  5
18557
  8
0
 10
5201.2262921315395943
 20
465.2568670245594262
 30
0.0
 40
0.4070000407947528
 50
302.8692675286512213
 51
308.6911895923042266
  0
LINE
  5
18559
  8
0
 10
5198.1017449855853556
 20
468.7129910531807013
 30
0.0
 11
5198.1017449855853556
 21
467.7229910531806922
 31
0.0
  0
LINE
  5
1855A
  8
0
 10
5204.3517449855862651
 20
468.7129910531807013
 30
0.0
 11
5204.3517449855862651
 21
467.7229910531806922
 31
0.0
  0
LINE
  5
1855B
  8
0
 10
5200.2267449855853556
 20
467.6429910531807081
 30
0.0
 11
5200.2267449855853556
 21
467.6229910531807832
 31
0.0
  0
LINE
  5
1855C
  8
0
 10
5202.2267449855853556
 20
467.6429910531807081
 30
0.0
 11
5202.2267449855853556
 21
467.6229910531807832
 31
0.0
  0
LINE
  5
1855D
  8
0
 10
5200.4397449855860032
 20
466.8129910531807241
 30
0.0
 11
5200.4397449855860032
 21
467.5929910531808105
 31
0.0
  0
LINE
  5
1855E
  8
0
 10
5202.0137449855856175
 20
466.8129910531807241
 30
0.0
 11
5202.0137449855856175
 21
467.5929910531808105
 31
0.0
  0
LINE
  5
1855F
  8
0
 10
5198.1717449855859741
 20
467.6529910531808127
 30
0.0
 11
5204.2817449855856466
 21
467.6529910531808127
 31
0.0
  0
LINE
  5
18560
  8
0
 10
5200.2567449855860104
 20
467.5929910531808105
 30
0.0
 11
5202.1967449855847008
 21
467.5929910531808105
 31
0.0
  0
LINE
  5
18561
  8
0
 10
5200.449744985585312
 20
466.8029910531806763
 30
0.0
 11
5202.0037449855853993
 21
466.8029910531806763
 31
0.0
  0
ARC
  5
18562
  8
0
 10
5201.6437449855848172
 20
466.7879910531808036
 30
0.0
 40
0.015
 50
90.0
 51
180.0
  0
ARC
  5
18563
  8
0
 10
5198.1717449855859741
 20
467.7229910531806922
 30
0.0
 40
0.07
 50
180.0000000000032117
 51
270.0
  0
ARC
  5
18564
  8
0
 10
5204.2817449855856466
 20
467.7229910531806922
 30
0.0
 40
0.07
 50
270.0
 51
359.9999999999968168
  0
ARC
  5
18565
  8
0
 10
5200.2367449855846644
 20
467.6429910531807081
 30
0.0
 40
0.01
 50
90.0
 51
180.0000000000391083
  0
ARC
  5
18566
  8
0
 10
5202.2167449855860468
 20
467.6429910531807081
 30
0.0
 40
0.01
 50
359.9999999999575948
 51
90.0
  0
ARC
  5
18567
  8
0
 10
5200.2567449855860104
 20
467.6229910531807832
 30
0.0
 40
0.03
 50
180.0
 51
270.0
  0
ARC
  5
18568
  8
0
 10
5202.1967449855847008
 20
467.6229910531807832
 30
0.0
 40
0.03
 50
270.0
 51
0.0000000000065138
  0
ARC
  5
18569
  8
0
 10
5200.449744985585312
 20
466.8129910531807241
 30
0.0
 40
0.01
 50
180.0
 51
270.0
  0
ARC
  5
1856A
  8
0
 10
5202.0037449855853993
 20
466.8129910531807241
 30
0.0
 40
0.01
 50
270.0
 51
359.9999999999902229
  0
LINE
  5
1856B
  8
0
 10
5200.8397399026698622
 20
466.30299105318079
 30
0.0
 11
5201.6137399026365529
 21
466.30299105318079
 31
0.0
  0
ARC
  5
1856C
  8
0
 10
5200.8397399026698622
 20
466.2879910531808036
 30
0.0
 40
0.015
 50
90.0
 51
179.9973524495927961
  0
ARC
  5
1856D
  8
0
 10
5200.834741057876272
 20
466.3129910531807241
 30
0.0
 40
0.01
 50
179.9973524495927961
 51
270.0
  0
ARC
  5
1856E
  8
0
 10
5201.6187410578550043
 20
466.3129910531807241
 30
0.0
 40
0.01
 50
270.0
 51
359.9973524495829906
  0
ENDSEC
  0
EOF
