  0
SECTION
  2
HEADER
  9
$ACADVER
  1
AC1009
  9
$INSBASE
 10
2929.9956407815097919
 20
140.5255216336533977
 30
0.0
  9
$EXTMIN
 10
2918.2646735054390774
 20
140.516548510267512
 30
-0.0015258207003583
  9
$EXTMAX
 10
2941.8572182858151791
 20
149.3033735922448102
 30
0.0000000349246037
  9
$LIMMIN
 10
0.0
 20
0.0
  9
$LIMMAX
 10
11.6929133858000007
 20
8.2677165353999982
  9
$ORTHOMODE
 70
     0
  9
$REGENMODE
 70
     1
  9
$FILLMODE
 70
     1
  9
$QTEXTMODE
 70
     0
  9
$MIRRTEXT
 70
     0
  9
$DRAGMODE
 70
     2
  9
$LTSCALE
 40
0.6431102362
  9
$OSMODE
 70
  4095
  9
$ATTMODE
 70
     1
  9
$TEXTSIZE
 40
0.2
  9
$TRACEWID
 40
0.05
  9
$TEXTSTYLE
  7
STANDARD
  9
$CLAYER
  8
0
  9
$CELTYPE
  6
BYLAYER
  9
$CECOLOR
 62
   256
  9
$DIMSCALE
 40
1.0
  9
$DIMASZ
 40
0.1875
  9
$DIMEXO
 40
0.0625
  9
$DIMDLI
 40
0.4443307087
  9
$DIMRND
 40
0.0
  9
$DIMDLE
 40
0.0
  9
$DIMEXE
 40
0.125
  9
$DIMTP
 40
0.01
  9
$DIMTM
 40
0.01
  9
$DIMTXT
 40
2.0
  9
$DIMCEN
 40
0.1052362205
  9
$DIMTSZ
 40
0.0
  9
$DIMTOL
 70
     1
  9
$DIMLIM
 70
     0
  9
$DIMTIH
 70
     1
  9
$DIMTOH
 70
     1
  9
$DIMSE1
 70
     0
  9
$DIMSE2
 70
     0
  9
$DIMTAD
 70
     0
  9
$DIMZIN
 70
     0
  9
$DIMBLK
  1

  9
$DIMASO
 70
     1
  9
$DIMSHO
 70
     1
  9
$DIMPOST
  1
\X
  9
$DIMAPOST
  1

  9
$DIMALT
 70
     1
  9
$DIMALTD
 70
     2
  9
$DIMALTF
 40
25.3999999999999986
  9
$DIMLFAC
 40
1.0
  9
$DIMTOFL
 70
     0
  9
$DIMTVP
 40
0.0
  9
$DIMTIX
 70
     0
  9
$DIMSOXD
 70
     0
  9
$DIMSAH
 70
     0
  9
$DIMBLK1
  1

  9
$DIMBLK2
  1

  9
$DIMSTYLE
  2
STANDARD
  9
$DIMCLRD
 70
     0
  9
$DIMCLRE
 70
     0
  9
$DIMCLRT
 70
     0
  9
$DIMTFAC
 40
1.0
  9
$DIMGAP
 40
0.09
  9
$LUNITS
 70
     2
  9
$LUPREC
 70
     4
  9
$SKETCHINC
 40
0.1
  9
$FILLETRAD
 40
0.03
  9
$AUNITS
 70
     0
  9
$AUPREC
 70
     0
  9
$MENU
  1
.
  9
$ELEVATION
 40
0.0
  9
$PELEVATION
 40
0.0
  9
$THICKNESS
 40
0.0
  9
$LIMCHECK
 70
     0
  9
$BLIPMODE
 70
     0
  9
$CHAMFERA
 40
0.0
  9
$CHAMFERB
 40
0.0
  9
$SKPOLY
 70
     0
  9
$TDCREATE
 40
2458060.468368056230247
  9
$TDUPDATE
 40
2460111.4773148149251938
  9
$TDINDWG
 40
0.6932709491
  9
$TDUSRTIMER
 40
0.6932709491
  9
$USRTIMER
 70
     1
  9
$ANGBASE
 50
0.0
  9
$ANGDIR
 70
     0
  9
$PDMODE
 70
     0
  9
$PDSIZE
 40
0.3125
  9
$PLINEWID
 40
0.0
  9
$COORDS
 70
     1
  9
$SPLFRAME
 70
     0
  9
$SPLINETYPE
 70
     6
  9
$SPLINESEGS
 70
     8
  9
$ATTDIA
 70
     1
  9
$ATTREQ
 70
     1
  9
$HANDLING
 70
     1
  9
$HANDSEED
  5
396A6
  9
$SURFTAB1
 70
     6
  9
$SURFTAB2
 70
     6
  9
$SURFTYPE
 70
     6
  9
$SURFU
 70
     6
  9
$SURFV
 70
     6
  9
$UCSNAME
  2

  9
$UCSORG
 10
0.0
 20
0.0
 30
0.0
  9
$UCSXDIR
 10
1.0
 20
0.0
 30
0.0
  9
$UCSYDIR
 10
0.0
 20
1.0
 30
0.0
  9
$PUCSNAME
  2

  9
$PUCSORG
 10
0.0
 20
0.0
 30
0.0
  9
$PUCSXDIR
 10
1.0
 20
0.0
 30
0.0
  9
$PUCSYDIR
 10
0.0
 20
1.0
 30
0.0
  9
$USERI1
 70
     0
  9
$USERI2
 70
     0
  9
$USERI3
 70
     0
  9
$USERI4
 70
     0
  9
$USERI5
 70
     0
  9
$USERR1
 40
0.0
  9
$USERR2
 40
0.0
  9
$USERR3
 40
0.0
  9
$USERR4
 40
0.0
  9
$USERR5
 40
0.0
  9
$WORLDVIEW
 70
     1
  9
$SHADEDGE
 70
     3
  9
$SHADEDIF
 70
    70
  9
$TILEMODE
 70
     1
  9
$MAXACTVP
 70
    64
  9
$PLIMCHECK
 70
     0
  9
$PEXTMIN
 10
1.0000000000000000E+20
 20
1.0000000000000000E+20
 30
1.0000000000000000E+20
  9
$PEXTMAX
 10
-1.0000000000000000E+20
 20
-1.0000000000000000E+20
 30
-1.0000000000000000E+20
  9
$PLIMMIN
 10
0.0
 20
0.0
  9
$PLIMMAX
 10
12.0
 20
9.0
  9
$UNITMODE
 70
     0
  9
$VISRETAIN
 70
     1
  9
$PLINEGEN
 70
     0
  9
$PSLTSCALE
 70
     1
  0
ENDSEC
  0
SECTION
  2
TABLES
  0
TABLE
  2
VPORT
 70
     1
  0
VPORT
  2
*ACTIVE
 70
     0
 10
0.0
 20
0.0
 11
1.0
 21
1.0
 12
-373.6321693387480991
 22
-50.3515505246316195
 13
0.0
 23
0.0
 14
1.0
 24
1.0
 15
0.0
 25
0.0
 16
0.0
 26
0.0
 36
96.5995694866707311
 17
3303.693115234375
 27
195.2615115758877096
 37
0.0
 40
16.5779522648526907
 41
1.4307692307692299
 42
50.0
 43
0.0
 44
0.0
 50
0.0
 51
0.0
 71
     0
 72
   100
 73
     1
 74
     1
 75
     0
 76
     0
 77
     0
 78
     0
  0
ENDTAB
  0
TABLE
  2
LTYPE
 70
     2
  0
LTYPE
  2
CONTINUOUS
 70
     0
  3
Solid line
 72
    65
 73
     0
 40
0.0
  0
LTYPE
  2
PHANTOM2
 70
     0
  3
___ _ _ ___ _ _ ___ _ _ ___ _ _
 72
    65
 73
     6
 40
1.25
 49
0.625
 49
-0.125
 49
0.125
 49
-0.125
 49
0.125
 49
-0.125
  0
ENDTAB
  0
TABLE
  2
LAYER
 70
     2
  0
LAYER
  2
0
 70
     0
 62
   255
  6
CONTINUOUS
  0
LAYER
  2
DEFPOINTS
 70
     0
 62
     7
  6
CONTINUOUS
  0
ENDTAB
  0
TABLE
  2
STYLE
 70
     1
  0
STYLE
  2
STANDARD
 70
     0
 40
0.0
 41
0.8
 50
0.0
 71
     0
 42
0.2
  3
txt
  4

  0
ENDTAB
  0
TABLE
  2
VIEW
 70
     0
  0
ENDTAB
  0
TABLE
  2
UCS
 70
     0
  0
ENDTAB
  0
TABLE
  2
APPID
 70
     9
  0
APPID
  2
ACAD
 70
     0
  0
APPID
  2
ACAD_MLEADERVER
 70
     0
  0
APPID
  2
ACAD_EXEMPT_FROM_CAD_STANDARDS
 70
     0
  0
APPID
  2
ACAD_NAV_VCDISPLAY
 70
     0
  0
APPID
  2
ACAECLAYERSTANDARD
 70
     0
  0
APPID
  2
ACCMTRANSPARENCY
 70
     0
  0
APPID
  2
ACAD_DSTYLE_DIMJAG
 70
     0
  0
APPID
  2
ACAD_DSTYLE_DIMTALN
 70
     0
  0
APPID
  2
ACDBATTR
 70
     0
  0
ENDTAB
  0
TABLE
  2
DIMSTYLE
 70
     1
  0
DIMSTYLE
  2
STANDARD
 70
     0
  3

  4

  5

  6

  7

 40
1.0
 41
0.1875
 42
0.0625
 43
0.38
 44
0.125
 45
0.0
 46
0.0
 47
0.01
 48
0.01
140
0.15625
141
0.09
142
0.0
143
25.3999999999999986
144
1.0
145
0.0
146
1.0
147
0.09
 71
     1
 72
     0
 73
     1
 74
     1
 75
     0
 76
     0
 77
     0
 78
     4
170
     0
171
     2
172
     0
173
     0
174
     0
175
     0
176
     0
177
     0
178
     0
  0
ENDTAB
  0
ENDSEC
  0
SECTION
  2
BLOCKS
  0
BLOCK
  8
0
  2
$MODEL_SPACE
 70
     0
 10
0.0
 20
0.0
 30
0.0
  3
$MODEL_SPACE
  1

  0
ENDBLK
  5
21
  8
0
  0
BLOCK
 67
     1
  8
0
  2
$PAPER_SPACE
 70
     0
 10
0.0
 20
0.0
 30
0.0
  3
$PAPER_SPACE
  1

  0
ENDBLK
  5
1D
 67
     1
  8
0
  0
ENDSEC
  0
SECTION
  2
ENTITIES
  0
ATTDEF
  5
35BFF
  8
DEFPOINTS
 10
2929.9915136258928214
 20
140.5293444957686972
 30
0.0
 40
0.001
  1
P32419-LV
  3

  2
MODELNUMBER
 70
     0
1001
ACDBATTR
1070
     0
1070
     1
  0
ATTDEF
  5
35C00
  8
DEFPOINTS
 10
2929.9915136258928214
 20
140.5276778291020037
 30
0.0
 40
0.001
  1
ONE
  3

  2
TRADENAME
 70
     0
1001
ACDBATTR
1070
     0
1070
     1
  0
ATTDEF
  5
35C01
  8
DEFPOINTS
 10
2929.9915136258928214
 20
140.5260111624353101
 30
0.0
 40
0.001
  1
BATHROOM SINK FAUCET
  3

  2
PRODUCT
 70
     0
1001
ACDBATTR
1070
     0
1070
     1
  0
LINE
  5
39565
  8
0
 10
2938.7106407815099374
 20
144.0770018942668003
 30
0.0
 11
2938.7106407815099374
 21
143.0153005880555952
 31
0.0
  0
LINE
  5
39566
  8
0
 10
2941.7150779756098018
 20
143.0210005880556139
 30
0.0
 11
2941.7150779756098018
 21
144.0770018942668003
 31
0.0
  0
LINE
  5
39567
  8
0
 10
2941.687277975609959
 20
143.9640032183990002
 30
0.0
 11
2938.7384407815111445
 21
143.9640032183990002
 31
0.0
  0
ARC
  5
39568
  8
0
 10
2938.739367748235054
 20
143.9352807673205064
 30
0.0
 40
0.0287374052980455
 50
91.8484791861450987
 51
178.4556434512722944
  0
LINE
  5
39569
  8
0
 10
2941.6872783642511422
 20
143.8538947605262024
 30
0.0
 11
2938.7384407815120539
 21
143.8538947605262024
 31
0.0
  0
ARC
  5
3956A
  8
0
 10
2938.7384403928690517
 20
143.8260951491670028
 30
0.0
 40
0.0277996113619034
 50
89.9991989969282287
 51
180.000800999624289
  0
LINE
  5
3956B
  8
0
 10
2941.687277975609959
 20
143.7264329574533974
 30
0.0
 11
2938.7384407815111445
 21
143.7264329574533974
 31
0.0
  0
ARC
  5
3956C
  8
0
 10
2938.7390994521829271
 20
143.6979742867808909
 30
0.0
 40
0.0284662920575118
 50
91.3258635121888318
 51
178.6741364868956055
  0
LINE
  5
3956D
  8
0
 10
2941.6872779756031377
 20
143.1339992639533989
 30
0.0
 11
2938.7384407815179657
 21
143.1339992639533989
 31
0.0
  0
ARC
  5
3956E
  8
0
 10
2938.7405539629130544
 20
143.274086568943801
 30
0.0
 40
0.0299924289858682
 50
184.1660118109492998
 51
268.2756412195278131
  0
LINE
  5
3956F
  8
0
 10
2941.6872779756031377
 20
143.3715695248990016
 30
0.0
 11
2938.7384407815179657
 21
143.3715695248990016
 31
0.0
  0
ARC
  5
39570
  8
0
 10
2938.7390949183409248
 20
143.4000236617339112
 30
0.0
 40
0.0284616548711296
 50
181.3169504286038887
 51
268.6830498880868845
  0
LINE
  5
39571
  8
0
 10
2941.7150779756098018
 20
143.5463014841533891
 30
0.0
 11
2938.7106407815099374
 21
143.5463014841533891
 31
0.0
  0
LINE
  5
39572
  8
0
 10
2941.6860673022429182
 20
143.2441077218059036
 30
0.0
 11
2938.7396514548781852
 21
143.2441077218059036
 31
0.0
  0
LINE
  5
39573
  8
0
 10
2941.6815779756111624
 20
144.1105018942668039
 30
0.0
 11
2938.7441407815108505
 21
144.1105018942668039
 31
0.0
  0
LINE
  5
39574
  8
0
 10
2938.7384407815097802
 20
142.9875005880556103
 30
0.0
 11
2941.6815779756111624
 21
142.9875005880556103
 31
0.0
  0
ARC
  5
39575
  8
0
 10
2938.7384407815097802
 20
143.0153005880555952
 30
0.0
 40
0.0278
 50
180.0000000000015916
 51
270.0
  0
ARC
  5
39576
  8
0
 10
2941.6815779756111624
 20
143.0210005880556139
 30
0.0
 40
0.0335
 50
270.0
 51
359.9999999999984084
  0
ARC
  5
39577
  8
0
 10
2941.6815779756111624
 20
144.0770018942668003
 30
0.0
 40
0.0335
 50
0.0000000000016284
 51
90.0
  0
ARC
  5
39578
  8
0
 10
2938.7441407815108505
 20
144.0770018942668003
 30
0.0
 40
0.0335
 50
90.0
 51
180.0000000000015916
  0
LINE
  5
39579
  8
0
 10
2939.3506407815111743
 20
141.0555216336533988
 30
0.0
 11
2936.6406407815097737
 21
141.0555216336533988
 31
0.0
  0
ARC
  5
3957A
  8
0
 10
2936.6406407815097737
 20
141.0355216336533886
 30
0.0
 40
0.02
 50
90.0
 51
180.0
  0
LINE
  5
3957B
  8
0
 10
2936.6206407815097919
 20
141.0355216336533886
 30
0.0
 11
2936.6206407815097919
 21
140.5255216336533977
 31
0.0
  0
LINE
  5
3957C
  8
0
 10
2937.5246407814611302
 20
142.4255216336534033
 30
0.0
 11
2937.9956407815097919
 21
142.4255216336534033
 31
0.0
  0
ARC
  5
3957D
  8
0
 10
2937.5246407814611302
 20
142.4055216336533931
 30
0.0
 40
0.02
 50
90.0
 51
180.0
  0
LINE
  5
3957E
  8
0
 10
2937.5046407814597842
 20
141.075521633653409
 30
0.0
 11
2937.5046407814597842
 21
142.4055216336533931
 31
0.0
  0
ARC
  5
3957F
  8
0
 10
2937.4846407814598024
 20
141.075521633653409
 30
0.0
 40
0.02
 50
270.0
 51
0.0
  0
LINE
  5
39580
  8
0
 10
2936.6206407815097919
 20
140.5255216336533977
 30
0.0
 11
2939.3706407815097919
 21
140.5255216336533977
 31
0.0
  0
LINE
  5
39581
  8
0
 10
2937.5190407815111939
 20
142.4335216336534131
 30
0.0
 11
2937.9956407815097919
 21
142.4335216336534131
 31
0.0
  0
ARC
  5
39582
  8
0
 10
2937.5190407815111939
 20
142.447921633653408
 30
0.0
 40
0.0144
 50
180.0000000000032117
 51
270.0
  0
LINE
  5
39583
  8
0
 10
2937.6456407815107923
 20
142.4335216336534131
 30
0.0
 11
2937.6456407815107923
 21
142.4255216336534033
 31
0.0
  0
ARC
  5
39584
  8
0
 10
2939.3506407815111743
 20
141.0355216336533886
 30
0.0
 40
0.02
 50
0.0
 51
90.0
  0
LINE
  5
39585
  8
0
 10
2939.3706407815097919
 20
141.0355216336533886
 30
0.0
 11
2939.3706407815097919
 21
140.5255216336533977
 31
0.0
  0
LINE
  5
39586
  8
0
 10
2938.4666407815611819
 20
142.4255216336534033
 30
0.0
 11
2937.9956407815097919
 21
142.4255216336534033
 31
0.0
  0
ARC
  5
39587
  8
0
 10
2938.4666407815611819
 20
142.4055216336533931
 30
0.0
 40
0.02
 50
0.0
 51
90.0
  0
LINE
  5
39588
  8
0
 10
2938.4866407815597995
 20
141.075521633653409
 30
0.0
 11
2938.4866407815597995
 21
142.4055216336533931
 31
0.0
  0
ARC
  5
39589
  8
0
 10
2938.5066407815611456
 20
141.075521633653409
 30
0.0
 40
0.02
 50
180.0
 51
270.0
  0
LINE
  5
3958A
  8
0
 10
2938.4722407815111183
 20
142.4335216336534131
 30
0.0
 11
2937.9956407815097919
 21
142.4335216336534131
 31
0.0
  0
ARC
  5
3958B
  8
0
 10
2938.4722407358799501
 20
142.4479217438135947
 30
0.0
 40
0.0144001101602501
 50
270.0001815539704921
 51
359.828471178728023
  0
LINE
  5
3958C
  8
0
 10
2938.3456407815110651
 20
142.4335216336534131
 30
0.0
 11
2938.3456407815110651
 21
142.4255216336534033
 31
0.0
  0
LINE
  5
3958D
  8
0
 10
2937.5046407815098064
 20
142.8335216336533904
 30
0.0
 11
2937.5046407815098064
 21
142.447921633653408
 31
0.0
  0
LINE
  5
3958E
  8
0
 10
2938.4866407815111415
 20
142.8335216336533904
 30
0.0
 11
2938.4866407815111415
 21
142.4478786336534029
 31
0.0
  0
ARC
  5
3958F
  8
0
 10
2938.7106407815099374
 20
142.8335216336533904
 30
0.0
 40
0.2240000000000015
 50
93.4629268166452931
 51
180.0
  0
ARC
  5
39590
  8
0
 10
2938.6962407815099141
 20
143.0714863369184116
 30
0.0
 40
0.0144
 50
273.4629268166452789
 51
0.0
  0
ARC
  5
39591
  8
0
 10
2938.7107112233147745
 20
142.8334927031681048
 30
0.0
 40
1.2060704421517869
 50
90.6957591549311104
 51
179.9986256236369115
  0
ARC
  5
39592
  8
0
 10
2938.6962407815099141
 20
144.0250752848687057
 30
0.0
 40
0.0144
 50
0.0
 51
90.6957591549311104
  0
ARC
  5
39593
  8
0
 10
2938.7379306089569582
 20
143.1718335323120925
 30
0.0
 40
0.0378377078888025
 50
223.8435745677541036
 51
270.7725526193707992
  0
ARC
  5
39594
  8
0
 10
2941.6863510088860494
 20
143.9352807673205064
 30
0.0
 40
0.0287374052980455
 50
1.5443565487276569
 51
88.1515208138548871
  0
ARC
  5
39595
  8
0
 10
2941.6872783642511422
 20
143.8260951491670028
 30
0.0
 40
0.0277996113619034
 50
359.9991990003755973
 51
90.0008010030717855
  0
ARC
  5
39596
  8
0
 10
2941.6866193049381764
 20
143.6979742867808909
 30
0.0
 40
0.0284662920575118
 50
1.3258635131044121
 51
88.674136487811154
  0
ARC
  5
39597
  8
0
 10
2941.685164794208049
 20
143.274086568943801
 30
0.0
 40
0.0299924289858682
 50
271.7243587804720732
 51
355.8339881890506149
  0
ARC
  5
39598
  8
0
 10
2941.6866238387788144
 20
143.4000236617339112
 30
0.0
 40
0.0284616548711296
 50
271.3169501119131155
 51
358.6830495713961113
  0
ARC
  5
39599
  8
0
 10
2941.6877881481641452
 20
143.1718335323120925
 30
0.0
 40
0.0378377078888025
 50
269.2274473806293145
 51
316.1564254322460101
  0
LINE
  5
3959A
  8
0
 10
2931.3606407815100283
 20
141.0455216336534079
 30
0.0
 11
2928.6306407815100101
 21
141.0455216336534079
 31
0.0
  0
ARC
  5
3959B
  8
0
 10
2931.3606407815100283
 20
141.0355216336533886
 30
0.0
 40
0.01
 50
0.0
 51
90.0
  0
ARC
  5
3959C
  8
0
 10
2928.6306407815100101
 20
141.0355216336533886
 30
0.0
 40
0.01
 50
90.0
 51
180.0
  0
LINE
  5
3959D
  8
0
 10
2928.6206407815097919
 20
141.0355216336533886
 30
0.0
 11
2928.6206407815097919
 21
140.5255216336533977
 31
0.0
  0
LINE
  5
3959E
  8
0
 10
2929.4656407815100465
 20
141.0455216336534079
 30
0.0
 11
2929.4656407815100465
 21
148.7705216336534022
 31
0.0
  0
LINE
  5
3959F
  8
0
 10
2928.6206407815097919
 20
140.5255216336533977
 30
0.0
 11
2931.3706407815111561
 21
140.5255216336533977
 31
0.0
  0
LINE
  5
395A0
  8
0
 10
2931.3706407815111561
 20
141.0355216336533886
 30
0.0
 11
2931.3706407815111561
 21
140.5255216336533977
 31
0.0
  0
ARC
  5
395A1
  8
0
 10
2929.9956407815097919
 20
148.7705216336534022
 30
0.0
 40
0.5300000000000002
 50
0.0
 51
180.0
  0
LINE
  5
395A2
  8
0
 10
2929.4656407815100465
 20
141.0455216336534079
 30
0.0
 11
2929.4656407815100465
 21
148.7705216336534022
 31
0.0
  0
LINE
  5
395A3
  8
0
 10
2930.5256407815109014
 20
141.0455216336534079
 30
0.0
 11
2930.5256407815109014
 21
148.7705216336534022
 31
0.0
  0
ARC
  5
395A4
  8
0
 10
2929.637580303266077
 20
147.7831442987620107
 30
0.0
 40
0.8052785161276814
 50
258.4659401796545808
 51
269.0527143965983896
  0
ARC
  5
395A5
  8
0
 10
2929.8961130278189557
 20
152.290270016694592
 30
0.0
 40
5.3192452145655773
 50
267.0705587933114202
 51
268.6188801392665937
  0
ARC
  5
395A6
  8
0
 10
2929.9682807405060885
 20
154.8838777127305093
 30
0.0
 40
7.9138447366000522
 50
268.549132999857477
 51
269.3240478591933993
  0
ARC
  5
395A7
  8
0
 10
2929.9974147918878771
 20
156.8517140736074111
 30
0.0
 40
9.8818896292449345
 50
269.2897416984109213
 51
269.9897141830462033
  0
ARC
  5
395A8
  8
0
 10
2929.4810455887891294
 20
147.0096563223821988
 30
0.0
 40
0.0161623720217271
 50
207.5932635367435921
 51
253.9036842296978875
  0
ARC
  5
395A9
  8
0
 10
2929.4752159159202165
 20
147.0066095157471864
 30
0.0
 40
0.009584521580983
 50
177.4299048278797954
 51
177.4639651149342967
  0
ARC
  5
395AA
  8
0
 10
2929.4752159159202165
 20
147.0066095157471864
 30
0.0
 40
0.009584521580983
 50
182.5360348850705918
 51
207.5932635367585135
  0
ARC
  5
395AB
  8
0
 10
2929.5497736262568651
 20
146.9197115987159066
 30
0.0
 40
0.0851956929507527
 50
100.0791453898774961
 51
108.1746576038060965
  0
ARC
  5
395AC
  8
0
 10
2929.6318563669437935
 20
146.4579282471372892
 30
0.0
 40
0.5542174836105715
 50
92.4856884707696736
 51
100.0791453898518029
  0
ARC
  5
395AD
  8
0
 10
2929.7972292410768205
 20
144.3612043741902085
 30
0.0
 40
2.6571792211917948
 50
92.6391495489210541
 51
94.0876275875711059
  0
ARC
  5
395AE
  8
0
 10
2930.3499927266339
 20
128.0474462092601016
 30
0.0
 40
18.9801295911581605
 50
91.0697529987737795
 51
92.0384154702256154
  0
LINE
  5
395AF
  8
0
 10
2929.8777775577100329
 20
147.0217006422832924
 30
0.0
 11
2929.8777775577100329
 21
146.9771774604533903
 31
0.0
  0
LINE
  5
395B0
  8
0
 10
2929.8777775577100329
 20
146.9771774604533903
 30
0.0
 11
2929.8556052681110486
 21
146.9734384964534115
 31
0.0
  0
LINE
  5
395B1
  8
0
 10
2929.8556052681110486
 20
146.9734384964534115
 30
0.0
 11
2929.6748991799108808
 21
146.9788987438533923
 31
0.0
  0
LINE
  5
395B2
  8
0
 10
2929.6748991799108808
 20
146.9788987438533923
 30
0.0
 11
2929.6748991799108808
 21
147.0152072670533983
 31
0.0
  0
LINE
  5
395B3
  8
0
 10
2929.7256832668108473
 20
146.9817731686534046
 30
0.0
 11
2929.7256832668108473
 21
147.0123328422533859
 31
0.0
  0
LINE
  5
395B4
  8
0
 10
2929.7256832668108473
 20
147.0123328422533859
 30
0.0
 11
2929.6714258382771732
 21
147.015403861300598
 31
0.0
  0
LINE
  5
395B5
  8
0
 10
2929.7256832668108473
 20
147.0123328422533859
 30
0.0
 11
2929.8777775577068496
 21
147.0169285505538994
 31
0.0
  0
LINE
  5
395B6
  8
0
 10
2929.8777775577100329
 20
146.9771774604533903
 30
0.0
 11
2929.7256832668108473
 21
146.9817731686534046
 31
0.0
  0
LINE
  5
395B7
  8
0
 10
2929.7256832668108473
 20
146.9817731686534046
 30
0.0
 11
2929.6748991799108808
 21
146.9788987438533923
 31
0.0
  0
LINE
  5
395B8
  8
0
 10
2929.6078200431152254
 20
147.0116242596537006
 30
0.0
 11
2929.6078200430852121
 21
146.9924572972531109
 31
0.0
  0
LINE
  5
395B9
  8
0
 10
2929.6078200430852121
 20
146.9924572972531109
 30
0.0
 11
2929.5348636666099083
 21
146.9915927580534003
 31
0.0
  0
LINE
  5
395BA
  8
0
 10
2929.5231998366098196
 20
147.0006568876534061
 30
0.0
 11
2929.5231998366098196
 21
146.9970848325822885
 31
0.0
  0
ARC
  5
395BB
  8
0
 10
2929.5438624579069256
 20
147.0357677509163068
 30
0.0
 40
0.0450822386226489
 50
246.4020532783850115
 51
258.4859426130067845
  0
ARC
  5
395BC
  8
0
 10
2929.5285540808481528
 20
147.0007248372139088
 30
0.0
 40
0.0068415246004774
 50
226.3179241842287013
 51
246.4020532783850115
  0
ARC
  5
395BD
  8
0
 10
2929.5252514633048122
 20
146.9972666801137109
 30
0.0
 40
0.0020596700268524
 50
185.0652191254816046
 51
226.3179241842076124
  0
LINE
  5
395BE
  8
0
 10
2929.6078200431111327
 20
147.0016487136533954
 30
0.0
 11
2929.5348636666099083
 21
147.0025132528533902
 31
0.0
  0
LINE
  5
395BF
  8
0
 10
2929.5348636666099083
 20
147.0025132528533902
 30
0.0
 11
2929.5348636666099083
 21
147.0035924618534011
 31
0.0
  0
ARC
  5
395C0
  8
0
 10
2929.5447359431518635
 20
146.9553146740911984
 30
0.0
 40
0.0482199925475902
 50
101.8139336774713968
 51
112.734914545096899
  0
ARC
  5
395C1
  8
0
 10
2929.5289813480958401
 20
146.99290996316779
 30
0.0
 40
0.0074571047948009
 50
112.7262709531620999
 51
136.1195851496422051
  0
ARC
  5
395C2
  8
0
 10
2929.5246559971851639
 20
146.9970694945791934
 30
0.0
 40
0.0014562413514392
 50
136.1195851496258058
 51
179.396515491064406
  0
ARC
  5
395C3
  8
0
 10
2935.2895579708688274
 20
-146.9739179378182996
 30
0.0
 40
294.0563525390217023
 50
91.0315556750645243
 51
91.0966681509011096
  0
ARC
  5
395C4
  8
0
 10
2929.7764131726730739
 20
144.2097188295030037
 30
0.0
 40
2.8211928156672039
 50
92.3339199258078338
 51
95.2659662713395363
  0
ARC
  5
395C5
  8
0
 10
2929.5473510512938446
 20
146.6949830625439972
 30
0.0
 40
0.3253947942954299
 50
95.2659662713395363
 51
102.8343482678260017
  0
ARC
  5
395C6
  8
0
 10
2929.4812130592940775
 20
146.9852848626948116
 30
0.0
 40
0.0276543550591769
 50
102.8343482678260017
 51
121.2188612609308933
  0
ARC
  5
395C7
  8
0
 10
2929.4682359646471923
 20
147.0066966822992072
 30
0.0
 40
0.002616962937735
 50
121.2188612609325986
 51
172.6027983075524048
  0
LINE
  5
395C8
  8
0
 10
2921.2806407815101011
 20
144.0770018942668003
 30
0.0
 11
2921.2806407815101011
 21
143.0153005880555952
 31
0.0
  0
LINE
  5
395C9
  8
0
 10
2918.2762035874097819
 20
143.0210005880556139
 30
0.0
 11
2918.2762035874097819
 21
144.0770018942668003
 31
0.0
  0
LINE
  5
395CA
  8
0
 10
2918.304003587410989
 20
143.9640032183990002
 30
0.0
 11
2921.2528407815098035
 21
143.9640032183990002
 31
0.0
  0
ARC
  5
395CB
  8
0
 10
2921.2519138147849844
 20
143.9352807673205064
 30
0.0
 40
0.0287374052980455
 50
1.5443565487276569
 51
88.1515208138548871
  0
LINE
  5
395CC
  8
0
 10
2918.3040031987698057
 20
143.8538947605262024
 30
0.0
 11
2921.252840781508894
 21
143.8538947605262024
 31
0.0
  0
ARC
  5
395CD
  8
0
 10
2921.2528411701509867
 20
143.8260951491670028
 30
0.0
 40
0.0277996113619034
 50
359.9991990003755973
 51
90.0008010030717855
  0
LINE
  5
395CE
  8
0
 10
2918.304003587410989
 20
143.7264329574533974
 30
0.0
 11
2921.2528407815098035
 21
143.7264329574533974
 31
0.0
  0
ARC
  5
395CF
  8
0
 10
2921.2521821108371114
 20
143.6979742867808909
 30
0.0
 40
0.0284662920575118
 50
1.3258635131044121
 51
88.674136487811154
  0
LINE
  5
395D0
  8
0
 10
2918.3040035874178102
 20
143.1339992639533989
 30
0.0
 11
2921.2528407815029823
 21
143.1339992639533989
 31
0.0
  0
ARC
  5
395D1
  8
0
 10
2921.2507276001078935
 20
143.274086568943801
 30
0.0
 40
0.0299924289858682
 50
271.7243587804720732
 51
355.8339881890506149
  0
LINE
  5
395D2
  8
0
 10
2918.3040035874178102
 20
143.3715695248990016
 30
0.0
 11
2921.2528407815029823
 21
143.3715695248990016
 31
0.0
  0
ARC
  5
395D3
  8
0
 10
2921.2521866446791137
 20
143.4000236617339112
 30
0.0
 40
0.0284616548711296
 50
271.3169501119131155
 51
358.6830495713961113
  0
LINE
  5
395D4
  8
0
 10
2918.2762035874097819
 20
143.5463014841533891
 30
0.0
 11
2921.2806407815101011
 21
143.5463014841533891
 31
0.0
  0
LINE
  5
395D5
  8
0
 10
2918.3052142607780297
 20
143.2441077218059036
 30
0.0
 11
2921.2516301081432175
 21
143.2441077218059036
 31
0.0
  0
LINE
  5
395D6
  8
0
 10
2918.3097035874097855
 20
144.1105018942668039
 30
0.0
 11
2921.2471407815100974
 21
144.1105018942668039
 31
0.0
  0
LINE
  5
395D7
  8
0
 10
2921.2528407815111677
 20
142.9875005880556103
 30
0.0
 11
2918.3097035874097855
 21
142.9875005880556103
 31
0.0
  0
ARC
  5
395D8
  8
0
 10
2921.2528407815111677
 20
143.0153005880555952
 30
0.0
 40
0.0278
 50
270.0
 51
359.9999999999984084
  0
ARC
  5
395D9
  8
0
 10
2918.3097035874097855
 20
143.0210005880556139
 30
0.0
 40
0.0335
 50
180.0000000000015916
 51
270.0
  0
ARC
  5
395DA
  8
0
 10
2918.3097035874097855
 20
144.0770018942668003
 30
0.0
 40
0.0335
 50
90.0
 51
179.9999999999984084
  0
ARC
  5
395DB
  8
0
 10
2921.2471407815100974
 20
144.0770018942668003
 30
0.0
 40
0.0335
 50
359.9999999999984084
 51
90.0
  0
LINE
  5
395DC
  8
0
 10
2920.6406407815097737
 20
141.0555216336533988
 30
0.0
 11
2923.35064078150981
 21
141.0555216336533988
 31
0.0
  0
ARC
  5
395DD
  8
0
 10
2923.35064078150981
 20
141.0355216336533886
 30
0.0
 40
0.02
 50
0.0
 51
90.0
  0
LINE
  5
395DE
  8
0
 10
2923.3706407815097919
 20
141.0355216336533886
 30
0.0
 11
2923.3706407815097919
 21
140.5255216336533977
 31
0.0
  0
LINE
  5
395DF
  8
0
 10
2922.4666407815611819
 20
142.4255216336534033
 30
0.0
 11
2921.9956407815097919
 21
142.4255216336534033
 31
0.0
  0
ARC
  5
395E0
  8
0
 10
2922.4666407815611819
 20
142.4055216336533931
 30
0.0
 40
0.02
 50
0.0
 51
90.0
  0
LINE
  5
395E1
  8
0
 10
2922.4866407815597995
 20
141.075521633653409
 30
0.0
 11
2922.4866407815597995
 21
142.4055216336533931
 31
0.0
  0
ARC
  5
395E2
  8
0
 10
2922.5066407815611456
 20
141.075521633653409
 30
0.0
 40
0.02
 50
180.0
 51
270.0
  0
LINE
  5
395E3
  8
0
 10
2923.3706407815097919
 20
140.5255216336533977
 30
0.0
 11
2920.6206407815097919
 21
140.5255216336533977
 31
0.0
  0
LINE
  5
395E4
  8
0
 10
2922.4722407815111183
 20
142.4335216336534131
 30
0.0
 11
2921.9956407815097919
 21
142.4335216336534131
 31
0.0
  0
ARC
  5
395E5
  8
0
 10
2922.4722407815111183
 20
142.447921633653408
 30
0.0
 40
0.0144
 50
270.0
 51
359.9999999999968168
  0
LINE
  5
395E6
  8
0
 10
2922.3456407815110651
 20
142.4335216336534131
 30
0.0
 11
2922.3456407815110651
 21
142.4255216336534033
 31
0.0
  0
ARC
  5
395E7
  8
0
 10
2920.6406407815097737
 20
141.0355216336533886
 30
0.0
 40
0.02
 50
90.0
 51
180.0
  0
LINE
  5
395E8
  8
0
 10
2920.6206407815097919
 20
141.0355216336533886
 30
0.0
 11
2920.6206407815097919
 21
140.5255216336533977
 31
0.0
  0
LINE
  5
395E9
  8
0
 10
2921.5246407814611302
 20
142.4255216336534033
 30
0.0
 11
2921.9956407815097919
 21
142.4255216336534033
 31
0.0
  0
ARC
  5
395EA
  8
0
 10
2921.5246407814611302
 20
142.4055216336533931
 30
0.0
 40
0.02
 50
90.0
 51
180.0
  0
LINE
  5
395EB
  8
0
 10
2921.5046407814597842
 20
141.075521633653409
 30
0.0
 11
2921.5046407814597842
 21
142.4055216336533931
 31
0.0
  0
ARC
  5
395EC
  8
0
 10
2921.4846407814611666
 20
141.075521633653409
 30
0.0
 40
0.02
 50
270.0
 51
0.0
  0
LINE
  5
395ED
  8
0
 10
2921.5190407815111939
 20
142.4335216336534131
 30
0.0
 11
2921.9956407815097919
 21
142.4335216336534131
 31
0.0
  0
ARC
  5
395EE
  8
0
 10
2921.5190408271400884
 20
142.4479217438135947
 30
0.0
 40
0.0144001101602501
 50
180.1715288212720054
 51
269.9998184460293942
  0
LINE
  5
395EF
  8
0
 10
2921.6456407815107923
 20
142.4335216336534131
 30
0.0
 11
2921.6456407815107923
 21
142.4255216336534033
 31
0.0
  0
LINE
  5
395F0
  8
0
 10
2922.4866407815111415
 20
142.8335216336533904
 30
0.0
 11
2922.4866407815111415
 21
142.447921633653408
 31
0.0
  0
LINE
  5
395F1
  8
0
 10
2921.5046407815098064
 20
142.8335216336533904
 30
0.0
 11
2921.5046407815098064
 21
142.4478786336534029
 31
0.0
  0
ARC
  5
395F2
  8
0
 10
2921.2806407815101011
 20
142.8335216336533904
 30
0.0
 40
0.2240000000000015
 50
0.0
 51
86.5370731833547211
  0
ARC
  5
395F3
  8
0
 10
2921.2950407815101244
 20
143.0714863369184116
 30
0.0
 40
0.0144
 50
180.0
 51
266.5370731833547211
  0
ARC
  5
395F4
  8
0
 10
2921.2805703397048092
 20
142.8334927031681048
 30
0.0
 40
1.2060704421517869
 50
0.0013743763630429
 51
89.3042408450688754
  0
ARC
  5
395F5
  8
0
 10
2921.2950407815101244
 20
144.0250752848687057
 30
0.0
 40
0.0144
 50
89.3042408450688754
 51
180.0
  0
ARC
  5
395F6
  8
0
 10
2921.2533509540639898
 20
143.1718335323120925
 30
0.0
 40
0.0378377078888025
 50
269.2274473806293145
 51
316.1564254322460101
  0
ARC
  5
395F7
  8
0
 10
2918.3049305541348986
 20
143.9352807673205064
 30
0.0
 40
0.0287374052980455
 50
91.8484791861450987
 51
178.4556434512722944
  0
ARC
  5
395F8
  8
0
 10
2918.3040031987698057
 20
143.8260951491670028
 30
0.0
 40
0.0277996113619034
 50
89.9991989969282287
 51
180.000800999624289
  0
ARC
  5
395F9
  8
0
 10
2918.3046622580832263
 20
143.6979742867808909
 30
0.0
 40
0.0284662920575118
 50
91.3258635121888318
 51
178.6741364868956055
  0
ARC
  5
395FA
  8
0
 10
2918.306116768812899
 20
143.274086568943801
 30
0.0
 40
0.0299924289858682
 50
184.1660118109492998
 51
268.2756412195278131
  0
ARC
  5
395FB
  8
0
 10
2918.3046577242421336
 20
143.4000236617339112
 30
0.0
 40
0.0284616548711296
 50
181.3169504286038887
 51
268.6830498880868845
  0
ARC
  5
395FC
  8
0
 10
2918.3034934148568027
 20
143.1718335323120925
 30
0.0
 40
0.0378377078888025
 50
223.8435745677541036
 51
270.7725526193707992
  0
ARC
  5
395FE
  8
0
 10
2930.3537012597539615
 20
147.7831442987620107
 30
0.0
 40
0.8052785161276814
 50
270.9472856034016104
 51
281.5340598203454192
  0
ARC
  5
395FF
  8
0
 10
2930.0951685352010827
 20
152.290270016694592
 30
0.0
 40
5.3192452145655773
 50
271.38111986073352
 51
272.9294412066885798
  0
ARC
  5
39600
  8
0
 10
2930.0230008225148595
 20
154.8838777127305093
 30
0.0
 40
7.9138447366000522
 50
270.6759521408066007
 51
271.450867000142523
  0
ARC
  5
39601
  8
0
 10
2929.9938667711330709
 20
156.8517140736074111
 30
0.0
 40
9.8818896292449345
 50
270.0102858169539104
 51
270.7102583015890787
  0
ARC
  5
39602
  8
0
 10
2930.5102359742318185
 20
147.0096563223821988
 30
0.0
 40
0.0161623720217271
 50
286.0963157703021125
 51
332.4067364632563795
  0
ARC
  5
39603
  8
0
 10
2930.5160656470998219
 20
147.0066095157471864
 30
0.0
 40
0.009584521580983
 50
2.5360348850657299
 51
2.570095172120161
  0
ARC
  5
39604
  8
0
 10
2930.5160656470998219
 20
147.0066095157471864
 30
0.0
 40
0.009584521580983
 50
332.4067364632414865
 51
357.4639651149294082
  0
ARC
  5
39605
  8
0
 10
2930.4415079367640828
 20
146.9197115987159066
 30
0.0
 40
0.0851956929507527
 50
71.8253423961939035
 51
79.9208546101225039
  0
ARC
  5
39606
  8
0
 10
2930.3594251960771544
 20
146.4579282471372892
 30
0.0
 40
0.5542174836105715
 50
79.9208546101481545
 51
87.5143115292303264
  0
ARC
  5
39607
  8
0
 10
2930.194052321943218
 20
144.3612043741902085
 30
0.0
 40
2.6571792211917948
 50
85.9123724124288941
 51
87.3608504510789743
  0
ARC
  5
39608
  8
0
 10
2929.6412888363870479
 20
128.0474462092601016
 30
0.0
 40
18.9801295911581605
 50
87.9615845297743846
 51
88.9302470012262347
  0
LINE
  5
39609
  8
0
 10
2930.1135040053100056
 20
147.0217006422832924
 30
0.0
 11
2930.1135040053100056
 21
146.9771774604533903
 31
0.0
  0
LINE
  5
3960A
  8
0
 10
2930.1135040053100056
 20
146.9771774604533903
 30
0.0
 11
2930.1356762949108088
 21
146.9734384964534115
 31
0.0
  0
LINE
  5
3960B
  8
0
 10
2930.1356762949108088
 20
146.9734384964534115
 30
0.0
 11
2930.3163823831100672
 21
146.9788987438533923
 31
0.0
  0
LINE
  5
3960C
  8
0
 10
2930.3163823831100672
 20
146.9788987438533923
 30
0.0
 11
2930.3163823831100672
 21
147.0152072670533983
 31
0.0
  0
LINE
  5
3960D
  8
0
 10
2930.2655982962101007
 20
146.9817731686534046
 30
0.0
 11
2930.2655982962101007
 21
147.0123328422533859
 31
0.0
  0
LINE
  5
3960E
  8
0
 10
2930.2655982962101007
 20
147.0123328422533859
 30
0.0
 11
2930.3198557247437748
 21
147.015403861300598
 31
0.0
  0
LINE
  5
3960F
  8
0
 10
2930.2655982962101007
 20
147.0123328422533859
 30
0.0
 11
2930.1135040053131888
 21
147.0169285505538994
 31
0.0
  0
LINE
  5
39610
  8
0
 10
2930.1135040053100056
 20
146.9771774604533903
 30
0.0
 11
2930.2655982962101007
 21
146.9817731686534046
 31
0.0
  0
LINE
  5
39611
  8
0
 10
2930.2655982962101007
 20
146.9817731686534046
 30
0.0
 11
2930.3163823831100672
 21
146.9788987438533923
 31
0.0
  0
LINE
  5
39612
  8
0
 10
2930.3834615199061773
 20
147.0116242596537006
 30
0.0
 11
2930.3834615199361906
 21
146.9924572972531109
 31
0.0
  0
LINE
  5
39613
  8
0
 10
2930.3834615199361906
 20
146.9924572972531109
 30
0.0
 11
2930.4564178964101302
 21
146.9915927580534003
 31
0.0
  0
LINE
  5
39614
  8
0
 10
2930.4680817264102188
 20
147.0006568876534061
 30
0.0
 11
2930.4680817264102188
 21
146.9970848325822885
 31
0.0
  0
ARC
  5
39615
  8
0
 10
2930.4474191051140224
 20
147.0357677509163068
 30
0.0
 40
0.0450822386226489
 50
281.5140573869932155
 51
293.5979467216149033
  0
ARC
  5
39616
  8
0
 10
2930.4627274821727951
 20
147.0007248372139088
 30
0.0
 40
0.0068415246004774
 50
293.5979467216149033
 51
313.6820758157713271
  0
ARC
  5
39617
  8
0
 10
2930.4660300997152262
 20
146.9972666801137109
 30
0.0
 40
0.0020596700268524
 50
313.6820758157924161
 51
354.9347808745184238
  0
LINE
  5
39618
  8
0
 10
2930.3834615199111795
 20
147.0016487136533954
 30
0.0
 11
2930.4564178964101302
 21
147.0025132528533902
 31
0.0
  0
LINE
  5
39619
  8
0
 10
2930.4564178964101302
 20
147.0025132528533902
 30
0.0
 11
2930.4564178964101302
 21
147.0035924618534011
 31
0.0
  0
ARC
  5
3961A
  8
0
 10
2930.4465456198690845
 20
146.9553146740911984
 30
0.0
 40
0.0482199925475902
 50
67.2650854549030726
 51
78.1860663225285464
  0
ARC
  5
3961B
  8
0
 10
2930.4623002149251079
 20
146.99290996316779
 30
0.0
 40
0.0074571047948009
 50
43.8804148503577522
 51
67.2737290468378575
  0
ARC
  5
3961C
  8
0
 10
2930.4666255658357841
 20
146.9970694945791934
 30
0.0
 40
0.0014562413514392
 50
0.6034845089355346
 51
43.88041485037418
  0
ARC
  5
3961D
  8
0
 10
2924.7017235921521205
 20
-146.9739179378182996
 30
0.0
 40
294.0563525390217023
 50
88.9033318490989046
 51
88.9684443249354615
  0
ARC
  5
3961E
  8
0
 10
2930.2148683903469646
 20
144.2097188295030037
 30
0.0
 40
2.8211928156672039
 50
84.7340337286604353
 51
87.6660800741921662
  0
ARC
  5
3961F
  8
0
 10
2930.4439305117271033
 20
146.6949830625439972
 30
0.0
 40
0.3253947942954299
 50
77.1656517321739557
 51
84.7340337286604353
  0
ARC
  5
39620
  8
0
 10
2930.5100685037268704
 20
146.9852848626948116
 30
0.0
 40
0.0276543550591769
 50
58.7811387390690285
 51
77.1656517321739557
  0
ARC
  5
39621
  8
0
 10
2930.5230455983728461
 20
147.0066966822992072
 30
0.0
 40
0.002616962937735
 50
7.3972016924476121
 51
58.7811387390673517
  0
ENDSEC
  0
EOF
