  0
SECTION
  2
HEADER
  9
$ACADVER
  1
AC1009
  9
$INSBASE
 10
4273.5823094824027066
 20
590.4881336499231566
 30
0.0
  9
$EXTMIN
 10
4269.5832956268595808
 20
590.4675836618549738
 30
-0.0000000000000058
  9
$EXTMAX
 10
4279.0505054303239376
 20
628.388750908452721
 30
0.0000000000000104
  9
$LIMMIN
 10
0.0
 20
0.0
  9
$LIMMAX
 10
11.6929133858000007
 20
8.2677165353999982
  9
$ORTHOMODE
 70
     0
  9
$REGENMODE
 70
     1
  9
$FILLMODE
 70
     1
  9
$QTEXTMODE
 70
     0
  9
$MIRRTEXT
 70
     0
  9
$DRAGMODE
 70
     2
  9
$LTSCALE
 40
0.6431102362
  9
$OSMODE
 70
  4095
  9
$ATTMODE
 70
     1
  9
$TEXTSIZE
 40
0.2
  9
$TRACEWID
 40
0.05
  9
$TEXTSTYLE
  7
STANDARD
  9
$CLAYER
  8
0
  9
$CELTYPE
  6
BYLAYER
  9
$CECOLOR
 62
   256
  9
$DIMSCALE
 40
1.0
  9
$DIMASZ
 40
0.1875
  9
$DIMEXO
 40
0.0625
  9
$DIMDLI
 40
0.4443307087
  9
$DIMRND
 40
0.0
  9
$DIMDLE
 40
0.0
  9
$DIMEXE
 40
0.125
  9
$DIMTP
 40
0.01
  9
$DIMTM
 40
0.01
  9
$DIMTXT
 40
2.0
  9
$DIMCEN
 40
0.1052362205
  9
$DIMTSZ
 40
0.0
  9
$DIMTOL
 70
     1
  9
$DIMLIM
 70
     0
  9
$DIMTIH
 70
     1
  9
$DIMTOH
 70
     1
  9
$DIMSE1
 70
     0
  9
$DIMSE2
 70
     0
  9
$DIMTAD
 70
     0
  9
$DIMZIN
 70
     0
  9
$DIMBLK
  1

  9
$DIMASO
 70
     1
  9
$DIMSHO
 70
     1
  9
$DIMPOST
  1
\X
  9
$DIMAPOST
  1

  9
$DIMALT
 70
     1
  9
$DIMALTD
 70
     2
  9
$DIMALTF
 40
25.3999999999999986
  9
$DIMLFAC
 40
1.0
  9
$DIMTOFL
 70
     0
  9
$DIMTVP
 40
0.0
  9
$DIMTIX
 70
     0
  9
$DIMSOXD
 70
     0
  9
$DIMSAH
 70
     0
  9
$DIMBLK1
  1

  9
$DIMBLK2
  1

  9
$DIMSTYLE
  2
STANDARD
  9
$DIMCLRD
 70
     0
  9
$DIMCLRE
 70
     0
  9
$DIMCLRT
 70
     0
  9
$DIMTFAC
 40
1.0
  9
$DIMGAP
 40
0.09
  9
$LUNITS
 70
     2
  9
$LUPREC
 70
     4
  9
$SKETCHINC
 40
0.1
  9
$FILLETRAD
 40
0.0
  9
$AUNITS
 70
     0
  9
$AUPREC
 70
     0
  9
$MENU
  1
.
  9
$ELEVATION
 40
0.0
  9
$PELEVATION
 40
0.0
  9
$THICKNESS
 40
0.0
  9
$LIMCHECK
 70
     0
  9
$BLIPMODE
 70
     0
  9
$CHAMFERA
 40
0.0
  9
$CHAMFERB
 40
0.0
  9
$SKPOLY
 70
     0
  9
$TDCREATE
 40
2458060.468368056230247
  9
$TDUPDATE
 40
2460095.611307870130986
  9
$TDINDWG
 40
4.6171482638999999
  9
$TDUSRTIMER
 40
4.6171482638999999
  9
$USRTIMER
 70
     1
  9
$ANGBASE
 50
0.0
  9
$ANGDIR
 70
     0
  9
$PDMODE
 70
     0
  9
$PDSIZE
 40
0.3125
  9
$PLINEWID
 40
0.0
  9
$COORDS
 70
     1
  9
$SPLFRAME
 70
     0
  9
$SPLINETYPE
 70
     6
  9
$SPLINESEGS
 70
     8
  9
$ATTDIA
 70
     1
  9
$ATTREQ
 70
     1
  9
$HANDLING
 70
     1
  9
$HANDSEED
  5
22D80
  9
$SURFTAB1
 70
     6
  9
$SURFTAB2
 70
     6
  9
$SURFTYPE
 70
     6
  9
$SURFU
 70
     6
  9
$SURFV
 70
     6
  9
$UCSNAME
  2

  9
$UCSORG
 10
0.0
 20
0.0
 30
0.0
  9
$UCSXDIR
 10
1.0
 20
0.0
 30
0.0
  9
$UCSYDIR
 10
0.0
 20
1.0
 30
0.0
  9
$PUCSNAME
  2

  9
$PUCSORG
 10
0.0
 20
0.0
 30
0.0
  9
$PUCSXDIR
 10
1.0
 20
0.0
 30
0.0
  9
$PUCSYDIR
 10
0.0
 20
1.0
 30
0.0
  9
$USERI1
 70
     0
  9
$USERI2
 70
     0
  9
$USERI3
 70
     0
  9
$USERI4
 70
     0
  9
$USERI5
 70
     0
  9
$USERR1
 40
0.0
  9
$USERR2
 40
0.0
  9
$USERR3
 40
0.0
  9
$USERR4
 40
0.0
  9
$USERR5
 40
0.0
  9
$WORLDVIEW
 70
     1
  9
$SHADEDGE
 70
     3
  9
$SHADEDIF
 70
    70
  9
$TILEMODE
 70
     1
  9
$MAXACTVP
 70
    64
  9
$PLIMCHECK
 70
     0
  9
$PEXTMIN
 10
1.0000000000000000E+20
 20
1.0000000000000000E+20
 30
1.0000000000000000E+20
  9
$PEXTMAX
 10
-1.0000000000000000E+20
 20
-1.0000000000000000E+20
 30
-1.0000000000000000E+20
  9
$PLIMMIN
 10
0.0
 20
0.0
  9
$PLIMMAX
 10
12.0
 20
9.0
  9
$UNITMODE
 70
     0
  9
$VISRETAIN
 70
     1
  9
$PLINEGEN
 70
     0
  9
$PSLTSCALE
 70
     1
  0
ENDSEC
  0
SECTION
  2
TABLES
  0
TABLE
  2
VPORT
 70
     1
  0
VPORT
  2
*ACTIVE
 70
     0
 10
0.0
 20
0.0
 11
1.0
 21
1.0
 12
37.8855040442176829
 22
10.69955637187058
 13
0.0
 23
0.0
 14
1.0
 24
1.0
 15
0.0
 25
0.0
 16
0.0
 26
0.0
 36
98.7941898181710343
 17
4236.431396484375
 27
598.728610913283319
 37
0.0
 40
38.2523564801923683
 41
2.2244897959183669
 42
50.0
 43
0.0
 44
0.0
 50
0.0
 51
0.0
 71
     0
 72
   100
 73
     1
 74
     1
 75
     0
 76
     0
 77
     0
 78
     0
  0
ENDTAB
  0
TABLE
  2
LTYPE
 70
     2
  0
LTYPE
  2
CONTINUOUS
 70
     0
  3
Solid line
 72
    65
 73
     0
 40
0.0
  0
LTYPE
  2
PHANTOM2
 70
     0
  3
___ _ _ ___ _ _ ___ _ _ ___ _ _
 72
    65
 73
     6
 40
1.25
 49
0.625
 49
-0.125
 49
0.125
 49
-0.125
 49
0.125
 49
-0.125
  0
ENDTAB
  0
TABLE
  2
LAYER
 70
     2
  0
LAYER
  2
0
 70
     0
 62
   255
  6
CONTINUOUS
  0
LAYER
  2
DEFPOINTS
 70
     0
 62
     7
  6
CONTINUOUS
  0
ENDTAB
  0
TABLE
  2
STYLE
 70
     1
  0
STYLE
  2
STANDARD
 70
     0
 40
0.0
 41
0.8
 50
0.0
 71
     0
 42
0.2
  3
txt
  4

  0
ENDTAB
  0
TABLE
  2
VIEW
 70
     0
  0
ENDTAB
  0
TABLE
  2
UCS
 70
     0
  0
ENDTAB
  0
TABLE
  2
APPID
 70
    10
  0
APPID
  2
ACAD
 70
     0
  0
APPID
  2
ACAD_MLEADERVER
 70
     0
  0
APPID
  2
ACAD_EXEMPT_FROM_CAD_STANDARDS
 70
     0
  0
APPID
  2
ACAD_NAV_VCDISPLAY
 70
     0
  0
APPID
  2
ACAECLAYERSTANDARD
 70
     0
  0
APPID
  2
ACCMTRANSPARENCY
 70
     0
  0
APPID
  2
ACAD_DSTYLE_DIMJAG
 70
     0
  0
APPID
  2
ACAD_DSTYLE_DIMTALN
 70
     0
  0
APPID
  2
ACDBATTR
 70
     0
  0
APPID
  2
DCO15
 70
     0
  0
ENDTAB
  0
TABLE
  2
DIMSTYLE
 70
     1
  0
DIMSTYLE
  2
STANDARD
 70
     0
  3

  4

  5

  6

  7

 40
1.0
 41
0.1875
 42
0.0625
 43
0.38
 44
0.125
 45
0.0
 46
0.0
 47
0.01
 48
0.01
140
0.15625
141
0.09
142
0.0
143
25.3999999999999986
144
1.0
145
0.0
146
1.0
147
0.09
 71
     1
 72
     0
 73
     1
 74
     1
 75
     0
 76
     0
 77
     0
 78
     4
170
     0
171
     2
172
     0
173
     0
174
     0
175
     0
176
     0
177
     0
178
     0
  0
ENDTAB
  0
ENDSEC
  0
SECTION
  2
BLOCKS
  0
BLOCK
  8
0
  2
$MODEL_SPACE
 70
     0
 10
0.0
 20
0.0
 30
0.0
  3
$MODEL_SPACE
  1

  0
ENDBLK
  5
21
  8
0
  0
BLOCK
 67
     1
  8
0
  2
$PAPER_SPACE
 70
     0
 10
0.0
 20
0.0
 30
0.0
  3
$PAPER_SPACE
  1

  0
ENDBLK
  5
1D
 67
     1
  8
0
  0
BLOCK
  8
0
  2
_FILLED
 70
     0
 10
0.0
 20
0.0
 30
0.0
  3
_FILLED
  1

  0
SOLID
  5
2248D
  8
0
  6
BYBLOCK
 62
     0
 10
0.0
 20
0.0
 30
0.0
 11
-1.0
 21
0.1666666667
 31
0.0
 12
-1.0
 22
-0.1666666667
 32
0.0
 13
-1.0
 23
-0.1666666667
 33
0.0
  0
ENDBLK
  5
2248E
  8
0
  6
BYBLOCK
 62
     0
  0
ENDSEC
  0
SECTION
  2
ENTITIES
  0
ATTDEF
  5
22950
  8
DEFPOINTS
 10
4273.5849427124130671
 20
590.4947223641313485
 30
0.0
 40
0.001
  1
P32420-PNK
  3

  2
MODELNUMBER
 70
     0
1001
ACDBATTR
1070
     0
1070
     1
  0
ATTDEF
  5
22951
  8
DEFPOINTS
 10
4273.5849427124130671
 20
590.4930556974646834
 30
0.0
 40
0.001
  1
ONE
  3

  2
TRADENAME
 70
     0
1001
ACDBATTR
1070
     0
1070
     1
  0
ATTDEF
  5
22952
  8
DEFPOINTS
 10
4273.5849427124130671
 20
590.4913890307981319
 30
0.0
 40
0.001
  1
BATH FAUCET 
  3

  2
PRODUCT
 70
     0
1001
ACDBATTR
1070
     0
1070
     1
  0
LINE
  5
22B09
  8
0
 10
4272.9888094824036671
 20
627.7568419924640466
 30
0.0
 11
4272.9888094824036671
 21
620.4290777798639738
 31
0.0
  0
LINE
  5
22B0A
  8
0
 10
4274.1758094824026557
 20
627.7568419924640466
 30
0.0
 11
4274.1758094824026557
 21
620.4290777798639738
 31
0.0
  0
ARC
  5
22B0B
  8
0
 10
4273.5823094824027066
 20
627.7568419924640466
 30
0.0
 40
0.5934999999999988
 50
0.0
 51
180.0
  0
ARC
  5
22B0C
  8
0
 10
4274.5665471855081705
 20
618.3620817192188497
 30
0.0
 40
0.1967836327719717
 50
179.9634018511918043
 51
270.0041535310443237
  0
LINE
  5
22B0D
  8
0
 10
4274.3697635928810996
 20
618.3622074163688467
 30
0.0
 11
4274.3710838231781963
 21
620.4290775690369628
 31
0.0
  0
LINE
  5
22B0E
  8
0
 10
4274.3710838231781963
 20
620.4290775690369628
 30
0.0
 11
4272.7949094824034546
 21
620.4290775690369628
 31
0.0
  0
LINE
  5
22B0F
  8
0
 10
4272.7949094824034546
 20
620.4290775690369628
 30
0.0
 11
4272.794907907603374
 21
618.3621484818639829
 31
0.0
  0
ARC
  5
22B10
  8
0
 10
4272.598057051320211
 20
618.3621486318453435
 30
0.0
 40
0.1968508562831224
 50
270.0002471939425845
 51
359.9999563461649927
  0
LINE
  5
22B11
  8
0
 10
4272.5980579006027256
 20
618.1652977755641132
 30
0.0
 11
4270.6062968548221761
 21
618.1652891824140852
 31
0.0
  0
ARC
  5
22B12
  8
0
 10
4270.6062969382419396
 20
618.1459537634339085
 30
0.0
 40
0.0193354189802429
 50
90.0002471939425703
 51
117.6463486399798057
  0
ARC
  5
22B13
  8
0
 10
4269.9535555364464017
 20
619.3920766883450142
 30
0.0
 40
1.3873961409152531
 50
288.6524853117717839
 51
297.6463486399798057
  0
ARC
  5
22B14
  8
0
 10
4270.1324164933466818
 20
618.8622082354370377
 30
0.0
 40
0.8281539578759614
 50
268.1729594226997051
 51
288.6524853117717839
  0
ARC
  5
22B15
  8
0
 10
4270.154673197835109
 20
618.9288042768273499
 30
0.0
 40
0.8956518075982923
 50
248.0087210437125123
 51
266.8856166244538031
  0
ARC
  5
22B16
  8
0
 10
4269.812154899665984
 20
618.079970055931426
 30
0.0
 40
0.0196849860326231
 50
68.7717251685059097
 51
90.0000144432820974
  0
LINE
  5
22B17
  8
0
 10
4269.8121548947037809
 20
618.0996550419639561
 30
0.0
 11
4269.6846716871032186
 21
618.0996550416640503
 31
0.0
  0
ARC
  5
22B18
  8
0
 10
4269.6873864249537291
 20
616.4619271429284026
 30
0.0
 40
0.0420972568693838
 50
181.3929552634508013
 51
266.3025918590220158
  0
LINE
  5
22B19
  8
0
 10
4269.6453016084033152
 20
616.4609037897312191
 30
0.0
 11
4269.6453016084033152
 21
618.0586687657705625
 31
0.0
  0
ARC
  5
22B1A
  8
0
 10
4269.6856654014072774
 20
618.0592985679779758
 30
0.0
 40
0.0403687061532915
 50
91.4105328764634351
 51
180.8939219472505897
  0
LINE
  5
22B1B
  8
0
 10
4269.6846716921627376
 20
616.419917509963966
 30
0.0
 11
4269.9015926563952235
 21
616.4199175098640353
 31
0.0
  0
ARC
  5
22B1C
  8
0
 10
4269.9015926564034089
 20
616.4396025492638955
 30
0.0
 40
0.0196850393999775
 50
269.9999999735800884
 51
286.3884036152438739
  0
ARC
  5
22B1D
  8
0
 10
4270.1554198751637159
 20
615.5765267515412233
 30
0.0
 40
0.8799415996003705
 50
99.9009526329677158
 51
106.3884036152439023
  0
ARC
  5
22B1E
  8
0
 10
4270.1417936395564539
 20
615.6545938974910541
 30
0.0
 40
0.8006941796194355
 50
93.1726187978453311
 51
99.9009526329677158
  0
ARC
  5
22B1F
  8
0
 10
4270.1380868326168638
 20
615.7214683933474362
 30
0.0
 40
0.7337170296822567
 50
82.8543322635517683
 51
93.1726187978453311
  0
ARC
  5
22B20
  8
0
 10
4270.1189147144996241
 20
615.5685393262775733
 30
0.0
 40
0.8878431782357346
 50
71.003726748492852
 51
82.8543322635517683
  0
ARC
  5
22B21
  8
0
 10
4269.9821323476307953
 20
615.1712105356258462
 30
0.0
 40
1.3080569140502121
 50
64.9390119022490069
 51
71.003726748492852
  0
ARC
  5
22B22
  8
0
 10
4270.5444182774272122
 20
616.37361274857642
 30
0.0
 40
0.0193226952188382
 50
244.8380056452629105
 51
270.2673237283954109
  0
LINE
  5
22B23
  8
0
 10
4270.5445084305956698
 20
616.3542902636709186
 30
0.0
 11
4270.8953015574807068
 21
616.3542902636709186
 31
0.0
  0
ARC
  5
22B24
  8
0
 10
4271.8453167012366976
 20
614.7064981574693547
 30
0.0
 40
1.902037749001428
 50
117.5357980480395952
 51
119.9650929017585952
  0
ARC
  5
22B25
  8
0
 10
4271.446407784760595
 20
615.5468925887305431
 30
0.0
 40
0.9730470257468837
 50
91.6222796984320667
 51
119.5850786984295979
  0
ARC
  5
22B26
  8
0
 10
4271.3886528577722856
 20
615.5563102279307941
 30
0.0
 40
0.963712918173489
 50
61.1310104209042109
 51
88.2037663426695246
  0
ARC
  5
22B27
  8
0
 10
4270.9831664749208358
 20
614.695461571915871
 30
0.0
 40
1.9143099186144259
 50
60.0591754553591599
 51
62.9429929539976669
  0
LINE
  5
22B28
  8
0
 10
4271.9386086950044046
 20
616.3542902636709186
 30
0.0
 11
4272.5980579291235699
 21
616.3542902636709186
 31
0.0
  0
ARC
  5
22B29
  8
0
 10
4272.5967762804411905
 20
616.1561587413982579
 30
0.0
 40
0.1981356675143136
 50
0.3659035698500111
 51
89.6293773180377542
  0
LINE
  5
22B2A
  8
0
 10
4272.794907907603374
 20
616.1574240711639732
 30
0.0
 11
4272.794907907603374
 21
591.2755343074641132
 31
0.0
  0
LINE
  5
22B2B
  8
0
 10
4271.2401088869028172
 20
591.2755343074641132
 30
0.0
 11
4275.9245142068029963
 21
591.2755343074641132
 31
0.0
  0
ARC
  5
22B2C
  8
0
 10
4275.9245142068029963
 20
591.2555343074641314
 30
0.0
 40
0.0199999999999996
 50
0.0
 51
90.0
  0
LINE
  5
22B2D
  8
0
 10
4275.9445142068043424
 20
591.2555343074641314
 30
0.0
 11
4275.9445142068043424
 21
590.498132732564045
 31
0.0
  0
ARC
  5
22B2E
  8
0
 10
4275.9345142068032146
 20
590.498132732564045
 30
0.0
 40
0.0100000000000016
 50
269.9999776546737849
 51
0.0000000000065138
  0
LINE
  5
22B2F
  8
0
 10
4275.9345142029033013
 20
590.4881327325640541
 30
0.0
 11
4271.2301047619039309
 21
590.4881345672821453
 31
0.0
  0
ARC
  5
22B30
  8
0
 10
4271.2301047658038442
 20
590.4981345752522657
 30
0.0
 40
0.0100000079701318
 50
180.0105578178610983
 51
269.9999776546737849
  0
LINE
  5
22B31
  8
0
 10
4271.2201047580028899
 20
590.498132732564045
 30
0.0
 11
4271.2199651926130173
 21
591.2555342946053543
 31
0.0
  0
ARC
  5
22B32
  8
0
 10
4271.2399801771880448
 20
591.2555197314385396
 30
0.0
 40
0.0200149898743859
 50
89.6315474414535203
 51
179.9583108425121907
  0
LINE
  5
22B33
  8
0
 10
4274.3697110572029487
 20
591.2755343074641132
 30
0.0
 11
4274.3697670004030442
 21
616.1621168065639722
 31
0.0
  0
ARC
  5
22B34
  8
0
 10
4274.566957349004042
 20
616.1570348372342778
 30
0.0
 40
0.1972558237262847
 50
90.1149943517033734
 51
178.5237058678538915
  0
LINE
  5
22B35
  8
0
 10
4274.5665614509025545
 20
616.3542902636709186
 30
0.0
 11
4276.731915781603675
 21
616.3542902636709186
 31
0.0
  0
LINE
  5
22B36
  8
0
 10
4276.731915781603675
 20
616.3542902636709186
 30
0.0
 11
4276.731915781603675
 21
618.1652980869640714
 31
0.0
  0
LINE
  5
22B37
  8
0
 10
4276.731915781603675
 20
618.1652980869640714
 30
0.0
 11
4274.5665614509025545
 21
618.1652980869640714
 31
0.0
  0
LINE
  5
22B38
  8
0
 10
4276.731915781603675
 20
618.1554555672639708
 30
0.0
 11
4276.7516008210031941
 21
618.1554555672639708
 31
0.0
  0
LINE
  5
22B39
  8
0
 10
4276.7516008210031941
 20
618.1554555672639708
 30
0.0
 11
4276.7516008210031941
 21
616.3641169845641343
 31
0.0
  0
LINE
  5
22B3A
  8
0
 10
4276.7516008210031941
 20
616.3641169845641343
 30
0.0
 11
4276.731915781603675
 21
616.3641169845641343
 31
0.0
  0
ARC
  5
22B3B
  8
0
 10
4276.7719108222918294
 20
616.3748383855730708
 30
0.0
 40
0.0205504602018778
 50
188.7734756626990134
 51
269.1356670855191737
  0
LINE
  5
22B3C
  8
0
 10
4276.7716008210027212
 20
616.3542902636709186
 30
0.0
 11
4277.1565547966456506
 21
616.3542902636709186
 31
0.0
  0
ARC
  5
22B3D
  8
0
 10
4277.1566074295596991
 20
616.374283586015963
 30
0.0
 40
0.0199933916238022
 50
269.8491677927934802
 51
0.0077086805414965
  0
LINE
  5
22B3E
  8
0
 10
4277.176600821003376
 20
616.374286275963982
 30
0.0
 11
4277.1766119717467518
 21
618.1452862759289246
 31
0.0
  0
ARC
  5
22B3F
  8
0
 10
4277.1566120944607974
 20
618.1452864018541504
 30
0.0
 40
0.0199998772872071
 50
359.9996392486843888
 51
90.032296275537675
  0
ARC
  5
22B40
  8
0
 10
4276.9641008210028303
 20
959.6732838807859025
 30
0.0
 40
341.508051858671422
 50
269.9677037244622966
 51
270.0322962755377034
  0
ARC
  5
22B41
  8
0
 10
4276.7715894217117238
 20
618.1450631628215433
 30
0.0
 40
0.0202231163551219
 50
89.967703724462325
 51
171.2658612801517961
  0
ARC
  5
22B42
  8
0
 10
4277.2166008210033397
 20
617.7907862759639102
 30
0.0
 40
0.0399999999999994
 50
181.2095871032325078
 51
270.0
  0
LINE
  5
22B43
  8
0
 10
4277.2166008210033397
 20
617.7507862759639465
 30
0.0
 11
4277.5766008210030122
 21
617.7507862759639465
 31
0.0
  0
ARC
  5
22B44
  8
0
 10
4277.5766008210030122
 20
617.9748362747113788
 30
0.0
 40
0.2240499987472795
 50
270.0
 51
355.2856091773572871
  0
ARC
  5
22B45
  8
0
 10
4277.8198337342801096
 20
617.954777382724842
 30
0.0
 40
0.0200086197218429
 50
90.0939821221497539
 51
175.2856091773508069
  0
LINE
  5
22B46
  8
0
 10
4277.76255118660265
 20
617.9747862759641066
 30
0.0
 11
4278.8196912402036105
 21
617.9747862759641066
 31
0.0
  0
ARC
  5
22B47
  8
0
 10
4278.8196912402036105
 20
618.0082762767640361
 30
0.0
 40
0.0334900008000023
 50
270.0
 51
359.9999986313318914
  0
ARC
  5
22B48
  8
0
 10
-61480231.7201652824878693
 20
619.4770048730140388
 30
0.0
 40
61484510.5733465403318405
 50
359.9999986313318914
 51
0.0000013686680967
  0
ARC
  5
22B49
  8
0
 10
4278.8196912402036105
 20
620.9457334692640416
 30
0.0
 40
0.0334900007999988
 50
0.0000013686746105
 51
90.0
  0
LINE
  5
22B4A
  8
0
 10
4278.8196912402036105
 20
620.9792234700640847
 30
0.0
 11
4277.76255118660265
 21
620.9792234700638573
 31
0.0
  0
ARC
  5
22B4B
  8
0
 10
4277.76255118660265
 20
620.9457334692639279
 30
0.0
 40
0.0334900008000059
 50
90.0
 51
179.999998631130012
  0
LINE
  5
22B4C
  8
0
 10
4277.7290611858034026
 20
620.9457334700640558
 30
0.0
 11
4277.7290611156240629
 21
618.0082762759641355
 31
0.0
  0
ARC
  5
22B4D
  8
0
 10
4277.7625511148244186
 20
618.0082762751640075
 30
0.0
 40
0.0334899991999596
 50
179.999998631130012
 51
270.0001228029681215
  0
ARC
  5
22B4E
  8
0
 10
4277.2174270008954409
 20
616.7275337054230704
 30
0.0
 40
0.041260847392713
 50
91.1476472664405435
 51
171.6760561273250119
  0
ARC
  5
22B4F
  8
0
 10
4277.3685781422527725
 20
616.1702919032693444
 30
0.0
 40
0.6174890200457093
 50
103.3152033665317049
 51
104.2481422317036959
  0
ARC
  5
22B50
  8
0
 10
4277.3465923443600332
 20
616.2627789004419583
 30
0.0
 40
0.5224247815070984
 50
94.4642334958076759
 51
103.3048634782066983
  0
ARC
  5
22B51
  8
0
 10
4277.3417409561616296
 20
616.3249175295104578
 30
0.0
 40
0.4600970574193098
 50
84.726403074542219
 51
94.4642334958076759
  0
ARC
  5
22B52
  8
0
 10
4277.3343570506885953
 20
616.2449206586431956
 30
0.0
 40
0.5404339817357116
 50
80.4354083415797305
 51
84.726403074542219
  0
ARC
  5
22B53
  8
0
 10
4277.3407873904188818
 20
616.2830825193383362
 30
0.0
 40
0.5017341512353048
 50
75.4776785035899991
 51
80.4354083415797305
  0
LINE
  5
22B54
  8
0
 10
4277.4666008210033397
 20
616.7687862759640893
 30
0.0
 11
4277.5783094684156822
 21
616.7687862759640893
 31
0.0
  0
ARC
  5
22B55
  8
0
 10
4277.5766005713931008
 20
617.9747467317864675
 30
0.0
 40
1.2059616666115081
 50
270.0811904909425039
 51
359.035694881267375
  0
ARC
  5
22B56
  8
0
 10
4278.7622707469508896
 20
617.9547896490510084
 30
0.0
 40
0.0201235451298636
 50
359.0357359205920034
 51
83.5616306750664535
  0
LINE
  5
22B57
  8
0
 10
4277.2191008210029395
 20
616.7694140014582445
 30
0.0
 11
4277.2191008210029395
 21
616.7687862759640893
 31
0.0
  0
LINE
  5
22B58
  8
0
 10
4277.2191008210029395
 20
616.7687862759640893
 30
0.0
 11
4277.4641008210037398
 21
616.7687862759640893
 31
0.0
  0
LINE
  5
22B59
  8
0
 10
4277.4641008210037398
 20
616.7687862759640893
 30
0.0
 11
4277.4641008210037398
 21
616.7694270025529022
 31
0.0
  0
ARC
  5
22B5A
  8
0
 10
4279.7328043173947663
 20
624.7346340363378658
 30
0.0
 40
9.4235655139881285
 50
222.5883822213276062
 51
225.2233499840490936
  0
ARC
  5
22B5B
  8
0
 10
4274.455993448837944
 20
619.4165219080898623
 30
0.0
 40
1.9317666945354841
 50
225.2233499840490936
 51
233.1445134952195986
  0
ARC
  5
22B5C
  8
0
 10
4273.7327014362936097
 20
618.4516270447343231
 30
0.0
 40
0.7258755581809176
 50
233.1445134952195986
 51
247.1281365222586999
  0
ARC
  5
22B5D
  8
0
 10
4273.5816593522777112
 20
618.0935699255136342
 30
0.0
 40
0.3372644263687566
 50
247.1281365222586999
 51
288.2034195113898249
  0
ARC
  5
22B5E
  8
0
 10
4273.5067123694170732
 20
618.3214766256279518
 30
0.0
 40
0.5771779820448617
 50
288.2034195113898249
 51
308.7009909328177741
  0
ARC
  5
22B5F
  8
0
 10
4271.7984573228932277
 20
620.4536518966349377
 30
0.0
 40
3.3092663207087019
 50
308.7009909328177741
 51
314.5132037013838726
  0
ARC
  5
22B60
  8
0
 10
4271.0028329641218079
 20
621.2629119999827481
 30
0.0
 40
4.4441319670038046
 50
314.5132037013838726
 51
319.2541846491341744
  0
ARC
  5
22B61
  8
0
 10
4278.8678383860788017
 20
610.7294698749532245
 30
0.0
 40
8.1451317570402963
 50
135.835615546663206
 51
138.2098183731899042
  0
ARC
  5
22B62
  8
0
 10
4274.9444722596472275
 20
614.5400344818076519
 30
0.0
 40
2.675835240571379
 50
128.0282246592612125
 51
135.835615546663206
  0
ARC
  5
22B63
  8
0
 10
4273.6858831147146702
 20
616.1493204475790435
 30
0.0
 40
0.6328354962325561
 50
113.2348606258770047
 51
128.0282246592612125
  0
ARC
  5
22B64
  8
0
 10
4273.5813383501181306
 20
616.472437758968681
 30
0.0
 40
0.2963501081884119
 50
62.1239288464213431
 51
119.3179531993856983
  0
ARC
  5
22B65
  8
0
 10
4273.4998986164282542
 20
616.1841614234076587
 30
0.0
 40
0.5925898774579147
 50
51.0174965016271571
 51
68.2070214199074201
  0
ARC
  5
22B66
  8
0
 10
4271.5832097262473326
 20
613.8157693341253207
 30
0.0
 40
3.63938776873972
 50
46.5270248096144101
 51
51.0174965016271571
  0
ARC
  5
22B67
  8
0
 10
4272.0806596536704092
 20
614.3404676093928174
 30
0.0
 40
2.9163630731990362
 50
41.3530358587413431
 51
46.5270248096144101
  0
ARC
  5
22B68
  8
0
 10
4277.7535154572242391
 20
619.3335046465465439
 30
0.0
 40
4.6408660368849732
 50
221.3530358587412934
 51
223.1873247855313878
  0
LINE
  5
22B69
  8
0
 10
4270.9130181438031286
 20
616.3642122503639484
 30
0.0
 11
4270.9130181438031286
 21
616.2873452707640354
 31
0.0
  0
LINE
  5
22B6A
  8
0
 10
4270.9130181438031286
 20
616.2873452707640354
 30
0.0
 11
4270.9327031253033056
 21
616.2676602916641286
 31
0.0
  0
LINE
  5
22B6B
  8
0
 10
4270.9327031253033056
 20
616.2676602916641286
 30
0.0
 11
4271.9012071243041646
 21
616.2676602916641286
 31
0.0
  0
LINE
  5
22B6C
  8
0
 10
4271.9012071243041646
 20
616.2676602916641286
 30
0.0
 11
4271.9208921596027722
 21
616.2873452707640354
 31
0.0
  0
LINE
  5
22B6D
  8
0
 10
4271.9208921596027722
 20
616.2873452707640354
 30
0.0
 11
4271.9208921596027722
 21
616.3643621576701435
 31
0.0
  0
LINE
  5
22B6E
  8
0
 10
4271.9208921596027722
 20
616.211883537363974
 30
0.0
 11
4270.9130181438031286
 21
616.211883537363974
 31
0.0
  0
LINE
  5
22B6F
  8
0
 10
4270.9130181438031286
 20
616.211883537363974
 30
0.0
 11
4270.9130181438031286
 21
615.8693638523641312
 31
0.0
  0
ARC
  5
22B70
  8
0
 10
4270.8736480649677105
 20
615.8693638523641312
 30
0.0
 40
0.0393700788345433
 50
292.0000001700478265
 51
0.0
  0
LINE
  5
22B71
  8
0
 10
4270.8883963561920609
 20
615.8328605509594809
 30
0.0
 11
4270.8057501677849359
 21
615.7994693230929215
 31
0.0
  0
ARC
  5
22B72
  8
0
 10
4270.8204984590520326
 20
615.7629660215825425
 30
0.0
 40
0.0393700789486178
 50
112.0000001700477981
 51
179.9999994447136089
  0
LINE
  5
22B73
  8
0
 10
4270.7811283801038371
 20
615.7629660219639618
 30
0.0
 11
4270.7811283784640182
 21
615.5937733011641058
 31
0.0
  0
ARC
  5
22B74
  8
0
 10
4270.8204984568819782
 20
615.5937733007823454
 30
0.0
 40
0.0393700784184414
 50
179.9999994447136089
 51
270.0000027960774105
  0
LINE
  5
22B75
  8
0
 10
4270.820498458802831
 20
615.5544032223640443
 30
0.0
 11
4272.0134118446030698
 21
615.5544032805795496
 31
0.0
  0
ARC
  5
22B76
  8
0
 10
4272.013411842682217
 20
615.5937733612008742
 30
0.0
 40
0.0393700806213496
 50
270.0000027960774105
 51
359.9999126276676975
  0
LINE
  5
22B77
  8
0
 10
4272.0527819233038826
 20
615.5937733011641058
 30
0.0
 11
4272.0527821813111586
 21
615.7629660219638481
 31
0.0
  0
ARC
  5
22B78
  8
0
 10
4272.0134123460256887
 20
615.7629660820002755
 30
0.0
 40
0.0393698352860672
 50
359.9999126276676975
 51
68.0006438573518324
  0
LINE
  5
22B79
  8
0
 10
4272.0281601357028194
 20
615.7994693233639509
 30
0.0
 11
4271.9455135719954342
 21
615.832859622243177
 31
0.0
  0
ARC
  5
22B7A
  8
0
 10
4271.9602609824260071
 20
615.8693619249065705
 30
0.0
 40
0.039368822869933
 50
179.9971948571690916
 51
248.0006438573518039
  0
LINE
  5
22B7B
  8
0
 10
4271.9208921596027722
 20
615.8693638523641312
 30
0.0
 11
4271.9208921596027722
 21
616.211883537363974
 31
0.0
  0
LINE
  5
22B7C
  8
0
 10
4271.8559315296033674
 20
616.211883537363974
 30
0.0
 11
4271.8559315296033674
 21
616.2676602916641286
 31
0.0
  0
LINE
  5
22B7D
  8
0
 10
4270.9779787737033985
 20
616.2676602916641286
 30
0.0
 11
4270.9779787737033985
 21
616.211883537363974
 31
0.0
  0
LINE
  5
22B7E
  8
0
 10
4270.9130180877027669
 20
616.287345326864056
 30
0.0
 11
4271.9208922157022243
 21
616.287345326864056
 31
0.0
  0
LINE
  5
22B7F
  8
0
 10
4270.8057501684570525
 20
615.7994693233639509
 30
0.0
 11
4272.0281601357028194
 21
615.7994693233639509
 31
0.0
  0
LINE
  5
22B80
  8
0
 10
4270.9130181438031286
 20
615.8693638523641312
 30
0.0
 11
4271.9208921596027722
 21
615.8693638523641312
 31
0.0
  0
LINE
  5
22B81
  8
0
 10
4270.9219551517026048
 20
615.5544032223640443
 30
0.0
 11
4270.9219551517026048
 21
614.2094032223639033
 31
0.0
  0
ARC
  5
22B82
  8
0
 10
4270.9519551517032596
 20
614.2094032223641307
 30
0.0
 40
0.0299999999999994
 50
180.0
 51
270.0000013368874079
  0
LINE
  5
22B83
  8
0
 10
4270.9519551524035705
 20
614.1794032223640443
 30
0.0
 11
4271.8819551517026412
 21
614.1794032440641331
 31
0.0
  0
ARC
  5
22B84
  8
0
 10
4271.8819551510032397
 20
614.2094032447640757
 30
0.0
 40
0.0300000007000083
 50
270.0000013368874079
 51
359.9999572191347283
  0
LINE
  5
22B85
  8
0
 10
4271.911955151703296
 20
614.2094032223639033
 30
0.0
 11
4271.9119561559700742
 21
615.5544032223635895
 31
0.0
  0
LINE
  5
22B86
  8
0
 10
4270.9543567265036472
 20
614.1794032223640443
 30
0.0
 11
4270.9543567265036472
 21
613.5888520412682965
 31
0.0
  0
LINE
  5
22B87
  8
0
 10
4270.9543567265036472
 20
613.5888520412682965
 30
0.0
 11
4271.8795500156002163
 21
613.5888501449641126
 31
0.0
  0
LINE
  5
22B88
  8
0
 10
4271.8795500156002163
 20
613.5888501449641126
 30
0.0
 11
4271.8795500156002163
 21
614.1794032223640443
 31
0.0
  0
ARC
  5
22B89
  8
0
 10
4271.4169551517034051
 20
614.4576181976640328
 30
0.0
 40
0.9842519684999883
 50
241.9657034648022886
 51
298.0340616648589958
  0
LINE
  5
22B8A
  8
0
 10
4271.2472495242027435
 20
615.5544032223640443
 30
0.0
 11
4271.2472495242027435
 21
614.2094032223639033
 31
0.0
  0
ARC
  5
22B8B
  8
0
 10
4271.2589857323164324
 20
614.2094032223639033
 30
0.0
 40
0.0117362081129375
 50
180.0
 51
225.3727309491029018
  0
ARC
  5
22B8C
  8
0
 10
4271.2885868717712583
 20
614.2393920226261343
 30
0.0
 40
0.0538735502004923
 50
225.3727309491029018
 51
233.1698486951111136
  0
ARC
  5
22B8D
  8
0
 10
4271.2758089215813015
 20
614.2223301103456379
 30
0.0
 40
0.0325572451327816
 50
233.1698486951111136
 51
251.8410929345808995
  0
ARC
  5
22B8E
  8
0
 10
4271.0813883582850394
 20
613.6295641093566928
 30
0.0
 40
0.5912783801406575
 50
70.7509426006339766
 51
71.8410929345808569
  0
ARC
  5
22B8F
  8
0
 10
4271.3236854023361957
 20
614.365544102794729
 30
0.0
 40
0.1839601529804886
 50
255.0790211695010044
 51
263.3366346083014946
  0
ARC
  5
22B90
  8
0
 10
4271.3450503153408135
 20
614.5314622966317302
 30
0.0
 40
0.3512421835119576
 50
263.0155797692434021
 51
266.3971122770641955
  0
ARC
  5
22B91
  8
0
 10
4271.3820892202047617
 20
615.2357463694393118
 30
0.0
 40
1.0564870040754799
 50
266.7925825881018795
 51
269.0544685500184983
  0
LINE
  5
22B92
  8
0
 10
4271.5866607792031573
 20
615.5544032223640443
 30
0.0
 11
4271.5866607792031573
 21
614.2094032223639033
 31
0.0
  0
ARC
  5
22B93
  8
0
 10
4271.5749245710903779
 20
614.2094032223639033
 30
0.0
 40
0.0117362081129375
 50
314.6272690508970982
 51
0.0
  0
ARC
  5
22B94
  8
0
 10
4271.5453234316346425
 20
614.2393920226261343
 30
0.0
 40
0.0538735502004923
 50
306.8301513048888864
 51
314.6272690508970982
  0
ARC
  5
22B95
  8
0
 10
4271.5581013818264182
 20
614.2223301103456379
 30
0.0
 40
0.0325572451327816
 50
288.1589070654192142
 51
306.8301513048888864
  0
ARC
  5
22B96
  8
0
 10
4271.7525219451208613
 20
613.6295641093566928
 30
0.0
 40
0.5912783801406575
 50
108.1589070654191005
 51
109.249057399365995
  0
ARC
  5
22B97
  8
0
 10
4271.5102249010697051
 20
614.365544102794729
 30
0.0
 40
0.1839601529804886
 50
276.6633653916985054
 51
284.920978830498882
  0
ARC
  5
22B98
  8
0
 10
4271.4888599880659967
 20
614.5314622966317302
 30
0.0
 40
0.3512421835119576
 50
273.6028877229358045
 51
276.9844202307565979
  0
ARC
  5
22B99
  8
0
 10
4271.4518210832020486
 20
615.2357463694393118
 30
0.0
 40
1.0564870040754799
 50
270.9455314499813881
 51
273.2074174118981205
  0
ARC
  5
22B9A
  8
0
 10
4278.0526045941542179
 20
618.0002044076297807
 30
0.0
 40
0.0308732989755772
 50
189.7076778935476113
 51
235.4169868113542066
  0
ARC
  5
22B9B
  8
0
 10
4278.0785122385896102
 20
618.0081525943021461
 30
0.0
 40
0.0578541072904448
 50
179.8775118489926967
 51
193.1420777823323078
  0
LINE
  5
22B9C
  8
0
 10
4278.0206582635028099
 20
618.0082762759641355
 30
0.0
 11
4278.0206582634027654
 21
620.9457334700640558
 31
0.0
  0
ARC
  5
22B9D
  8
0
 10
4278.0646319605712051
 20
620.9475812515256621
 30
0.0
 40
0.0440125020756975
 50
134.0332088419121135
 51
182.4061618785223118
  0
ARC
  5
22B9E
  8
0
 10
4278.5296378326520426
 20
618.0002044076297807
 30
0.0
 40
0.0308732989755772
 50
304.5830131886457934
 51
350.2923221064523887
  0
ARC
  5
22B9F
  8
0
 10
4278.5037301882175598
 20
618.0081525943021461
 30
0.0
 40
0.0578541072904448
 50
346.8579222176676922
 51
0.1224881510073216
  0
LINE
  5
22BA0
  8
0
 10
4278.5615841633043601
 20
618.0082762759641355
 30
0.0
 11
4278.5615841634025855
 21
620.9457334700640558
 31
0.0
  0
ARC
  5
22BA1
  8
0
 10
4278.5176104662341459
 20
620.9475812515256621
 30
0.0
 40
0.0440125020756975
 50
357.5938381214775745
 51
45.9667911580878794
  0
ARC
  5
22BA2
  8
0
 10
4278.6903041051418768
 20
620.9671936791315829
 30
0.0
 40
0.0125808196646649
 50
11.0318319831964509
 51
72.9796568725230514
  0
ARC
  5
22BA3
  8
0
 10
4278.6408110950769697
 20
620.9491911364102634
 30
0.0
 40
0.0651223309193301
 50
4.7456428878180699
 51
18.2648047967625615
  0
ARC
  5
22BA4
  8
0
 10
4278.6119499599535629
 20
620.9457685846964523
 30
0.0
 40
0.0941732374957815
 50
359.9786359656341119
 51
5.3680975189628111
  0
LINE
  5
22BA5
  8
0
 10
4278.706123190902872
 20
620.9457334700640558
 30
0.0
 11
4278.7061231905026943
 21
618.0082762759641355
 31
0.0
  0
ARC
  5
22BA6
  8
0
 10
4278.6784730929921352
 20
617.99222211311519
 30
0.0
 40
0.0253878763397231
 50
316.6243954244686734
 51
339.2939718004491851
  0
ARC
  5
22BA7
  8
0
 10
4278.6527941898275458
 20
618.0019284496523824
 30
0.0
 40
0.0528399989655295
 50
339.2939718004491851
 51
352.8806788636496776
  0
ARC
  5
22BA8
  8
0
 10
4278.5882551181603048
 20
618.0099893182572259
 30
0.0
 40
0.1178805199847504
 50
352.8806788636496776
 51
359.1673471713938284
  0
LINE
  5
22BA9
  8
0
 10
4274.1758094824026557
 20
625.7128419924639502
 30
0.0
 11
4272.9888094824036671
 21
625.7128419924639502
 31
0.0
  0
VIEWPORT
  5
7BC8
 67
     1
  8
0
 10
8.4975296442687753
 20
4.5
 30
0.0
 40
16.9950592885375507
 41
9.0
 68
     1
 69
     1
1001
ACAD
1000
MVIEW
1002
{
1070
    16
1010
0.0
1020
0.0
1030
0.0
1010
0.0
1020
0.0
1030
1.0
1040
0.0
1040
9.0
1040
8.4975296442687753
1040
4.5
1040
50.0
1040
0.0
1040
0.0
1070
     0
1070
   100
1070
     1
1070
     1
1070
     0
1070
     0
1070
     0
1070
     0
1040
0.0
1040
0.0
1040
0.0
1040
1.0
1040
1.0
1040
0.0
1040
0.0
1070
     0
1002
{
1002
}
1002
}
  0
ENDSEC
  0
EOF
