  0
SECTION
  2
HEADER
  9
$ACADVER
  1
AC1009
  9
$INSBASE
 10
362.8163279592030221
 20
17.5485302103874687
 30
0.0
  9
$EXTMIN
 10
358.8254959699618212
 20
14.4227206521600397
 30
-0.0015258207003583
  9
$EXTMAX
 10
362.8286031683422266
 20
20.6743771582520708
 30
0.0000000349246037
  9
$LIMMIN
 10
0.0
 20
0.0
  9
$LIMMAX
 10
11.6929133858000007
 20
8.2677165353999982
  9
$ORTHOMODE
 70
     0
  9
$REGENMODE
 70
     1
  9
$FILLMODE
 70
     1
  9
$QTEXTMODE
 70
     0
  9
$MIRRTEXT
 70
     0
  9
$DRAGMODE
 70
     2
  9
$LTSCALE
 40
0.6431102362
  9
$OSMODE
 70
  4095
  9
$ATTMODE
 70
     1
  9
$TEXTSIZE
 40
0.2
  9
$TRACEWID
 40
0.05
  9
$TEXTSTYLE
  7
STANDARD
  9
$CLAYER
  8
0
  9
$CELTYPE
  6
BYLAYER
  9
$CECOLOR
 62
   256
  9
$DIMSCALE
 40
1.0
  9
$DIMASZ
 40
0.1875
  9
$DIMEXO
 40
0.0625
  9
$DIMDLI
 40
0.4443307087
  9
$DIMRND
 40
0.0
  9
$DIMDLE
 40
0.0
  9
$DIMEXE
 40
0.125
  9
$DIMTP
 40
0.01
  9
$DIMTM
 40
0.01
  9
$DIMTXT
 40
0.15625
  9
$DIMCEN
 40
0.1052362205
  9
$DIMTSZ
 40
0.0
  9
$DIMTOL
 70
     1
  9
$DIMLIM
 70
     0
  9
$DIMTIH
 70
     1
  9
$DIMTOH
 70
     1
  9
$DIMSE1
 70
     0
  9
$DIMSE2
 70
     0
  9
$DIMTAD
 70
     0
  9
$DIMZIN
 70
     0
  9
$DIMBLK
  1

  9
$DIMASO
 70
     1
  9
$DIMSHO
 70
     1
  9
$DIMPOST
  1
\X
  9
$DIMAPOST
  1

  9
$DIMALT
 70
     1
  9
$DIMALTD
 70
     2
  9
$DIMALTF
 40
25.3999999999999986
  9
$DIMLFAC
 40
1.0
  9
$DIMTOFL
 70
     0
  9
$DIMTVP
 40
0.0
  9
$DIMTIX
 70
     0
  9
$DIMSOXD
 70
     0
  9
$DIMSAH
 70
     0
  9
$DIMBLK1
  1

  9
$DIMBLK2
  1

  9
$DIMSTYLE
  2
STANDARD
  9
$DIMCLRD
 70
     0
  9
$DIMCLRE
 70
     0
  9
$DIMCLRT
 70
     0
  9
$DIMTFAC
 40
1.0
  9
$DIMGAP
 40
0.09
  9
$LUNITS
 70
     2
  9
$LUPREC
 70
     4
  9
$SKETCHINC
 40
0.1
  9
$FILLETRAD
 40
0.0
  9
$AUNITS
 70
     0
  9
$AUPREC
 70
     0
  9
$MENU
  1
.
  9
$ELEVATION
 40
0.0
  9
$PELEVATION
 40
0.0
  9
$THICKNESS
 40
0.0
  9
$LIMCHECK
 70
     0
  9
$BLIPMODE
 70
     0
  9
$CHAMFERA
 40
0.0
  9
$CHAMFERB
 40
0.0
  9
$SKPOLY
 70
     0
  9
$TDCREATE
 40
2458018.639108797069639
  9
$TDUPDATE
 40
2460201.7613078709691763
  9
$TDINDWG
 40
0.4312726852
  9
$TDUSRTIMER
 40
0.4312726852
  9
$USRTIMER
 70
     1
  9
$ANGBASE
 50
0.0
  9
$ANGDIR
 70
     0
  9
$PDMODE
 70
     0
  9
$PDSIZE
 40
0.3125
  9
$PLINEWID
 40
0.0
  9
$COORDS
 70
     1
  9
$SPLFRAME
 70
     0
  9
$SPLINETYPE
 70
     6
  9
$SPLINESEGS
 70
     8
  9
$ATTDIA
 70
     1
  9
$ATTREQ
 70
     1
  9
$HANDLING
 70
     1
  9
$HANDSEED
  5
C014
  9
$SURFTAB1
 70
     6
  9
$SURFTAB2
 70
     6
  9
$SURFTYPE
 70
     6
  9
$SURFU
 70
     6
  9
$SURFV
 70
     6
  9
$UCSNAME
  2

  9
$UCSORG
 10
0.0
 20
0.0
 30
0.0
  9
$UCSXDIR
 10
1.0
 20
0.0
 30
0.0
  9
$UCSYDIR
 10
0.0
 20
1.0
 30
0.0
  9
$PUCSNAME
  2

  9
$PUCSORG
 10
0.0
 20
0.0
 30
0.0
  9
$PUCSXDIR
 10
1.0
 20
0.0
 30
0.0
  9
$PUCSYDIR
 10
0.0
 20
1.0
 30
0.0
  9
$USERI1
 70
     0
  9
$USERI2
 70
     0
  9
$USERI3
 70
     0
  9
$USERI4
 70
     0
  9
$USERI5
 70
     0
  9
$USERR1
 40
0.0
  9
$USERR2
 40
0.0
  9
$USERR3
 40
0.0
  9
$USERR4
 40
0.0
  9
$USERR5
 40
0.0
  9
$WORLDVIEW
 70
     1
  9
$SHADEDGE
 70
     3
  9
$SHADEDIF
 70
    70
  9
$TILEMODE
 70
     1
  9
$MAXACTVP
 70
    64
  9
$PLIMCHECK
 70
     0
  9
$PEXTMIN
 10
1.0000000000000000E+20
 20
1.0000000000000000E+20
 30
1.0000000000000000E+20
  9
$PEXTMAX
 10
-1.0000000000000000E+20
 20
-1.0000000000000000E+20
 30
-1.0000000000000000E+20
  9
$PLIMMIN
 10
0.0
 20
0.0
  9
$PLIMMAX
 10
12.0
 20
9.0
  9
$UNITMODE
 70
     0
  9
$VISRETAIN
 70
     1
  9
$PLINEGEN
 70
     0
  9
$PSLTSCALE
 70
     1
  0
ENDSEC
  0
SECTION
  2
TABLES
  0
TABLE
  2
VPORT
 70
     1
  0
VPORT
  2
*ACTIVE
 70
     0
 10
0.0
 20
0.0
 11
1.0
 21
1.0
 12
265.5027885714143281
 22
10.5122168939832097
 13
0.0
 23
0.0
 14
1.0
 24
1.0
 15
0.0
 25
0.0
 16
-0.0000000000000142
 26
0.0
 36
39.3282560748450578
 17
95.3242609977377526
 27
7.0363320112228394
 37
0.0
 40
6.3034987518621488
 41
2.5251322751322749
 42
50.0
 43
0.0
 44
0.0
 50
0.0
 51
0.0
 71
     0
 72
   100
 73
     1
 74
     1
 75
     0
 76
     0
 77
     0
 78
     0
  0
ENDTAB
  0
TABLE
  2
LTYPE
 70
     2
  0
LTYPE
  2
CONTINUOUS
 70
     0
  3
Solid line
 72
    65
 73
     0
 40
0.0
  0
LTYPE
  2
PHANTOM2
 70
     0
  3
___ _ _ ___ _ _ ___ _ _ ___ _ _
 72
    65
 73
     6
 40
1.25
 49
0.625
 49
-0.125
 49
0.125
 49
-0.125
 49
0.125
 49
-0.125
  0
ENDTAB
  0
TABLE
  2
LAYER
 70
     2
  0
LAYER
  2
0
 70
     0
 62
   255
  6
CONTINUOUS
  0
LAYER
  2
DEFPOINTS
 70
     0
 62
     7
  6
CONTINUOUS
  0
ENDTAB
  0
TABLE
  2
STYLE
 70
     1
  0
STYLE
  2
STANDARD
 70
     0
 40
0.0
 41
0.8
 50
0.0
 71
     0
 42
0.2
  3
txt
  4

  0
ENDTAB
  0
TABLE
  2
VIEW
 70
     0
  0
ENDTAB
  0
TABLE
  2
UCS
 70
     0
  0
ENDTAB
  0
TABLE
  2
APPID
 70
    10
  0
APPID
  2
ACAD
 70
     0
  0
APPID
  2
ACAD_MLEADERVER
 70
     0
  0
APPID
  2
ACAD_DSTYLE_DIMJAG
 70
     0
  0
APPID
  2
ACAD_DSTYLE_DIMTALN
 70
     0
  0
APPID
  2
ACAD_NAV_VCDISPLAY
 70
     0
  0
APPID
  2
ACAD_EXEMPT_FROM_CAD_STANDARDS
 70
     0
  0
APPID
  2
ACAECLAYERSTANDARD
 70
     0
  0
APPID
  2
ACCMTRANSPARENCY
 70
     0
  0
APPID
  2
DCO15
 70
     0
  0
APPID
  2
ACDBATTR
 70
     0
  0
ENDTAB
  0
TABLE
  2
DIMSTYLE
 70
     1
  0
DIMSTYLE
  2
STANDARD
 70
     0
  3

  4

  5

  6

  7

 40
1.0
 41
0.1875
 42
0.0625
 43
0.38
 44
0.125
 45
0.0
 46
0.0
 47
0.01
 48
0.01
140
0.15625
141
0.09
142
0.0
143
25.3999999999999986
144
1.0
145
0.0
146
1.0
147
0.09
 71
     1
 72
     0
 73
     1
 74
     1
 75
     0
 76
     0
 77
     0
 78
     4
170
     0
171
     2
172
     0
173
     0
174
     0
175
     0
176
     0
177
     0
178
     0
  0
ENDTAB
  0
ENDSEC
  0
SECTION
  2
BLOCKS
  0
BLOCK
  8
0
  2
$MODEL_SPACE
 70
     0
 10
0.0
 20
0.0
 30
0.0
  3
$MODEL_SPACE
  1

  0
ENDBLK
  5
21
  8
0
  0
BLOCK
 67
     1
  8
0
  2
$PAPER_SPACE
 70
     0
 10
0.0
 20
0.0
 30
0.0
  3
$PAPER_SPACE
  1

  0
ENDBLK
  5
1D
 67
     1
  8
0
  0
BLOCK
  8
0
  2
_FILLED
 70
     0
 10
0.0
 20
0.0
 30
0.0
  3
_FILLED
  1

  0
SOLID
  5
A58D
  8
0
  6
BYBLOCK
 62
     0
 10
0.0
 20
0.0
 30
0.0
 11
-1.0
 21
0.1666666667
 31
0.0
 12
-1.0
 22
-0.1666666667
 32
0.0
 13
-1.0
 23
-0.1666666667
 33
0.0
  0
ENDBLK
  5
A58E
  8
0
  6
BYBLOCK
 62
     0
  0
ENDSEC
  0
SECTION
  2
ENTITIES
  0
ATTDEF
  5
7A6E
  8
DEFPOINTS
 10
362.8166434496469037
 20
17.5518001344418693
 30
0.0
 40
0.001
  1
P32707-JST
  3

  2
MODELNUMBER
 70
     0
1001
ACDBATTR
1070
     0
1070
     1
  0
ATTDEF
  5
7A6F
  8
DEFPOINTS
 10
362.8166434496469037
 20
17.5501334677752112
 30
0.0
 40
0.001
  1
002
  3

  2
TRADENAME
 70
     0
1001
ACDBATTR
1070
     0
1070
     1
  0
ATTDEF
  5
7A70
  8
DEFPOINTS
 10
362.8166434496469037
 20
17.548466801108539
 30
0.0
 40
0.001
  1
VALVE TRIM
  3

  2
PRODUCT
 70
     0
1001
ACDBATTR
1070
     0
1070
     1
  0
LINE
  5
BF12
  8
0
 10
362.8163279592030221
 20
14.4235302103874705
 30
0.0
 11
362.8163279592030221
 21
20.6735302103874687
 31
0.0
  0
LINE
  5
BF13
  8
0
 10
361.7563279592030199
 20
14.5194782682874699
 30
0.0
 11
361.7563279592030199
 21
20.5775821524874694
 31
0.0
  0
ARC
  5
BF14
  8
0
 10
361.8263279592030131
 20
20.5775821524874694
 30
0.0
 40
0.07
 50
91.5000000041631836
 51
180.0
  0
LINE
  5
BF15
  8
0
 10
360.4929336574030003
 20
18.4235302103874687
 30
0.0
 11
361.7563279592030199
 21
18.4235302103874687
 31
0.0
  0
LINE
  5
BF16
  8
0
 10
360.4029336574030253
 20
18.0575302103874691
 30
0.0
 11
359.6528888769029777
 21
18.0575302103874691
 31
0.0
  0
ARC
  5
BF17
  8
0
 10
360.4029336574030253
 20
18.0275302103874715
 30
0.0
 40
0.03
 50
0.0
 51
90.0
  0
LINE
  5
BF18
  8
0
 10
360.4629336574030276
 20
18.3935302103874712
 30
0.0
 11
360.4629336574030276
 21
16.7035302103874805
 31
0.0
  0
ARC
  5
BF19
  8
0
 10
360.4929336574030003
 20
18.3935302103874712
 30
0.0
 40
0.03
 50
90.0
 51
180.0000000000005969
  0
LINE
  5
BF1A
  8
0
 10
360.4329336574029981
 20
18.0275302103874715
 30
0.0
 11
360.4329336574029981
 21
17.0695302103874802
 31
0.0
  0
LINE
  5
BF1B
  8
0
 10
360.442933657402989
 20
17.9555302103874688
 30
0.0
 11
360.4329336574029981
 21
17.9555302103874688
 31
0.0
  0
ARC
  5
BF1C
  8
0
 10
360.442933657402989
 20
17.9755302103874683
 30
0.0
 40
0.02
 50
270.0
 51
0.0000000000014249
  0
LINE
  5
BF1D
  8
0
 10
359.4968888769029718
 20
18.2135302103874785
 30
0.0
 11
359.4968888769029718
 21
18.7365302103874782
 31
0.0
  0
LINE
  5
BF1E
  8
0
 10
359.0785336574029998
 20
19.1567176546960987
 30
0.0
 11
359.0785336574028861
 21
15.9403427660788601
 31
0.0
  0
LINE
  5
BF1F
  8
0
 10
358.8261325817028933
 20
18.9106861862357611
 30
0.0
 11
358.8261325817028933
 21
16.1863742345392509
 31
0.0
  0
LINE
  5
BF20
  8
0
 10
359.0298271863908894
 20
19.1175771753874884
 30
0.0
 11
359.0528568010029744
 21
19.1175771753874884
 31
0.0
  0
ARC
  5
BF21
  8
0
 10
359.6528888769029777
 20
18.2135302103874785
 30
0.0
 40
0.156
 50
180.0000000000007958
 51
270.0
  0
ARC
  5
BF22
  8
0
 10
359.0543888769029763
 20
18.7365302103874782
 30
0.0
 40
0.442499999999999
 50
0.0
 51
84.0025219723204657
  0
ARC
  5
BF23
  8
0
 10
359.0985336574029816
 20
19.1567176546960987
 30
0.0
 40
0.02
 50
84.0025219723204657
 51
179.9999999999974989
  0
LINE
  5
BF24
  8
0
 10
359.0578594902518716
 20
19.1162358762298901
 30
0.0
 11
359.0785336574029998
 21
19.1042910780874813
 31
0.0
  0
ARC
  5
BF25
  8
0
 10
359.0528568010029744
 20
19.107577175387501
 30
0.0
 40
0.01
 50
59.9822064765346781
 51
90.0000000000390656
  0
ARC
  5
BF26
  8
0
 10
359.2598276634395233
 20
18.6712401478129415
 30
0.0
 40
0.5038270152102476
 50
118.0677360059715966
 51
147.3501827472834975
  0
ARC
  5
BF27
  8
0
 10
359.0298271863908894
 20
19.1025771753874913
 30
0.0
 40
0.015
 50
90.0
 51
118.0677360059680012
  0
ARC
  5
BF28
  8
0
 10
358.8861325817032935
 20
18.9106861862357114
 30
0.0
 40
0.06
 50
147.3501827474227071
 51
179.9999999999600959
  0
LINE
  5
BF29
  8
0
 10
359.0578594902518716
 20
19.1162358762298901
 30
0.0
 11
359.0578594902518716
 21
15.9808245445450794
 31
0.0
  0
LINE
  5
BF2A
  8
0
 10
359.0227694603481154
 20
19.1158130547728007
 30
0.0
 11
359.0227694603481154
 21
15.9812473660021404
 31
0.0
  0
ARC
  5
BF2B
  8
0
 10
359.0543888769029763
 20
17.5485302103874687
 30
0.0
 40
0.4424999999999983
 50
0.0
 51
84.0025219723204657
  0
ARC
  5
BF2C
  8
0
 10
359.0985336574029816
 20
17.9687176546960998
 30
0.0
 40
0.02
 50
84.0025219723204657
 51
179.9999999999984084
  0
LINE
  5
BF2D
  8
0
 10
359.0298271863908894
 20
17.9295771753874789
 30
0.0
 11
359.0528568010029744
 21
17.9295771753874789
 31
0.0
  0
LINE
  5
BF2E
  8
0
 10
359.0578594902518716
 20
17.9282358762298806
 30
0.0
 11
359.0785336574028861
 21
17.9162910780874896
 31
0.0
  0
ARC
  5
BF2F
  8
0
 10
359.0528568010029744
 20
17.9195771753874915
 30
0.0
 40
0.01
 50
59.9822064765346781
 51
90.0000000000390656
  0
ARC
  5
BF30
  8
0
 10
359.2598276634395233
 20
17.4832401478129498
 30
0.0
 40
0.5038270152102476
 50
118.0677360059715966
 51
147.3501827472834975
  0
ARC
  5
BF31
  8
0
 10
359.0298271863908894
 20
17.9145771753874783
 30
0.0
 40
0.015
 50
90.0
 51
118.0677360059680012
  0
ARC
  5
BF32
  8
0
 10
358.8861325817032935
 20
17.722686186235709
 30
0.0
 40
0.06
 50
147.3501827474227071
 51
179.9999999999600959
  0
LINE
  5
BF33
  8
0
 10
362.8163279592030221
 20
20.6735302103874687
 30
0.0
 11
361.8244955728163177
 21
20.6475581652356297
 31
0.0
  0
ARC
  5
BF34
  8
0
 10
361.8263279592030131
 20
14.5194782682874699
 30
0.0
 40
0.07
 50
180.0
 51
268.499999995836788
  0
LINE
  5
BF35
  8
0
 10
360.4929336574030003
 20
16.6735302103874687
 30
0.0
 11
361.7563279592030199
 21
16.6735302103874687
 31
0.0
  0
LINE
  5
BF36
  8
0
 10
360.4029336574030253
 20
17.0395302103874684
 30
0.0
 11
359.6528888769029777
 21
17.0395302103874684
 31
0.0
  0
ARC
  5
BF37
  8
0
 10
360.4029336574030253
 20
17.0695302103874802
 30
0.0
 40
0.03
 50
270.0
 51
0.0
  0
ARC
  5
BF38
  8
0
 10
360.4929336574030003
 20
16.7035302103874805
 30
0.0
 40
0.03
 50
179.9999999999994031
 51
270.0
  0
LINE
  5
BF39
  8
0
 10
360.442933657402989
 20
17.1415302103874687
 30
0.0
 11
360.4329336574029981
 21
17.1415302103874687
 31
0.0
  0
ARC
  5
BF3A
  8
0
 10
360.442933657402989
 20
17.1215302103874691
 30
0.0
 40
0.02
 50
359.9999999999984084
 51
90.0
  0
LINE
  5
BF3B
  8
0
 10
359.4968888769029718
 20
16.8835302103874696
 30
0.0
 11
359.4968888769029718
 21
16.3605302103874699
 31
0.0
  0
LINE
  5
BF3C
  8
0
 10
359.0298271863908894
 20
15.9794832453874598
 30
0.0
 11
359.0528568010029744
 21
15.9794832453874598
 31
0.0
  0
ARC
  5
BF3D
  8
0
 10
359.6528888769029777
 20
16.8835302103874696
 30
0.0
 40
0.156
 50
90.0
 51
179.9999999999992042
  0
ARC
  5
BF3E
  8
0
 10
359.0543888769029763
 20
16.3605302103874699
 30
0.0
 40
0.442499999999999
 50
275.9974780276796196
 51
0.0
  0
ARC
  5
BF3F
  8
0
 10
359.0985336574029816
 20
15.9403427660788495
 30
0.0
 40
0.02
 50
180.0000000000023874
 51
275.9974780276795059
  0
LINE
  5
BF40
  8
0
 10
359.0578594902518716
 20
15.9808245445450599
 30
0.0
 11
359.0785336574029998
 21
15.9927693426874704
 31
0.0
  0
ARC
  5
BF41
  8
0
 10
359.0528568010029744
 20
15.9894832453874507
 30
0.0
 40
0.01
 50
269.9999999999575948
 51
300.0177935234654001
  0
ARC
  5
BF42
  8
0
 10
359.2598276634395233
 20
16.4258202729620102
 30
0.0
 40
0.5038270152102476
 50
212.6498172527163035
 51
241.9322639940282897
  0
ARC
  5
BF43
  8
0
 10
359.0298271863908894
 20
15.9944832453874604
 30
0.0
 40
0.015
 50
241.9322639940318993
 51
270.0
  0
ARC
  5
BF44
  8
0
 10
358.8861325817032935
 20
16.1863742345392403
 30
0.0
 40
0.06
 50
180.0000000000399041
 51
212.6498172525753887
  0
ARC
  5
BF45
  8
0
 10
359.0543888769029763
 20
17.5485302103874687
 30
0.0
 40
0.4424999999999983
 50
275.9974780276796196
 51
0.0
  0
ARC
  5
BF46
  8
0
 10
359.0985336574029816
 20
17.1283427660788483
 30
0.0
 40
0.02
 50
180.0000000000015916
 51
275.9974780276796196
  0
LINE
  5
BF47
  8
0
 10
359.0298271863908894
 20
17.1674832453874586
 30
0.0
 11
359.0528568010029744
 21
17.1674832453874586
 31
0.0
  0
LINE
  5
BF48
  8
0
 10
359.0578594902518716
 20
17.1688245445450711
 30
0.0
 11
359.0785336574028861
 21
17.1807693426874586
 31
0.0
  0
ARC
  5
BF49
  8
0
 10
359.0528568010029744
 20
17.1774832453874495
 30
0.0
 40
0.01
 50
269.9999999999575948
 51
300.0177935234654001
  0
ARC
  5
BF4A
  8
0
 10
359.2598276634395233
 20
17.6138202729619913
 30
0.0
 40
0.5038270152102476
 50
212.6498172527163035
 51
241.9322639940282897
  0
ARC
  5
BF4B
  8
0
 10
359.0298271863908894
 20
17.1824832453874592
 30
0.0
 40
0.015
 50
241.9322639940318993
 51
270.0
  0
ARC
  5
BF4C
  8
0
 10
358.8861325817032935
 20
17.3743742345392391
 30
0.0
 40
0.06
 50
180.0000000000399041
 51
212.6498172525753887
  0
LINE
  5
BF4D
  8
0
 10
362.8163279592030221
 20
14.4235302103874705
 30
0.0
 11
361.8244955728163177
 21
14.4495022555393096
 31
0.0
  0
ENDSEC
  0
EOF
