  0
SECTION
  2
HEADER
  9
$ACADVER
  1
AC1009
  9
$INSBASE
 10
5329.600157550982658
 20
295.5905860676485872
 30
0.0
  9
$EXTMIN
 10
5327.7260112730336914
 20
291.9787849919486007
 30
0.0
  9
$EXTMAX
 10
5331.4743038289334436
 20
295.5957451769460249
 30
0.0
  9
$LIMMIN
 10
0.0
 20
0.0
  9
$LIMMAX
 10
11.6929133858000007
 20
8.2677165353999982
  9
$ORTHOMODE
 70
     0
  9
$REGENMODE
 70
     1
  9
$FILLMODE
 70
     1
  9
$QTEXTMODE
 70
     0
  9
$MIRRTEXT
 70
     0
  9
$DRAGMODE
 70
     2
  9
$LTSCALE
 40
0.6431102362
  9
$OSMODE
 70
  4095
  9
$ATTMODE
 70
     1
  9
$TEXTSIZE
 40
0.2
  9
$TRACEWID
 40
0.05
  9
$TEXTSTYLE
  7
STANDARD
  9
$CLAYER
  8
0
  9
$CELTYPE
  6
BYLAYER
  9
$CECOLOR
 62
   256
  9
$DIMSCALE
 40
1.0
  9
$DIMASZ
 40
0.1875
  9
$DIMEXO
 40
0.0625
  9
$DIMDLI
 40
0.4443307087
  9
$DIMRND
 40
0.0
  9
$DIMDLE
 40
0.0
  9
$DIMEXE
 40
0.125
  9
$DIMTP
 40
0.01
  9
$DIMTM
 40
0.01
  9
$DIMTXT
 40
2.0
  9
$DIMCEN
 40
0.1052362205
  9
$DIMTSZ
 40
0.0
  9
$DIMTOL
 70
     1
  9
$DIMLIM
 70
     0
  9
$DIMTIH
 70
     1
  9
$DIMTOH
 70
     1
  9
$DIMSE1
 70
     0
  9
$DIMSE2
 70
     0
  9
$DIMTAD
 70
     0
  9
$DIMZIN
 70
     0
  9
$DIMBLK
  1

  9
$DIMASO
 70
     1
  9
$DIMSHO
 70
     1
  9
$DIMPOST
  1
\X
  9
$DIMAPOST
  1

  9
$DIMALT
 70
     1
  9
$DIMALTD
 70
     2
  9
$DIMALTF
 40
25.3999999999999986
  9
$DIMLFAC
 40
1.0
  9
$DIMTOFL
 70
     0
  9
$DIMTVP
 40
0.0
  9
$DIMTIX
 70
     0
  9
$DIMSOXD
 70
     0
  9
$DIMSAH
 70
     0
  9
$DIMBLK1
  1

  9
$DIMBLK2
  1

  9
$DIMSTYLE
  2
STANDARD
  9
$DIMCLRD
 70
     0
  9
$DIMCLRE
 70
     0
  9
$DIMCLRT
 70
     0
  9
$DIMTFAC
 40
1.0
  9
$DIMGAP
 40
0.09
  9
$LUNITS
 70
     2
  9
$LUPREC
 70
     4
  9
$SKETCHINC
 40
0.1
  9
$FILLETRAD
 40
0.0
  9
$AUNITS
 70
     0
  9
$AUPREC
 70
     0
  9
$MENU
  1
.
  9
$ELEVATION
 40
0.0
  9
$PELEVATION
 40
0.0
  9
$THICKNESS
 40
0.0
  9
$LIMCHECK
 70
     0
  9
$BLIPMODE
 70
     0
  9
$CHAMFERA
 40
0.0
  9
$CHAMFERB
 40
0.0
  9
$SKPOLY
 70
     0
  9
$TDCREATE
 40
2458060.468368056230247
  9
$TDUPDATE
 40
2460193.8183564809150994
  9
$TDINDWG
 40
0.679983912
  9
$TDUSRTIMER
 40
0.679983912
  9
$USRTIMER
 70
     1
  9
$ANGBASE
 50
0.0
  9
$ANGDIR
 70
     0
  9
$PDMODE
 70
     0
  9
$PDSIZE
 40
0.3125
  9
$PLINEWID
 40
0.0
  9
$COORDS
 70
     1
  9
$SPLFRAME
 70
     0
  9
$SPLINETYPE
 70
     6
  9
$SPLINESEGS
 70
     8
  9
$ATTDIA
 70
     1
  9
$ATTREQ
 70
     1
  9
$HANDLING
 70
     1
  9
$HANDSEED
  5
2A728
  9
$SURFTAB1
 70
     6
  9
$SURFTAB2
 70
     6
  9
$SURFTYPE
 70
     6
  9
$SURFU
 70
     6
  9
$SURFV
 70
     6
  9
$UCSNAME
  2

  9
$UCSORG
 10
0.0
 20
0.0
 30
0.0
  9
$UCSXDIR
 10
1.0
 20
0.0
 30
0.0
  9
$UCSYDIR
 10
0.0
 20
1.0
 30
0.0
  9
$PUCSNAME
  2

  9
$PUCSORG
 10
0.0
 20
0.0
 30
0.0
  9
$PUCSXDIR
 10
1.0
 20
0.0
 30
0.0
  9
$PUCSYDIR
 10
0.0
 20
1.0
 30
0.0
  9
$USERI1
 70
     0
  9
$USERI2
 70
     0
  9
$USERI3
 70
     0
  9
$USERI4
 70
     0
  9
$USERI5
 70
     0
  9
$USERR1
 40
0.0
  9
$USERR2
 40
0.0
  9
$USERR3
 40
0.0
  9
$USERR4
 40
0.0
  9
$USERR5
 40
0.0
  9
$WORLDVIEW
 70
     1
  9
$SHADEDGE
 70
     3
  9
$SHADEDIF
 70
    70
  9
$TILEMODE
 70
     1
  9
$MAXACTVP
 70
    64
  9
$PLIMCHECK
 70
     0
  9
$PEXTMIN
 10
1.0000000000000000E+20
 20
1.0000000000000000E+20
 30
1.0000000000000000E+20
  9
$PEXTMAX
 10
-1.0000000000000000E+20
 20
-1.0000000000000000E+20
 30
-1.0000000000000000E+20
  9
$PLIMMIN
 10
0.0
 20
0.0
  9
$PLIMMAX
 10
12.0
 20
9.0
  9
$UNITMODE
 70
     0
  9
$VISRETAIN
 70
     1
  9
$PLINEGEN
 70
     0
  9
$PSLTSCALE
 70
     1
  0
ENDSEC
  0
SECTION
  2
TABLES
  0
TABLE
  2
VPORT
 70
     1
  0
VPORT
  2
*ACTIVE
 70
     0
 10
0.0
 20
0.0
 11
1.0
 21
1.0
 12
1418.2348011056710675
 22
161.2076599819081935
 13
0.0
 23
0.0
 14
1.0
 24
1.0
 15
0.0
 25
0.0
 16
0.0
 26
0.0
 36
60.4960186965801583
 17
3911.3653564453120453
 27
132.5796051025390057
 37
0.0
 40
3.6447473311049521
 41
1.4307692307692299
 42
50.0
 43
0.0
 44
0.0
 50
0.0
 51
0.0
 71
     0
 72
   100
 73
     1
 74
     1
 75
     0
 76
     0
 77
     0
 78
     0
  0
ENDTAB
  0
TABLE
  2
LTYPE
 70
     2
  0
LTYPE
  2
CONTINUOUS
 70
     0
  3
Solid line
 72
    65
 73
     0
 40
0.0
  0
LTYPE
  2
PHANTOM2
 70
     0
  3
___ _ _ ___ _ _ ___ _ _ ___ _ _
 72
    65
 73
     6
 40
1.25
 49
0.625
 49
-0.125
 49
0.125
 49
-0.125
 49
0.125
 49
-0.125
  0
ENDTAB
  0
TABLE
  2
LAYER
 70
     2
  0
LAYER
  2
0
 70
     0
 62
   255
  6
CONTINUOUS
  0
LAYER
  2
DEFPOINTS
 70
     0
 62
     7
  6
CONTINUOUS
  0
ENDTAB
  0
TABLE
  2
STYLE
 70
     1
  0
STYLE
  2
STANDARD
 70
     0
 40
0.0
 41
0.8
 50
0.0
 71
     0
 42
0.2
  3
txt
  4

  0
ENDTAB
  0
TABLE
  2
VIEW
 70
     0
  0
ENDTAB
  0
TABLE
  2
UCS
 70
     0
  0
ENDTAB
  0
TABLE
  2
APPID
 70
    11
  0
APPID
  2
ACAD
 70
     0
  0
APPID
  2
ACAD_MLEADERVER
 70
     0
  0
APPID
  2
ACAD_EXEMPT_FROM_CAD_STANDARDS
 70
     0
  0
APPID
  2
ACAD_NAV_VCDISPLAY
 70
     0
  0
APPID
  2
ACAECLAYERSTANDARD
 70
     0
  0
APPID
  2
ACCMTRANSPARENCY
 70
     0
  0
APPID
  2
ACAD_DSTYLE_DIMJAG
 70
     0
  0
APPID
  2
ACAD_DSTYLE_DIMTALN
 70
     0
  0
APPID
  2
ACDBATTR
 70
     0
  0
APPID
  2
ACADANNOTATIVE
 70
     0
  0
APPID
  2
DCO15
 70
     0
  0
ENDTAB
  0
TABLE
  2
DIMSTYLE
 70
     1
  0
DIMSTYLE
  2
STANDARD
 70
     0
  3

  4

  5

  6

  7

 40
1.0
 41
0.1875
 42
0.0625
 43
0.38
 44
0.125
 45
0.0
 46
0.0
 47
0.01
 48
0.01
140
0.15625
141
0.09
142
0.0
143
25.3999999999999986
144
1.0
145
0.0
146
1.0
147
0.09
 71
     1
 72
     0
 73
     1
 74
     1
 75
     0
 76
     0
 77
     0
 78
     4
170
     0
171
     2
172
     0
173
     0
174
     0
175
     0
176
     0
177
     0
178
     0
  0
ENDTAB
  0
ENDSEC
  0
SECTION
  2
BLOCKS
  0
BLOCK
  8
0
  2
$MODEL_SPACE
 70
     0
 10
0.0
 20
0.0
 30
0.0
  3
$MODEL_SPACE
  1

  0
ENDBLK
  5
21
  8
0
  0
BLOCK
 67
     1
  8
0
  2
$PAPER_SPACE
 70
     0
 10
0.0
 20
0.0
 30
0.0
  3
$PAPER_SPACE
  1

  0
ENDBLK
  5
1D
 67
     1
  8
0
  0
ENDSEC
  0
SECTION
  2
ENTITIES
  0
ATTDEF
  5
26A5B
  8
DEFPOINTS
 10
5329.5966910238639684
 20
295.5947451769461054
 30
0.0
 40
0.001
  1
P32709-RST
  3

  2
MODELNUMBER
 70
     0
1001
ACDBATTR
1070
     0
1070
     1
  0
ATTDEF
  5
26A5C
  8
DEFPOINTS
 10
5329.5965652142058389
 20
295.5930783365669186
 30
0.0
 40
0.001
  1
002
  3

  2
TRADENAME
 70
     0
1001
ACDBATTR
1070
     0
1070
     1
  0
ATTDEF
  5
26A5D
  8
DEFPOINTS
 10
5329.5966910238639684
 20
295.5914118436127183
 30
0.0
 40
0.001
  1
VALVE TRIM
  3

  2
PRODUCT
 70
     0
1001
ACDBATTR
1070
     0
1070
     1
  0
LINE
  5
2A527
  8
0
 10
5327.737029288233316
 20
294.9593643992486136
 30
0.0
 11
5327.7260112730336914
 21
295.5905860676485872
 31
0.0
  0
LINE
  5
2A528
  8
0
 10
5327.8070186268951147
 20
294.8905860676485986
 30
0.0
 11
5331.3932964750720203
 21
294.8905860676485986
 31
0.0
  0
LINE
  5
2A529
  8
0
 10
5328.7010112730340552
 20
293.6505860676485895
 30
0.0
 11
5328.7010112730340552
 21
294.8905860676485986
 31
0.0
  0
LINE
  5
2A52A
  8
0
 10
5328.7310112730338005
 20
293.6205860676486168
 30
0.0
 11
5330.4693038289342439
 21
293.6205860676486168
 31
0.0
  0
LINE
  5
2A52B
  8
0
 10
5329.1220187732333216
 20
293.5855860676485918
 30
0.0
 11
5330.0782963287338134
 21
293.5855860676485918
 31
0.0
  0
LINE
  5
2A52C
  8
0
 10
5329.0920187732335762
 20
292.816118157287292
 30
0.0
 11
5329.0920187732335762
 21
293.5555860676486191
 31
0.0
  0
LINE
  5
2A52D
  8
0
 10
5328.9232827735331739
 20
292.6495412871486224
 30
0.0
 11
5328.4130287785337714
 21
292.6495412871486224
 31
0.0
  0
LINE
  5
2A52E
  8
0
 10
5327.9928413342340718
 20
292.2311860676485935
 30
0.0
 11
5331.2074737677339726
 21
292.2311860676485935
 31
0.0
  0
LINE
  5
2A52F
  8
0
 10
5328.0319643081338654
 20
292.1824904550709903
 30
0.0
 11
5328.0319643081338654
 21
292.205509211248625
 31
0.0
  0
LINE
  5
2A530
  8
0
 10
5328.2352482031337786
 20
291.9787849919486007
 30
0.0
 11
5330.9650668988333564
 21
291.9787849919486007
 31
0.0
  0
LINE
  5
2A531
  8
0
 10
5327.7260112730336914
 20
295.5905860676485872
 30
0.0
 11
5331.4743038289334436
 21
295.5905860676485872
 31
0.0
  0
ARC
  5
2A532
  8
0
 10
5327.8070186268951147
 20
294.9605860676485918
 30
0.0
 40
0.07
 50
180.9999999994541895
 51
270.0
  0
ARC
  5
2A533
  8
0
 10
5328.7310112730338005
 20
293.6505860676485895
 30
0.0
 40
0.03
 50
180.0000000000032117
 51
270.0
  0
ARC
  5
2A534
  8
0
 10
5329.1220187732333216
 20
293.5555860676486191
 30
0.0
 40
0.03
 50
90.0
 51
180.0
  0
LINE
  5
2A535
  8
0
 10
5329.246011273034128
 20
293.5855860676485918
 30
0.0
 11
5329.246011273034128
 21
293.6205860676486168
 31
0.0
  0
ARC
  5
2A536
  8
0
 10
5328.9222796197545904
 20
292.8193074363280175
 30
0.0
 40
0.169769112987963
 50
270.3385587120293962
 51
358.9235793524533733
  0
ARC
  5
2A537
  8
0
 10
5328.4130287801353916
 20
292.2070412853803987
 30
0.0
 40
0.4425000017682184
 50
90.0000002072944056
 51
174.0025217662239925
  0
LINE
  5
2A538
  8
0
 10
5328.0333056073195621
 20
292.2105119005486245
 30
0.0
 11
5328.0452504053064331
 21
292.2311860676485935
 31
0.0
  0
ARC
  5
2A539
  8
0
 10
5328.4753989268310761
 20
292.4097981438653733
 30
0.0
 40
0.5000000081275383
 50
207.9483636986250872
 51
237.3658453122361038
  0
ARC
  5
2A53A
  8
0
 10
5328.0469643081332833
 20
292.1824904550709903
 30
0.0
 40
0.015
 50
179.9999999999446061
 51
207.9483636986610122
  0
ARC
  5
2A53B
  8
0
 10
5328.0419643081340837
 20
292.205509211248625
 30
0.0
 40
0.01
 50
149.9822067427365937
 51
179.9999999999901945
  0
ARC
  5
2A53C
  8
0
 10
5328.2408952248570131
 20
292.0441965022844215
 30
0.0
 40
0.0656548135231346
 50
237.648424163939012
 51
265.0658488231254069
  0
ARC
  5
2A53D
  8
0
 10
5327.9928413342340718
 20
292.2511860676485753
 30
0.0
 40
0.02
 50
174.0025217563363924
 51
270.0000000000521254
  0
LINE
  5
2A53E
  8
0
 10
5328.033713753138727
 20
292.1754603204838077
 30
0.0
 11
5331.1666013488293174
 21
292.1754603204838077
 31
0.0
  0
LINE
  5
2A53F
  8
0
 10
5328.0333056073195621
 20
292.2105119005486245
 30
0.0
 11
5331.1670094946457539
 21
292.2105119005486245
 31
0.0
  0
ARC
  5
2A540
  8
0
 10
5329.6123383167932843
 20
292.2009054237694272
 30
0.0
 40
0.4503331643126183
 50
91.549944918574738
 51
173.3211488817694885
  0
ARC
  5
2A541
  8
0
 10
5329.1849632304429178
 20
292.2511968540026146
 30
0.0
 40
0.0200107905019936
 50
174.0216482109817093
 51
269.963108379885
  0
LINE
  5
2A542
  8
0
 10
5331.4632858137329094
 20
294.9593643992486136
 30
0.0
 11
5331.4743038289334436
 21
295.5905860676485872
 31
0.0
  0
LINE
  5
2A543
  8
0
 10
5330.4993038289339893
 20
293.6505860676485895
 30
0.0
 11
5330.4993038289339893
 21
294.8905860676485986
 31
0.0
  0
LINE
  5
2A544
  8
0
 10
5330.1082963287335588
 20
292.816118157287292
 30
0.0
 11
5330.1082963287335588
 21
293.5555860676486191
 31
0.0
  0
LINE
  5
2A545
  8
0
 10
5330.2770323284339611
 20
292.6495412871486224
 30
0.0
 11
5330.7872863234342731
 21
292.6495412871486224
 31
0.0
  0
LINE
  5
2A546
  8
0
 10
5331.1683507938332696
 20
292.1824904550709903
 30
0.0
 11
5331.1683507938332696
 21
292.205509211248625
 31
0.0
  0
ARC
  5
2A547
  8
0
 10
5331.3932964750720203
 20
294.9605860676485918
 30
0.0
 40
0.07
 50
270.0
 51
359.0000000005458105
  0
ARC
  5
2A548
  8
0
 10
5330.4693038289342439
 20
293.6505860676485895
 30
0.0
 40
0.03
 50
270.0
 51
359.9999999999968168
  0
ARC
  5
2A549
  8
0
 10
5330.0782963287338134
 20
293.5555860676486191
 30
0.0
 40
0.03
 50
0.0
 51
90.0
  0
LINE
  5
2A54A
  8
0
 10
5329.9543038289339165
 20
293.5855860676485918
 30
0.0
 11
5329.9543038289339165
 21
293.6205860676486168
 31
0.0
  0
ARC
  5
2A54B
  8
0
 10
5330.2780354822134541
 20
292.8193074363280175
 30
0.0
 40
0.169769112987963
 50
181.0764206475465983
 51
269.6614412879704901
  0
ARC
  5
2A54C
  8
0
 10
5330.7872863218317434
 20
292.2070412853803987
 30
0.0
 40
0.4425000017682184
 50
5.9974782337759676
 51
89.9999997927055944
  0
LINE
  5
2A54D
  8
0
 10
5331.1670094946457539
 20
292.2105119005486245
 30
0.0
 11
5331.1550646966616114
 21
292.2311860676485935
 31
0.0
  0
ARC
  5
2A54E
  8
0
 10
5330.7249161751360589
 20
292.4097981438653733
 30
0.0
 40
0.5000000081275383
 50
302.6341546877638962
 51
332.0516363013747991
  0
ARC
  5
2A54F
  8
0
 10
5331.1533507938338516
 20
292.1824904550709903
 30
0.0
 40
0.015
 50
332.0516363013389878
 51
0.0000000000553671
  0
ARC
  5
2A550
  8
0
 10
5331.1583507938339608
 20
292.205509211248625
 30
0.0
 40
0.01
 50
0.0000000000097707
 51
30.0177932572634099
  0
ARC
  5
2A551
  8
0
 10
5330.9594198771101219
 20
292.0441965022844215
 30
0.0
 40
0.0656548135231346
 50
274.9341511768747068
 51
302.351575836060988
  0
ARC
  5
2A552
  8
0
 10
5331.2074737677339726
 20
292.2511860676485753
 30
0.0
 40
0.02
 50
269.9999999999478746
 51
5.9974782436635889
  0
ARC
  5
2A553
  8
0
 10
5329.5879767851747602
 20
292.2009054237694272
 30
0.0
 40
0.4503331643126183
 50
6.678851118230515
 51
88.4500550814252477
  0
ARC
  5
2A554
  8
0
 10
5330.0153518715242171
 20
292.2511968540026146
 30
0.0
 40
0.0200107905019936
 50
270.036891620115
 51
5.9783517890182711
  0
ENDSEC
  0
EOF
