  0
SECTION
  2
HEADER
  9
$ACADVER
  1
AC1009
  9
$INSBASE
 10
334.7975400815337252
 20
10.7737616390594599
 30
0.0
  9
$EXTMIN
 10
332.9067454653913956
 20
8.8991557900495124
 30
-0.0015258207003583
  9
$EXTMAX
 10
336.682595841796001
 20
12.6483121180334592
 30
0.0000000349246037
  9
$LIMMIN
 10
0.0
 20
0.0
  9
$LIMMAX
 10
11.6929133858000007
 20
8.2677165353999982
  9
$ORTHOMODE
 70
     0
  9
$REGENMODE
 70
     1
  9
$FILLMODE
 70
     1
  9
$QTEXTMODE
 70
     0
  9
$MIRRTEXT
 70
     0
  9
$DRAGMODE
 70
     2
  9
$LTSCALE
 40
0.6431102362
  9
$OSMODE
 70
  4095
  9
$ATTMODE
 70
     1
  9
$TEXTSIZE
 40
0.2
  9
$TRACEWID
 40
0.05
  9
$TEXTSTYLE
  7
STANDARD
  9
$CLAYER
  8
0
  9
$CELTYPE
  6
BYLAYER
  9
$CECOLOR
 62
   256
  9
$DIMSCALE
 40
1.0
  9
$DIMASZ
 40
0.1875
  9
$DIMEXO
 40
0.0625
  9
$DIMDLI
 40
0.4443307087
  9
$DIMRND
 40
0.0
  9
$DIMDLE
 40
0.0
  9
$DIMEXE
 40
0.125
  9
$DIMTP
 40
0.01
  9
$DIMTM
 40
0.01
  9
$DIMTXT
 40
0.15625
  9
$DIMCEN
 40
0.1052362205
  9
$DIMTSZ
 40
0.0
  9
$DIMTOL
 70
     1
  9
$DIMLIM
 70
     0
  9
$DIMTIH
 70
     1
  9
$DIMTOH
 70
     1
  9
$DIMSE1
 70
     0
  9
$DIMSE2
 70
     0
  9
$DIMTAD
 70
     0
  9
$DIMZIN
 70
     0
  9
$DIMBLK
  1

  9
$DIMASO
 70
     1
  9
$DIMSHO
 70
     1
  9
$DIMPOST
  1
\X
  9
$DIMAPOST
  1

  9
$DIMALT
 70
     1
  9
$DIMALTD
 70
     2
  9
$DIMALTF
 40
25.3999999999999986
  9
$DIMLFAC
 40
1.0
  9
$DIMTOFL
 70
     0
  9
$DIMTVP
 40
0.0
  9
$DIMTIX
 70
     0
  9
$DIMSOXD
 70
     0
  9
$DIMSAH
 70
     0
  9
$DIMBLK1
  1

  9
$DIMBLK2
  1

  9
$DIMSTYLE
  2
STANDARD
  9
$DIMCLRD
 70
     0
  9
$DIMCLRE
 70
     0
  9
$DIMCLRT
 70
     0
  9
$DIMTFAC
 40
1.0
  9
$DIMGAP
 40
0.09
  9
$LUNITS
 70
     2
  9
$LUPREC
 70
     4
  9
$SKETCHINC
 40
0.1
  9
$FILLETRAD
 40
0.0
  9
$AUNITS
 70
     0
  9
$AUPREC
 70
     0
  9
$MENU
  1
.
  9
$ELEVATION
 40
0.0
  9
$PELEVATION
 40
0.0
  9
$THICKNESS
 40
0.0
  9
$LIMCHECK
 70
     0
  9
$BLIPMODE
 70
     0
  9
$CHAMFERA
 40
0.0
  9
$CHAMFERB
 40
0.0
  9
$SKPOLY
 70
     0
  9
$TDCREATE
 40
2458018.639108797069639
  9
$TDUPDATE
 40
2460195.6852546301670372
  9
$TDINDWG
 40
0.3878351852
  9
$TDUSRTIMER
 40
0.3878351852
  9
$USRTIMER
 70
     1
  9
$ANGBASE
 50
0.0
  9
$ANGDIR
 70
     0
  9
$PDMODE
 70
     0
  9
$PDSIZE
 40
0.3125
  9
$PLINEWID
 40
0.0
  9
$COORDS
 70
     1
  9
$SPLFRAME
 70
     0
  9
$SPLINETYPE
 70
     6
  9
$SPLINESEGS
 70
     8
  9
$ATTDIA
 70
     1
  9
$ATTREQ
 70
     1
  9
$HANDLING
 70
     1
  9
$HANDSEED
  5
CC70
  9
$SURFTAB1
 70
     6
  9
$SURFTAB2
 70
     6
  9
$SURFTYPE
 70
     6
  9
$SURFU
 70
     6
  9
$SURFV
 70
     6
  9
$UCSNAME
  2

  9
$UCSORG
 10
0.0
 20
0.0
 30
0.0
  9
$UCSXDIR
 10
1.0
 20
0.0
 30
0.0
  9
$UCSYDIR
 10
0.0
 20
1.0
 30
0.0
  9
$PUCSNAME
  2

  9
$PUCSORG
 10
0.0
 20
0.0
 30
0.0
  9
$PUCSXDIR
 10
1.0
 20
0.0
 30
0.0
  9
$PUCSYDIR
 10
0.0
 20
1.0
 30
0.0
  9
$USERI1
 70
     0
  9
$USERI2
 70
     0
  9
$USERI3
 70
     0
  9
$USERI4
 70
     0
  9
$USERI5
 70
     0
  9
$USERR1
 40
0.0
  9
$USERR2
 40
0.0
  9
$USERR3
 40
0.0
  9
$USERR4
 40
0.0
  9
$USERR5
 40
0.0
  9
$WORLDVIEW
 70
     1
  9
$SHADEDGE
 70
     3
  9
$SHADEDIF
 70
    70
  9
$TILEMODE
 70
     1
  9
$MAXACTVP
 70
    64
  9
$PLIMCHECK
 70
     0
  9
$PEXTMIN
 10
1.0000000000000000E+20
 20
1.0000000000000000E+20
 30
1.0000000000000000E+20
  9
$PEXTMAX
 10
-1.0000000000000000E+20
 20
-1.0000000000000000E+20
 30
-1.0000000000000000E+20
  9
$PLIMMIN
 10
0.0
 20
0.0
  9
$PLIMMAX
 10
12.0
 20
9.0
  9
$UNITMODE
 70
     0
  9
$VISRETAIN
 70
     1
  9
$PLINEGEN
 70
     0
  9
$PSLTSCALE
 70
     1
  0
ENDSEC
  0
SECTION
  2
TABLES
  0
TABLE
  2
VPORT
 70
     1
  0
VPORT
  2
*ACTIVE
 70
     0
 10
0.0
 20
0.0
 11
1.0
 21
1.0
 12
239.4704096558558888
 22
3.73740194281865
 13
0.0
 23
0.0
 14
1.0
 24
1.0
 15
0.0
 25
0.0
 16
-0.0000000000000142
 26
0.0
 36
39.3282560748450578
 17
95.3242609977377526
 27
7.0363320112228394
 37
0.0
 40
3.7828313848221331
 41
2.841079460269865
 42
50.0
 43
0.0
 44
0.0
 50
0.0
 51
0.0
 71
     0
 72
   100
 73
     1
 74
     1
 75
     0
 76
     0
 77
     0
 78
     0
  0
ENDTAB
  0
TABLE
  2
LTYPE
 70
     2
  0
LTYPE
  2
CONTINUOUS
 70
     0
  3
Solid line
 72
    65
 73
     0
 40
0.0
  0
LTYPE
  2
PHANTOM2
 70
     0
  3
___ _ _ ___ _ _ ___ _ _ ___ _ _
 72
    65
 73
     6
 40
1.25
 49
0.625
 49
-0.125
 49
0.125
 49
-0.125
 49
0.125
 49
-0.125
  0
ENDTAB
  0
TABLE
  2
LAYER
 70
     2
  0
LAYER
  2
0
 70
     0
 62
   255
  6
CONTINUOUS
  0
LAYER
  2
DEFPOINTS
 70
     0
 62
     7
  6
CONTINUOUS
  0
ENDTAB
  0
TABLE
  2
STYLE
 70
     1
  0
STYLE
  2
STANDARD
 70
     0
 40
0.0
 41
0.8
 50
0.0
 71
     0
 42
0.2
  3
txt
  4

  0
ENDTAB
  0
TABLE
  2
VIEW
 70
     0
  0
ENDTAB
  0
TABLE
  2
UCS
 70
     0
  0
ENDTAB
  0
TABLE
  2
APPID
 70
    10
  0
APPID
  2
ACAD
 70
     0
  0
APPID
  2
ACAD_MLEADERVER
 70
     0
  0
APPID
  2
ACAD_DSTYLE_DIMJAG
 70
     0
  0
APPID
  2
ACAD_DSTYLE_DIMTALN
 70
     0
  0
APPID
  2
ACAD_NAV_VCDISPLAY
 70
     0
  0
APPID
  2
ACAD_EXEMPT_FROM_CAD_STANDARDS
 70
     0
  0
APPID
  2
ACAECLAYERSTANDARD
 70
     0
  0
APPID
  2
ACCMTRANSPARENCY
 70
     0
  0
APPID
  2
DCO15
 70
     0
  0
APPID
  2
ACDBATTR
 70
     0
  0
ENDTAB
  0
TABLE
  2
DIMSTYLE
 70
     1
  0
DIMSTYLE
  2
STANDARD
 70
     0
  3

  4

  5

  6

  7

 40
1.0
 41
0.1875
 42
0.0625
 43
0.38
 44
0.125
 45
0.0
 46
0.0
 47
0.01
 48
0.01
140
0.15625
141
0.09
142
0.0
143
25.3999999999999986
144
1.0
145
0.0
146
1.0
147
0.09
 71
     1
 72
     0
 73
     1
 74
     1
 75
     0
 76
     0
 77
     0
 78
     4
170
     0
171
     2
172
     0
173
     0
174
     0
175
     0
176
     0
177
     0
178
     0
  0
ENDTAB
  0
ENDSEC
  0
SECTION
  2
BLOCKS
  0
BLOCK
  8
0
  2
$MODEL_SPACE
 70
     0
 10
0.0
 20
0.0
 30
0.0
  3
$MODEL_SPACE
  1

  0
ENDBLK
  5
21
  8
0
  0
BLOCK
 67
     1
  8
0
  2
$PAPER_SPACE
 70
     0
 10
0.0
 20
0.0
 30
0.0
  3
$PAPER_SPACE
  1

  0
ENDBLK
  5
1D
 67
     1
  8
0
  0
BLOCK
  8
0
  2
_FILLED
 70
     0
 10
0.0
 20
0.0
 30
0.0
  3
_FILLED
  1

  0
SOLID
  5
A58D
  8
0
  6
BYBLOCK
 62
     0
 10
0.0
 20
0.0
 30
0.0
 11
-1.0
 21
0.1666666667
 31
0.0
 12
-1.0
 22
-0.1666666667
 32
0.0
 13
-1.0
 23
-0.1666666667
 33
0.0
  0
ENDBLK
  5
A58E
  8
0
  6
BYBLOCK
 62
     0
  0
ENDSEC
  0
SECTION
  2
ENTITIES
  0
ATTDEF
  5
7A6E
  8
DEFPOINTS
 10
334.797762850000197
 20
10.7718455989064097
 30
0.0
 40
0.001
  1
P32710-RST
  3

  2
MODELNUMBER
 70
     0
1001
ACDBATTR
1070
     0
1070
     1
  0
ATTDEF
  5
7A6F
  8
DEFPOINTS
 10
334.797762850000197
 20
10.7701789322397499
 30
0.0
 40
0.001
  1
002
  3

  2
TRADENAME
 70
     0
1001
ACDBATTR
1070
     0
1070
     1
  0
ATTDEF
  5
7A70
  8
DEFPOINTS
 10
334.797762850000197
 20
10.7685122655730794
 30
0.0
 40
0.001
  1
VLAVE TRIM
  3

  2
PRODUCT
 70
     0
1001
ACDBATTR
1070
     0
1070
     1
  0
LINE
  5
C61D
  8
0
 10
334.0439829146271791
 20
11.2093066394484602
 30
0.0
 11
333.6049551847542034
 21
11.2093066394484602
 31
0.0
  0
LINE
  5
C61E
  8
0
 10
334.0255006411051113
 20
11.1542965200594608
 30
0.0
 11
333.6049551847542034
 21
11.1542965200594608
 31
0.0
  0
LINE
  5
C61F
  8
0
 10
334.3614829146271745
 20
11.9667570796308205
 30
0.0
 11
334.3614829146271745
 21
11.5268066394484592
 31
0.0
  0
LINE
  5
C620
  8
0
 10
334.0439829146271791
 20
10.3382166386704597
 30
0.0
 11
333.6049551847542034
 21
10.3382166386704597
 31
0.0
  0
LINE
  5
C621
  8
0
 10
334.0255006411051113
 20
10.3932267580594502
 30
0.0
 11
333.6049551847542034
 21
10.3932267580594502
 31
0.0
  0
ARC
  5
C622
  8
0
 10
334.7975400815337252
 20
11.9667570796308205
 30
0.0
 40
0.4360571669065383
 50
0.0
 51
180.0
  0
ARC
  5
C623
  8
0
 10
334.7975400815337252
 20
11.9667570796308205
 30
0.0
 40
0.3755394404286347
 50
0.0
 51
180.0
  0
LINE
  5
C624
  8
0
 10
334.4220006411051145
 20
11.9667570796308205
 30
0.0
 11
334.4220006411051145
 21
11.5507965200594604
 31
0.0
  0
ARC
  5
C625
  8
0
 10
333.6049551847542034
 20
10.7737616390594599
 30
0.0
 40
0.4355450003890003
 50
90.0
 51
270.0
  0
ARC
  5
C626
  8
0
 10
333.6049551847542034
 20
10.7737616390594599
 30
0.0
 40
0.3805348810000004
 50
90.0
 51
270.0
  0
ARC
  5
C627
  8
0
 10
334.0255006411051113
 20
11.5507965200594604
 30
0.0
 40
0.3965
 50
270.0
 51
359.9999999999996021
  0
ARC
  5
C628
  8
0
 10
334.0439829146271791
 20
11.5268066394484592
 30
0.0
 40
0.3175
 50
270.0
 51
359.9999999999997726
  0
LINE
  5
C629
  8
0
 10
334.3614829146271745
 20
9.5807661984880941
 30
0.0
 11
334.3614829146271745
 21
10.02071663867045
 31
0.0
  0
ARC
  5
C62A
  8
0
 10
334.7975400815337252
 20
9.5807661984880941
 30
0.0
 40
0.4360571669065383
 50
180.0
 51
0.0
  0
ARC
  5
C62B
  8
0
 10
334.7975400815337252
 20
9.5807661984880941
 30
0.0
 40
0.3755394404286347
 50
180.0
 51
0.0
  0
LINE
  5
C62C
  8
0
 10
334.4220006411051145
 20
9.5807661984880941
 30
0.0
 11
334.4220006411051145
 21
9.9967267580594577
 31
0.0
  0
ARC
  5
C62D
  8
0
 10
334.0255006411051113
 20
9.9967267580594541
 30
0.0
 40
0.3965
 50
0.0000000000004071
 51
90.0
  0
ARC
  5
C62E
  8
0
 10
334.0439829146271791
 20
10.02071663867045
 30
0.0
 40
0.3175
 50
0.0000000000002036
 51
90.0
  0
LINE
  5
C62F
  8
0
 10
335.5510972484403283
 20
11.2093066394484602
 30
0.0
 11
335.9901249783133039
 21
11.2093066394484602
 31
0.0
  0
LINE
  5
C630
  8
0
 10
335.569579521962396
 20
11.1542965200594608
 30
0.0
 11
335.9901249783133039
 21
11.1542965200594608
 31
0.0
  0
LINE
  5
C631
  8
0
 10
335.233597248440276
 20
11.9667570796308205
 30
0.0
 11
335.233597248440276
 21
11.5268066394484592
 31
0.0
  0
LINE
  5
C632
  8
0
 10
335.5510972484403283
 20
10.3382166386704597
 30
0.0
 11
335.9901249783133039
 21
10.3382166386704597
 31
0.0
  0
LINE
  5
C633
  8
0
 10
335.569579521962396
 20
10.3932267580594502
 30
0.0
 11
335.9901249783133039
 21
10.3932267580594502
 31
0.0
  0
LINE
  5
C634
  8
0
 10
335.1730795219623928
 20
11.9667570796308205
 30
0.0
 11
335.1730795219623928
 21
11.5507965200594604
 31
0.0
  0
ARC
  5
C635
  8
0
 10
335.9901249783133039
 20
10.7737616390594599
 30
0.0
 40
0.4355450003890003
 50
270.0
 51
90.0
  0
ARC
  5
C636
  8
0
 10
335.9901249783133039
 20
10.7737616390594599
 30
0.0
 40
0.3805348810000004
 50
270.0
 51
90.0
  0
ARC
  5
C637
  8
0
 10
335.569579521962396
 20
11.5507965200594604
 30
0.0
 40
0.3965
 50
180.0000000000003979
 51
270.0
  0
ARC
  5
C638
  8
0
 10
335.5510972484403283
 20
11.5268066394484592
 30
0.0
 40
0.3175
 50
180.0
 51
270.0
  0
LINE
  5
C639
  8
0
 10
335.233597248440276
 20
9.5807661984880941
 30
0.0
 11
335.233597248440276
 21
10.02071663867045
 31
0.0
  0
LINE
  5
C63A
  8
0
 10
335.1730795219623928
 20
9.5807661984880941
 30
0.0
 11
335.1730795219623928
 21
9.9967267580594577
 31
0.0
  0
ARC
  5
C63B
  8
0
 10
335.569579521962396
 20
9.9967267580594541
 30
0.0
 40
0.3965
 50
90.0
 51
179.9999999999996021
  0
ARC
  5
C63C
  8
0
 10
335.5510972484403283
 20
10.02071663867045
 30
0.0
 40
0.3175
 50
90.0
 51
179.999999999999801
  0
LINE
  5
C63D
  8
0
 10
334.5902914776837065
 20
11.9612619506420508
 30
0.0
 11
334.5902914776837065
 21
11.5474981495594609
 31
0.0
  0
LINE
  5
C63E
  8
0
 10
334.5902914776837065
 20
10.0000251285594501
 30
0.0
 11
334.5902914776837065
 21
9.5862613274768691
 31
0.0
  0
LINE
  5
C63F
  8
0
 10
333.6090284038755271
 20
10.9804981495594607
 30
0.0
 11
334.0232914776838129
 21
10.9804981495594607
 31
0.0
  0
ARC
  5
C640
  8
0
 10
333.6090284038755271
 20
10.7737616390594599
 30
0.0
 40
0.2067365105000003
 50
90.0
 51
270.0
  0
LINE
  5
C641
  8
0
 10
333.6090284038755271
 20
10.5670251285594503
 30
0.0
 11
334.0232914776838129
 21
10.5670251285594503
 31
0.0
  0
ARC
  5
C642
  8
0
 10
334.7975400815337252
 20
11.9612619506420508
 30
0.0
 40
0.2072486038500001
 50
0.0
 51
180.0
  0
ARC
  5
C643
  8
0
 10
334.7975400815337252
 20
9.5862613274768691
 30
0.0
 40
0.2072486038500001
 50
180.0
 51
0.0
  0
ARC
  5
C644
  8
0
 10
334.0232914776838129
 20
11.5474981495594609
 30
0.0
 40
0.5669999999999999
 50
270.0
 51
0.0
  0
ARC
  5
C645
  8
0
 10
334.0232914776838129
 20
10.0000251285594501
 30
0.0
 40
0.5669999999999999
 50
0.0
 51
90.0
  0
LINE
  5
C646
  8
0
 10
335.0047886853836872
 20
11.9612619506420508
 30
0.0
 11
335.0047886853836872
 21
11.5474981495594609
 31
0.0
  0
LINE
  5
C647
  8
0
 10
335.0047886853836872
 20
10.0000251285594501
 30
0.0
 11
335.0047886853836872
 21
9.5862613274768691
 31
0.0
  0
LINE
  5
C648
  8
0
 10
335.9860517591919802
 20
10.9804981495594607
 30
0.0
 11
335.5717886853838081
 21
10.9804981495594607
 31
0.0
  0
ARC
  5
C649
  8
0
 10
335.9860517591919802
 20
10.7737616390594599
 30
0.0
 40
0.2067365105000003
 50
270.0
 51
90.0
  0
LINE
  5
C64A
  8
0
 10
335.9860517591919802
 20
10.5670251285594503
 30
0.0
 11
335.5717886853838081
 21
10.5670251285594503
 31
0.0
  0
ARC
  5
C64B
  8
0
 10
335.5717886853838081
 20
11.5474981495594609
 30
0.0
 40
0.5669999999999999
 50
180.0
 51
270.0
  0
ARC
  5
C64C
  8
0
 10
335.5717886853838081
 20
10.0000251285594501
 30
0.0
 40
0.5669999999999999
 50
90.0
 51
180.0
  0
ARC
  5
C64D
  8
0
 10
334.7975400815337252
 20
10.7737616390594599
 30
0.0
 40
0.89963993746153
 50
118.9929420928649932
 51
151.0443432303233067
  0
ARC
  5
C64E
  8
0
 10
334.7975400815337252
 20
10.7737616390594599
 30
0.0
 40
0.89963993746153
 50
208.9556567696766081
 51
241.0070579071349925
  0
ARC
  5
C64F
  8
0
 10
334.7975400815337252
 20
10.7737616390594599
 30
0.0
 40
0.89963993746153
 50
298.9929420928650075
 51
331.0443432303233067
  0
ARC
  5
C650
  8
0
 10
334.7975400815337252
 20
10.7737616390594599
 30
0.0
 40
0.89963993746153
 50
28.9556567696765583
 51
61.007057907135021
  0
CIRCLE
  5
C651
  8
0
 10
334.7975400815337252
 20
10.7737616390594599
 30
0.0
 40
1.8741462779499991
  0
ENDSEC
  0
EOF
