  0
SECTION
  2
HEADER
  9
$ACADVER
  1
AC1009
  9
$INSBASE
 10
366.0658364289341193
 20
10.7577072677117105
 30
0.0
  9
$EXTMIN
 10
360.4344738460421809
 20
10.7520516553433492
 30
-0.0000000349181948
  9
$EXTMAX
 10
371.7214470589270263
 20
19.5236738212155601
 30
0.0000000814935746
  9
$LIMMIN
 10
0.0
 20
0.0
  9
$LIMMAX
 10
11.6929133858000007
 20
8.2677165353999982
  9
$ORTHOMODE
 70
     0
  9
$REGENMODE
 70
     1
  9
$FILLMODE
 70
     1
  9
$QTEXTMODE
 70
     0
  9
$MIRRTEXT
 70
     0
  9
$DRAGMODE
 70
     2
  9
$LTSCALE
 40
0.6431102362
  9
$OSMODE
 70
  4095
  9
$ATTMODE
 70
     1
  9
$TEXTSIZE
 40
0.2
  9
$TRACEWID
 40
0.05
  9
$TEXTSTYLE
  7
STANDARD
  9
$CLAYER
  8
0
  9
$CELTYPE
  6
BYLAYER
  9
$CECOLOR
 62
   256
  9
$DIMSCALE
 40
1.0
  9
$DIMASZ
 40
0.1875
  9
$DIMEXO
 40
0.0625
  9
$DIMDLI
 40
0.4443307087
  9
$DIMRND
 40
0.0
  9
$DIMDLE
 40
0.0
  9
$DIMEXE
 40
0.125
  9
$DIMTP
 40
0.01
  9
$DIMTM
 40
0.01
  9
$DIMTXT
 40
0.15625
  9
$DIMCEN
 40
0.1052362205
  9
$DIMTSZ
 40
0.0
  9
$DIMTOL
 70
     1
  9
$DIMLIM
 70
     0
  9
$DIMTIH
 70
     1
  9
$DIMTOH
 70
     1
  9
$DIMSE1
 70
     0
  9
$DIMSE2
 70
     0
  9
$DIMTAD
 70
     0
  9
$DIMZIN
 70
     0
  9
$DIMBLK
  1

  9
$DIMASO
 70
     1
  9
$DIMSHO
 70
     1
  9
$DIMPOST
  1
\X
  9
$DIMAPOST
  1

  9
$DIMALT
 70
     1
  9
$DIMALTD
 70
     2
  9
$DIMALTF
 40
25.3999999999999986
  9
$DIMLFAC
 40
1.0
  9
$DIMTOFL
 70
     0
  9
$DIMTVP
 40
0.0
  9
$DIMTIX
 70
     0
  9
$DIMSOXD
 70
     0
  9
$DIMSAH
 70
     0
  9
$DIMBLK1
  1

  9
$DIMBLK2
  1

  9
$DIMSTYLE
  2
STANDARD
  9
$DIMCLRD
 70
     0
  9
$DIMCLRE
 70
     0
  9
$DIMCLRT
 70
     0
  9
$DIMTFAC
 40
1.0
  9
$DIMGAP
 40
0.09
  9
$LUNITS
 70
     2
  9
$LUPREC
 70
     4
  9
$SKETCHINC
 40
0.1
  9
$FILLETRAD
 40
0.0
  9
$AUNITS
 70
     0
  9
$AUPREC
 70
     0
  9
$MENU
  1
.
  9
$ELEVATION
 40
0.0
  9
$PELEVATION
 40
0.0
  9
$THICKNESS
 40
0.0
  9
$LIMCHECK
 70
     0
  9
$BLIPMODE
 70
     0
  9
$CHAMFERA
 40
0.0
  9
$CHAMFERB
 40
0.0
  9
$SKPOLY
 70
     0
  9
$TDCREATE
 40
2458018.639108797069639
  9
$TDUPDATE
 40
2460201.670648149214685
  9
$TDINDWG
 40
0.3992935185
  9
$TDUSRTIMER
 40
0.3992935185
  9
$USRTIMER
 70
     1
  9
$ANGBASE
 50
0.0
  9
$ANGDIR
 70
     0
  9
$PDMODE
 70
     0
  9
$PDSIZE
 40
0.3125
  9
$PLINEWID
 40
0.0
  9
$COORDS
 70
     1
  9
$SPLFRAME
 70
     0
  9
$SPLINETYPE
 70
     6
  9
$SPLINESEGS
 70
     8
  9
$ATTDIA
 70
     1
  9
$ATTREQ
 70
     1
  9
$HANDLING
 70
     1
  9
$HANDSEED
  5
D7AE
  9
$SURFTAB1
 70
     6
  9
$SURFTAB2
 70
     6
  9
$SURFTYPE
 70
     6
  9
$SURFU
 70
     6
  9
$SURFV
 70
     6
  9
$UCSNAME
  2

  9
$UCSORG
 10
0.0
 20
0.0
 30
0.0
  9
$UCSXDIR
 10
1.0
 20
0.0
 30
0.0
  9
$UCSYDIR
 10
0.0
 20
1.0
 30
0.0
  9
$PUCSNAME
  2

  9
$PUCSORG
 10
0.0
 20
0.0
 30
0.0
  9
$PUCSXDIR
 10
1.0
 20
0.0
 30
0.0
  9
$PUCSYDIR
 10
0.0
 20
1.0
 30
0.0
  9
$USERI1
 70
     0
  9
$USERI2
 70
     0
  9
$USERI3
 70
     0
  9
$USERI4
 70
     0
  9
$USERI5
 70
     0
  9
$USERR1
 40
0.0
  9
$USERR2
 40
0.0
  9
$USERR3
 40
0.0
  9
$USERR4
 40
0.0
  9
$USERR5
 40
0.0
  9
$WORLDVIEW
 70
     1
  9
$SHADEDGE
 70
     3
  9
$SHADEDIF
 70
    70
  9
$TILEMODE
 70
     1
  9
$MAXACTVP
 70
    64
  9
$PLIMCHECK
 70
     0
  9
$PEXTMIN
 10
1.0000000000000000E+20
 20
1.0000000000000000E+20
 30
1.0000000000000000E+20
  9
$PEXTMAX
 10
-1.0000000000000000E+20
 20
-1.0000000000000000E+20
 30
-1.0000000000000000E+20
  9
$PLIMMIN
 10
0.0
 20
0.0
  9
$PLIMMAX
 10
12.0
 20
9.0
  9
$UNITMODE
 70
     0
  9
$VISRETAIN
 70
     1
  9
$PLINEGEN
 70
     0
  9
$PSLTSCALE
 70
     1
  0
ENDSEC
  0
SECTION
  2
TABLES
  0
TABLE
  2
VPORT
 70
     1
  0
VPORT
  2
*ACTIVE
 70
     0
 10
0.0
 20
0.0
 11
1.0
 21
1.0
 12
270.7536994547468794
 22
8.1015307270566197
 13
0.0
 23
0.0
 14
1.0
 24
1.0
 15
0.0
 25
0.0
 16
-0.0000000000000142
 26
0.0
 36
39.3282560748450578
 17
95.3242609977377526
 27
7.0363320112228394
 37
0.0
 40
8.8504091913141671
 41
2.841079460269865
 42
50.0
 43
0.0
 44
0.0
 50
0.0
 51
0.0
 71
     0
 72
   100
 73
     1
 74
     1
 75
     0
 76
     0
 77
     0
 78
     0
  0
ENDTAB
  0
TABLE
  2
LTYPE
 70
     2
  0
LTYPE
  2
CONTINUOUS
 70
     0
  3
Solid line
 72
    65
 73
     0
 40
0.0
  0
LTYPE
  2
PHANTOM2
 70
     0
  3
___ _ _ ___ _ _ ___ _ _ ___ _ _
 72
    65
 73
     6
 40
1.25
 49
0.625
 49
-0.125
 49
0.125
 49
-0.125
 49
0.125
 49
-0.125
  0
ENDTAB
  0
TABLE
  2
LAYER
 70
     2
  0
LAYER
  2
0
 70
     0
 62
   255
  6
CONTINUOUS
  0
LAYER
  2
DEFPOINTS
 70
     0
 62
     7
  6
CONTINUOUS
  0
ENDTAB
  0
TABLE
  2
STYLE
 70
     1
  0
STYLE
  2
STANDARD
 70
     0
 40
0.0
 41
0.8
 50
0.0
 71
     0
 42
0.2
  3
txt
  4

  0
ENDTAB
  0
TABLE
  2
VIEW
 70
     0
  0
ENDTAB
  0
TABLE
  2
UCS
 70
     0
  0
ENDTAB
  0
TABLE
  2
APPID
 70
    10
  0
APPID
  2
ACAD
 70
     0
  0
APPID
  2
ACAD_MLEADERVER
 70
     0
  0
APPID
  2
ACAD_DSTYLE_DIMJAG
 70
     0
  0
APPID
  2
ACAD_DSTYLE_DIMTALN
 70
     0
  0
APPID
  2
ACAD_NAV_VCDISPLAY
 70
     0
  0
APPID
  2
ACAD_EXEMPT_FROM_CAD_STANDARDS
 70
     0
  0
APPID
  2
ACAECLAYERSTANDARD
 70
     0
  0
APPID
  2
ACCMTRANSPARENCY
 70
     0
  0
APPID
  2
DCO15
 70
     0
  0
APPID
  2
ACDBATTR
 70
     0
  0
ENDTAB
  0
TABLE
  2
DIMSTYLE
 70
     1
  0
DIMSTYLE
  2
STANDARD
 70
     0
  3

  4

  5

  6

  7

 40
1.0
 41
0.1875
 42
0.0625
 43
0.38
 44
0.125
 45
0.0
 46
0.0
 47
0.01
 48
0.01
140
0.15625
141
0.09
142
0.0
143
25.3999999999999986
144
1.0
145
0.0
146
1.0
147
0.09
 71
     1
 72
     0
 73
     1
 74
     1
 75
     0
 76
     0
 77
     0
 78
     4
170
     0
171
     2
172
     0
173
     0
174
     0
175
     0
176
     0
177
     0
178
     0
  0
ENDTAB
  0
ENDSEC
  0
SECTION
  2
BLOCKS
  0
BLOCK
  8
0
  2
$MODEL_SPACE
 70
     0
 10
0.0
 20
0.0
 30
0.0
  3
$MODEL_SPACE
  1

  0
ENDBLK
  5
21
  8
0
  0
BLOCK
 67
     1
  8
0
  2
$PAPER_SPACE
 70
     0
 10
0.0
 20
0.0
 30
0.0
  3
$PAPER_SPACE
  1

  0
ENDBLK
  5
1D
 67
     1
  8
0
  0
BLOCK
  8
0
  2
_FILLED
 70
     0
 10
0.0
 20
0.0
 30
0.0
  3
_FILLED
  1

  0
SOLID
  5
A58D
  8
0
  6
BYBLOCK
 62
     0
 10
0.0
 20
0.0
 30
0.0
 11
-1.0
 21
0.1666666667
 31
0.0
 12
-1.0
 22
-0.1666666667
 32
0.0
 13
-1.0
 23
-0.1666666667
 33
0.0
  0
ENDBLK
  5
A58E
  8
0
  6
BYBLOCK
 62
     0
  0
ENDSEC
  0
SECTION
  2
ENTITIES
  0
ATTDEF
  5
7A6E
  8
DEFPOINTS
 10
366.0657763572640988
 20
10.7560456457811995
 30
0.0
 40
0.001
  1
P32711-RST
  3

  2
MODELNUMBER
 70
     0
1001
ACDBATTR
1070
     0
1070
     1
  0
ATTDEF
  5
7A6F
  8
DEFPOINTS
 10
366.0657763572640988
 20
10.7543789791145308
 30
0.0
 40
0.001
  1
002
  3

  2
TRADENAME
 70
     0
1001
ACDBATTR
1070
     0
1070
     1
  0
ATTDEF
  5
7A70
  8
DEFPOINTS
 10
366.0657763572640988
 20
10.7527123124478692
 30
0.0
 40
0.001
  1
BATH FAUCET
  3

  2
PRODUCT
 70
     0
1001
ACDBATTR
1070
     0
1070
     1
  0
LINE
  5
D182
  8
0
 10
367.3056710825341042
 20
10.7577072677117105
 30
0.0
 11
364.8260017753340776
 21
10.7577072677117105
 31
0.0
  0
LINE
  5
D183
  8
0
 10
367.2781710825340724
 20
10.9833072677117105
 30
0.0
 11
364.8535017753341094
 21
10.9833072677117105
 31
0.0
  0
ARC
  5
D184
  8
0
 10
365.3578442950341127
 20
10.9953072677117092
 30
0.0
 40
0.012
 50
180.0
 51
270.0
  0
LINE
  5
D185
  8
0
 10
360.8240096521840883
 20
10.7577072677117105
 30
0.0
 11
363.3076789379841216
 21
10.7577072677117105
 31
0.0
  0
LINE
  5
D186
  8
0
 10
360.806009652184116
 20
10.9358072677117093
 30
0.0
 11
360.806009652184116
 21
10.7757072677117094
 31
0.0
  0
LINE
  5
D187
  8
0
 10
360.8535096521840728
 20
10.9833072677117105
 30
0.0
 11
363.2781789379840802
 21
10.9833072677117105
 31
0.0
  0
ARC
  5
D188
  8
0
 10
360.8535096521840728
 20
10.9358072677117093
 30
0.0
 40
0.0475
 50
90.0000000000032543
 51
179.9999999999959925
  0
ARC
  5
D189
  8
0
 10
360.8240096521840883
 20
10.7757072677117094
 30
0.0
 40
0.018
 50
179.9999999999988916
 51
270.0000000000227942
  0
LINE
  5
D18A
  8
0
 10
360.8778521718725756
 20
13.7849205521117106
 30
0.0
 11
361.3987970537841079
 21
13.7849205521117106
 31
0.0
  0
LINE
  5
D18B
  8
0
 10
361.5567970537841234
 20
10.9953072677117092
 30
0.0
 11
361.5567970537841234
 21
13.2165828582117104
 31
0.0
  0
LINE
  5
D18C
  8
0
 10
361.5567970537841234
 20
13.2582757716117108
 30
0.0
 11
361.5567970537841234
 21
13.6269205521117094
 31
0.0
  0
ARC
  5
D18D
  8
0
 10
361.5447970537841229
 20
10.9953072677117092
 30
0.0
 40
0.012
 50
269.9999999999837996
 51
359.9999999999952252
  0
LINE
  5
D18E
  8
0
 10
361.5687970537841238
 20
13.2285828582117109
 30
0.0
 11
362.5628915363840861
 21
13.2285828582117109
 31
0.0
  0
LINE
  5
D18F
  8
0
 10
361.5667970537841143
 20
13.2482757716117092
 30
0.0
 11
362.5648915363840956
 21
13.2482757716117092
 31
0.0
  0
LINE
  5
D190
  8
0
 10
361.611127762384001
 20
13.2482757716117092
 30
0.0
 11
361.611127762384001
 21
13.2285828582117109
 31
0.0
  0
ARC
  5
D191
  8
0
 10
361.5667970537840006
 20
13.2582757716117108
 30
0.0
 40
0.01
 50
179.999999999982208
 51
270.000000000019611
  0
ARC
  5
D192
  8
0
 10
361.5687970537841238
 20
13.2165828582117104
 30
0.0
 40
0.012
 50
90.0
 51
179.9999999999915019
  0
ARC
  5
D193
  8
0
 10
361.3987970537841079
 20
13.6269205521117094
 30
0.0
 40
0.158
 50
0.0000000000011196
 51
90.0
  0
LINE
  5
D194
  8
0
 10
360.4576647275869732
 20
14.2032757716117093
 30
0.0
 11
363.674023862581123
 21
14.2032757716117093
 31
0.0
  0
ARC
  5
D195
  8
0
 10
360.8778521718725756
 20
14.2274205520877501
 30
0.0
 40
0.4424999999744798
 50
185.9974780312234941
 51
270.0
  0
ARC
  5
D196
  8
0
 10
360.4576647275869732
 20
14.1832757716117506
 30
0.0
 40
0.02
 50
89.9999999999576659
 51
185.9974780248763864
  0
LINE
  5
D197
  8
0
 10
360.7043959789011751
 20
14.4556768473117092
 30
0.0
 11
363.4272926112669779
 21
14.4556768473117092
 31
0.0
  0
ARC
  5
D198
  8
0
 10
360.9416007826399095
 20
14.0234460656211102
 30
0.0
 40
0.5017009786526002
 50
122.6474610035529054
 51
152.0160822386542065
  0
ARC
  5
D199
  8
0
 10
360.7043959789011751
 20
14.3936768473110597
 30
0.0
 40
0.062
 50
90.0000000000879368
 51
122.647461003302098
  0
LINE
  5
D19A
  8
0
 10
360.4968052069841065
 20
14.2518177052091399
 30
0.0
 11
360.4968052069841065
 21
14.2289526278609806
 31
0.0
  0
ARC
  5
D19B
  8
0
 10
360.5118052069835812
 20
14.2518177052092003
 30
0.0
 40
0.015
 50
152.0160822380312879
 51
180.0000000002154081
  0
LINE
  5
D19C
  8
0
 10
360.5100913041840727
 20
14.2032757716117093
 30
0.0
 11
360.4981465061392782
 21
14.2239499386160606
 31
0.0
  0
ARC
  5
D19D
  8
0
 10
360.5068052069840974
 20
14.2289526278609806
 30
0.0
 40
0.01
 50
180.0
 51
210.0177934966419002
  0
ARC
  5
D19E
  8
0
 10
362.0658442950841049
 20
14.2274205521117096
 30
0.0
 40
0.4425000000000004
 50
185.9974780276781985
 51
354.0025219723216878
  0
ARC
  5
D19F
  8
0
 10
362.4860317393927858
 20
14.1832757716117097
 30
0.0
 40
0.02
 50
354.002521972320892
 51
90.0
  0
ARC
  5
D1A0
  8
0
 10
361.6456568507754241
 20
14.1832757716117097
 30
0.0
 40
0.02
 50
90.0
 51
185.9974780276776869
  0
ARC
  5
D1A1
  8
0
 10
362.1282313762720833
 20
14.0246760669085102
 30
0.0
 40
0.4999865109279754
 50
122.5956588824615068
 51
152.071288221130601
  0
LINE
  5
D1A2
  8
0
 10
361.6848052069840946
 20
14.2289526278610108
 30
0.0
 11
361.6848052069840946
 21
14.2519727740002402
 31
0.0
  0
LINE
  5
D1A3
  8
0
 10
361.6980913041841177
 20
14.2032757716117093
 30
0.0
 11
361.6861465061393233
 21
14.2239499386160908
 31
0.0
  0
ARC
  5
D1A4
  8
0
 10
361.6948052069841992
 20
14.2289526278610108
 30
0.0
 40
0.01
 50
180.000000000043201
 51
210.0177934965591078
  0
ARC
  5
D1A5
  8
0
 10
361.6998052069824894
 20
14.2519727740004498
 30
0.0
 40
0.0149999999982464
 50
152.6847669528345079
 51
180.0000000007989058
  0
ARC
  5
D1A6
  8
0
 10
361.8922851794026769
 20
14.3936768473122996
 30
0.0
 40
0.062
 50
89.9999999999185718
 51
122.595858655355201
  0
LINE
  5
D1A7
  8
0
 10
363.3256789379840939
 20
10.9358072677117093
 30
0.0
 11
363.3256789379840939
 21
10.7757072677117094
 31
0.0
  0
ARC
  5
D1A8
  8
0
 10
363.2781789379840802
 20
10.9358072677117093
 30
0.0
 40
0.0475
 50
0.0000000000039693
 51
89.9999999999967457
  0
ARC
  5
D1A9
  8
0
 10
363.3076789379841216
 20
10.7757072677117094
 30
0.0
 40
0.018
 50
269.9999999999772058
 51
0.0000000000010687
  0
LINE
  5
D1AA
  8
0
 10
363.2538364182955775
 20
13.7849205521117106
 30
0.0
 11
362.732891536384102
 21
13.7849205521117106
 31
0.0
  0
LINE
  5
D1AB
  8
0
 10
362.5748915363840865
 20
10.9953072677117092
 30
0.0
 11
362.5748915363840865
 21
13.2165828582117104
 31
0.0
  0
LINE
  5
D1AC
  8
0
 10
362.5748915363840865
 20
13.2582757716117108
 30
0.0
 11
362.5748915363840865
 21
13.6269205521117094
 31
0.0
  0
ARC
  5
D1AD
  8
0
 10
362.586891536384087
 20
10.9953072677117092
 30
0.0
 40
0.012
 50
180.0000000000046896
 51
270.0000000000163141
  0
LINE
  5
D1AE
  8
0
 10
362.5205608277840952
 20
13.2482757716117092
 30
0.0
 11
362.5205608277840952
 21
13.2285828582117109
 31
0.0
  0
ARC
  5
D1AF
  8
0
 10
362.5648915363840956
 20
13.2582757716117108
 30
0.0
 40
0.01
 50
269.999999999980389
 51
0.0000000000178111
  0
ARC
  5
D1B0
  8
0
 10
362.5628915363840861
 20
13.2165828582117104
 30
0.0
 40
0.012
 50
0.0000000000084984
 51
90.0
  0
ARC
  5
D1B1
  8
0
 10
362.732891536384102
 20
13.6269205521117094
 30
0.0
 40
0.158
 50
90.0
 51
179.9999999999988916
  0
ARC
  5
D1B2
  8
0
 10
363.2538364182955775
 20
14.2274205520877501
 30
0.0
 40
0.4424999999744798
 50
270.0
 51
354.0025219687763069
  0
ARC
  5
D1B3
  8
0
 10
363.674023862581123
 20
14.1832757716117506
 30
0.0
 40
0.02
 50
354.0025219751236136
 51
90.0000000000390656
  0
ARC
  5
D1B4
  8
0
 10
363.1900878075283003
 20
14.0234460656211102
 30
0.0
 40
0.5017009786526002
 50
27.9839177613458112
 51
57.3525389964470307
  0
ARC
  5
D1B5
  8
0
 10
363.4272926112669779
 20
14.3936768473110597
 30
0.0
 40
0.062
 50
57.3525389966977528
 51
89.9999999999120632
  0
LINE
  5
D1B6
  8
0
 10
363.6348833831841034
 20
14.2518177052091399
 30
0.0
 11
363.6348833831841034
 21
14.2289526278609806
 31
0.0
  0
ARC
  5
D1B7
  8
0
 10
363.619883383184515
 20
14.2518177052092003
 30
0.0
 40
0.015
 50
359.9999999997846203
 51
27.983917761968641
  0
LINE
  5
D1B8
  8
0
 10
363.6215972859840804
 20
14.2032757716117093
 30
0.0
 11
363.633542084028818
 21
14.2239499386160606
 31
0.0
  0
ARC
  5
D1B9
  8
0
 10
363.6248833831841125
 20
14.2289526278609806
 30
0.0
 40
0.01
 50
329.9822065033579861
 51
0.0
  0
ARC
  5
D1BA
  8
0
 10
362.0034572138951035
 20
14.0246760669074195
 30
0.0
 40
0.4999865109293922
 50
27.9287117789312092
 51
57.4043411175185909
  0
LINE
  5
D1BB
  8
0
 10
362.4468833831841152
 20
14.2289526278610108
 30
0.0
 11
362.4468833831841152
 21
14.2519727740002402
 31
0.0
  0
LINE
  5
D1BC
  8
0
 10
362.4335972859840922
 20
14.2032757716117093
 30
0.0
 11
362.4455420840287729
 21
14.2239499386160908
 31
0.0
  0
ARC
  5
D1BD
  8
0
 10
362.4368833831841243
 20
14.2289526278610108
 30
0.0
 40
0.01
 50
329.9822065034409206
 51
359.9999999999566853
  0
ARC
  5
D1BE
  8
0
 10
362.431883383184072
 20
14.2519727740002402
 30
0.0
 40
0.0149999999999224
 50
359.9999999999831175
 51
27.3152330449276697
  0
ARC
  5
D1BF
  8
0
 10
362.2394034107654761
 20
14.3936768473122996
 30
0.0
 40
0.062
 50
57.4041413446446711
 51
90.000000000081414
  0
LINE
  5
D1C0
  8
0
 10
360.498559016986917
 20
14.2588560608814401
 30
0.0
 11
363.6331295731807813
 21
14.2588560608814401
 31
0.0
  0
LINE
  5
D1C1
  8
0
 10
360.4981465061392782
 20
14.2239499386160606
 30
0.0
 11
363.633542084028818
 21
14.2239499386160606
 31
0.0
  0
LINE
  5
D1C2
  8
0
 10
366.7481108694194063
 20
19.4547311143744999
 30
0.0
 11
365.3835619884487187
 21
19.4547311143744999
 31
0.0
  0
LINE
  5
D1C3
  8
0
 10
366.785753484163024
 20
19.4060011766814107
 30
0.0
 11
365.3459193737052146
 21
19.4060011766814107
 31
0.0
  0
LINE
  5
D1C4
  8
0
 10
365.3458442950341123
 20
19.4086566963256999
 30
0.0
 11
365.3458442950339986
 21
10.9953072677117092
 31
0.0
  0
LINE
  5
D1C5
  8
0
 10
364.8060017753340958
 20
10.9358072677117093
 30
0.0
 11
364.8060017753340958
 21
10.7777072677117101
 31
0.0
  0
ARC
  5
D1C6
  8
0
 10
364.8535017753341094
 20
10.9358072677117093
 30
0.0
 40
0.0475
 50
90.0
 51
180.0000000000005116
  0
ARC
  5
D1C7
  8
0
 10
364.8260017753340776
 20
10.7777072677117101
 30
0.0
 40
0.02
 50
179.9999999999992895
 51
270.0
  0
ARC
  5
D1C8
  8
0
 10
366.0725708280021991
 20
15.9950999695342002
 30
0.0
 40
3.5275743563150979
 50
90.1093819263787168
 51
101.2634676564527041
  0
ARC
  5
D1C9
  8
0
 10
365.3928444702049205
 20
19.4086566963256999
 30
0.0
 40
0.0470001751708496
 50
101.3907380662924993
 51
183.23894825406731
  0
ARC
  5
D1CA
  8
0
 10
366.0695976223204866
 20
19.4517999011944482
 30
0.0
 40
0.7251260102120372
 50
183.621193225606504
 51
269.7028082426000992
  0
LINE
  5
D1CB
  8
0
 10
366.7858285628341264
 20
19.4086566963256999
 30
0.0
 11
366.7858285628341264
 21
10.9953072677117092
 31
0.0
  0
ARC
  5
D1CC
  8
0
 10
366.0591020298659259
 20
15.9950999695342002
 30
0.0
 40
3.5275743563150979
 50
78.7365323435472249
 51
89.8906180736212832
  0
ARC
  5
D1CD
  8
0
 10
366.7388283876633182
 20
19.4086566963256999
 30
0.0
 40
0.0470001751708496
 50
356.7610517459327184
 51
78.6092619337074439
  0
ARC
  5
D1CE
  8
0
 10
366.0620752355475815
 20
19.4517999011944482
 30
0.0
 40
0.7251260102120372
 50
270.2971917573999008
 51
356.3788067743935244
  0
ARC
  5
D1CF
  8
0
 10
366.7738285628341259
 20
10.9953072677117092
 30
0.0
 40
0.012
 50
270.0
 51
0.0
  0
LINE
  5
D1D0
  8
0
 10
367.3256710825340861
 20
10.9358072677117093
 30
0.0
 11
367.3256710825340861
 21
10.7777072677117101
 31
0.0
  0
ARC
  5
D1D1
  8
0
 10
367.2781710825340724
 20
10.9358072677117093
 30
0.0
 40
0.0475
 50
359.9999999999994884
 51
90.0
  0
ARC
  5
D1D2
  8
0
 10
367.3056710825341042
 20
10.7777072677117101
 30
0.0
 40
0.02
 50
270.0
 51
0.0000000000006616
  0
LINE
  5
D1D3
  8
0
 10
371.3076632056840936
 20
10.7577072677117105
 30
0.0
 11
368.8239939198841171
 21
10.7577072677117105
 31
0.0
  0
LINE
  5
D1D4
  8
0
 10
371.325663205684009
 20
10.9358072677117093
 30
0.0
 11
371.325663205684009
 21
10.7757072677117094
 31
0.0
  0
LINE
  5
D1D5
  8
0
 10
371.278163205684109
 20
10.9833072677117105
 30
0.0
 11
368.8534939198841016
 21
10.9833072677117105
 31
0.0
  0
ARC
  5
D1D6
  8
0
 10
371.278163205684109
 20
10.9358072677117093
 30
0.0
 40
0.0475
 50
0.0000000000039693
 51
89.9999999999967457
  0
ARC
  5
D1D7
  8
0
 10
371.3076632056840936
 20
10.7757072677117094
 30
0.0
 40
0.018
 50
269.9999999999772058
 51
0.0000000000010687
  0
LINE
  5
D1D8
  8
0
 10
371.2538206859956063
 20
13.7849205521117106
 30
0.0
 11
370.7328758040840739
 21
13.7849205521117106
 31
0.0
  0
LINE
  5
D1D9
  8
0
 10
370.5748758040841153
 20
10.9953072677117092
 30
0.0
 11
370.5748758040841153
 21
13.2165828582117104
 31
0.0
  0
LINE
  5
D1DA
  8
0
 10
370.5748758040841153
 20
13.2582757716117108
 30
0.0
 11
370.5748758040841153
 21
13.6269205521117094
 31
0.0
  0
ARC
  5
D1DB
  8
0
 10
370.5868758040840021
 20
10.9953072677117092
 30
0.0
 40
0.012
 50
180.0000000000046896
 51
270.0000000000163141
  0
LINE
  5
D1DC
  8
0
 10
370.5628758040841149
 20
13.2285828582117109
 30
0.0
 11
369.5687813214840958
 21
13.2285828582117109
 31
0.0
  0
LINE
  5
D1DD
  8
0
 10
370.5648758040841244
 20
13.2482757716117092
 30
0.0
 11
369.5667813214840862
 21
13.2482757716117092
 31
0.0
  0
LINE
  5
D1DE
  8
0
 10
370.520545095484124
 20
13.2482757716117092
 30
0.0
 11
370.520545095484124
 21
13.2285828582117109
 31
0.0
  0
ARC
  5
D1DF
  8
0
 10
370.5648758040841244
 20
13.2582757716117108
 30
0.0
 40
0.01
 50
269.999999999980389
 51
0.0000000000178111
  0
ARC
  5
D1E0
  8
0
 10
370.5628758040841149
 20
13.2165828582117104
 30
0.0
 40
0.012
 50
0.0000000000084984
 51
90.0
  0
ARC
  5
D1E1
  8
0
 10
370.7328758040840739
 20
13.6269205521117094
 30
0.0
 40
0.158
 50
90.0
 51
179.9999999999988916
  0
LINE
  5
D1E2
  8
0
 10
371.674008130281095
 20
14.2032757716117093
 30
0.0
 11
368.4576489952871157
 21
14.2032757716117093
 31
0.0
  0
ARC
  5
D1E3
  8
0
 10
371.2538206859956063
 20
14.2274205520877501
 30
0.0
 40
0.4424999999744798
 50
270.0
 51
354.0025219687763069
  0
ARC
  5
D1E4
  8
0
 10
371.674008130281095
 20
14.1832757716117506
 30
0.0
 40
0.02
 50
354.0025219751236136
 51
90.0000000000390656
  0
LINE
  5
D1E5
  8
0
 10
371.4272768789670067
 20
14.4556768473117092
 30
0.0
 11
368.7043802466010902
 21
14.4556768473117092
 31
0.0
  0
ARC
  5
D1E6
  8
0
 10
371.1900720752282723
 20
14.0234460656211102
 30
0.0
 40
0.5017009786526002
 50
27.9839177613458112
 51
57.3525389964470307
  0
ARC
  5
D1E7
  8
0
 10
371.4272768789670067
 20
14.3936768473110597
 30
0.0
 40
0.062
 50
57.3525389966978523
 51
89.9999999999120632
  0
LINE
  5
D1E8
  8
0
 10
371.6348676508840754
 20
14.2518177052091399
 30
0.0
 11
371.6348676508840754
 21
14.2289526278609806
 31
0.0
  0
ARC
  5
D1E9
  8
0
 10
371.6198676508846006
 20
14.2518177052092003
 30
0.0
 40
0.015
 50
359.9999999997846203
 51
27.9839177619687298
  0
LINE
  5
D1EA
  8
0
 10
371.6215815536841092
 20
14.2032757716117093
 30
0.0
 11
371.6335263517287899
 21
14.2239499386160606
 31
0.0
  0
ARC
  5
D1EB
  8
0
 10
371.6248676508840845
 20
14.2289526278609806
 30
0.0
 40
0.01
 50
329.9822065033579861
 51
0.0
  0
ARC
  5
D1EC
  8
0
 10
370.0658285627840769
 20
14.2274205521117096
 30
0.0
 40
0.4425000000000004
 50
185.9974780276781985
 51
354.0025219723215741
  0
ARC
  5
D1ED
  8
0
 10
369.6456411184753961
 20
14.1832757716117097
 30
0.0
 40
0.02
 50
90.0
 51
185.997478027678909
  0
ARC
  5
D1EE
  8
0
 10
370.4860160070928146
 20
14.1832757716117097
 30
0.0
 40
0.02
 50
354.0025219723223131
 51
90.0
  0
ARC
  5
D1EF
  8
0
 10
370.0034414815959849
 20
14.0246760669085102
 30
0.0
 40
0.4999865109279754
 50
27.9287117788693315
 51
57.4043411175385003
  0
LINE
  5
D1F0
  8
0
 10
370.4468676508840872
 20
14.2289526278610108
 30
0.0
 11
370.4468676508840872
 21
14.2519727740002402
 31
0.0
  0
LINE
  5
D1F1
  8
0
 10
370.433581553684121
 20
14.2032757716117093
 30
0.0
 11
370.4455263517289154
 21
14.2239499386160908
 31
0.0
  0
ARC
  5
D1F2
  8
0
 10
370.4368676508840963
 20
14.2289526278610108
 30
0.0
 40
0.01
 50
329.9822065034409206
 51
359.999999999956799
  0
ARC
  5
D1F3
  8
0
 10
370.4318676508858061
 20
14.2519727740004498
 30
0.0
 40
0.0149999999982464
 50
359.9999999992011226
 51
27.3152330471654707
  0
ARC
  5
D1F4
  8
0
 10
370.2393876784655049
 20
14.3936768473122996
 30
0.0
 40
0.062
 50
57.404141344644728
 51
90.000000000081414
  0
LINE
  5
D1F5
  8
0
 10
368.805993919884088
 20
10.9358072677117093
 30
0.0
 11
368.805993919884088
 21
10.7757072677117094
 31
0.0
  0
ARC
  5
D1F6
  8
0
 10
368.8534939198841016
 20
10.9358072677117093
 30
0.0
 40
0.0475
 50
90.0000000000032543
 51
179.9999999999959925
  0
ARC
  5
D1F7
  8
0
 10
368.8239939198841171
 20
10.7757072677117094
 30
0.0
 40
0.018
 50
179.9999999999988916
 51
270.0000000000227942
  0
LINE
  5
D1F8
  8
0
 10
368.8778364395726044
 20
13.7849205521117106
 30
0.0
 11
369.3987813214840799
 21
13.7849205521117106
 31
0.0
  0
LINE
  5
D1F9
  8
0
 10
369.5567813214840953
 20
10.9953072677117092
 30
0.0
 11
369.5567813214840953
 21
13.2165828582117104
 31
0.0
  0
LINE
  5
D1FA
  8
0
 10
369.5567813214840953
 20
13.2582757716117108
 30
0.0
 11
369.5567813214840953
 21
13.6269205521117094
 31
0.0
  0
ARC
  5
D1FB
  8
0
 10
369.5447813214840949
 20
10.9953072677117092
 30
0.0
 40
0.012
 50
269.9999999999837996
 51
359.999999999995282
  0
LINE
  5
D1FC
  8
0
 10
369.6111120300840867
 20
13.2482757716117092
 30
0.0
 11
369.6111120300840867
 21
13.2285828582117109
 31
0.0
  0
ARC
  5
D1FD
  8
0
 10
369.5667813214840862
 20
13.2582757716117108
 30
0.0
 40
0.01
 50
179.999999999982208
 51
270.000000000019611
  0
ARC
  5
D1FE
  8
0
 10
369.5687813214840958
 20
13.2165828582117104
 30
0.0
 40
0.012
 50
90.0
 51
179.9999999999915019
  0
ARC
  5
D1FF
  8
0
 10
369.3987813214840799
 20
13.6269205521117094
 30
0.0
 40
0.158
 50
0.0000000000011196
 51
90.0
  0
ARC
  5
D200
  8
0
 10
368.8778364395726044
 20
14.2274205520877501
 30
0.0
 40
0.4424999999744798
 50
185.9974780312234941
 51
270.0
  0
ARC
  5
D201
  8
0
 10
368.4576489952871157
 20
14.1832757716117506
 30
0.0
 40
0.02
 50
89.9999999999576659
 51
185.9974780248763864
  0
ARC
  5
D202
  8
0
 10
368.9415850503398815
 20
14.0234460656211102
 30
0.0
 40
0.5017009786526002
 50
122.6474610035529054
 51
152.0160822386542065
  0
ARC
  5
D203
  8
0
 10
368.7043802466010902
 20
14.3936768473110597
 30
0.0
 40
0.062
 50
90.0000000000879368
 51
122.647461003304997
  0
LINE
  5
D204
  8
0
 10
368.4967894746840784
 20
14.2518177052091399
 30
0.0
 11
368.4967894746840784
 21
14.2289526278609806
 31
0.0
  0
ARC
  5
D205
  8
0
 10
368.51178947468361
 20
14.2518177052092003
 30
0.0
 40
0.015
 50
152.0160822380312879
 51
180.0000000002154081
  0
LINE
  5
D206
  8
0
 10
368.5100755718841015
 20
14.2032757716117093
 30
0.0
 11
368.498130773839307
 21
14.2239499386160606
 31
0.0
  0
ARC
  5
D207
  8
0
 10
368.5067894746841262
 20
14.2289526278609806
 30
0.0
 40
0.01
 50
180.0
 51
210.0177934966420139
  0
ARC
  5
D208
  8
0
 10
370.1282156439730784
 20
14.0246760669074195
 30
0.0
 40
0.4999865109293922
 50
122.595658882481402
 51
152.0712882210688122
  0
LINE
  5
D209
  8
0
 10
369.6847894746841234
 20
14.2289526278610108
 30
0.0
 11
369.6847894746841234
 21
14.2519727740002402
 31
0.0
  0
LINE
  5
D20A
  8
0
 10
369.6980755718840896
 20
14.2032757716117093
 30
0.0
 11
369.6861307738394089
 21
14.2239499386160908
 31
0.0
  0
ARC
  5
D20B
  8
0
 10
369.6947894746841143
 20
14.2289526278610108
 30
0.0
 40
0.01
 50
180.000000000043201
 51
210.017793496559193
  0
ARC
  5
D20C
  8
0
 10
369.6997894746841098
 20
14.2519727740002402
 30
0.0
 40
0.0149999999999224
 50
152.6847669550724049
 51
180.0000000000169109
  0
ARC
  5
D20D
  8
0
 10
369.8922694471027057
 20
14.3936768473122996
 30
0.0
 40
0.062
 50
89.9999999999185718
 51
122.5958586553553005
  0
LINE
  5
D20E
  8
0
 10
371.6331138408813217
 20
14.2588560608814401
 30
0.0
 11
368.4985432846874005
 21
14.2588560608814401
 31
0.0
  0
LINE
  5
D20F
  8
0
 10
371.6335263517287899
 20
14.2239499386160606
 30
0.0
 11
368.498130773839307
 21
14.2239499386160606
 31
0.0
  0
ARC
  5
D211
  8
0
 10
366.0651212517261115
 20
19.7650273445978115
 30
0.0
 40
1.0382536739321919
 50
269.4299954213499859
 51
270.0394668854964948
  0
ARC
  5
D212
  8
0
 10
366.0665516061421272
 20
19.7650273445978115
 30
0.0
 40
1.0382536739321919
 50
269.9605331145033915
 51
270.5700045786500141
  0
ENDSEC
  0
EOF
