  0
SECTION
  2
HEADER
  9
$ACADVER
  1
AC1009
  9
$INSBASE
 10
4912.8199428230291232
 20
-2.5640142061348712
 30
0.0
  9
$EXTMIN
 10
4911.0351378285722603
 20
-2.5640453008528459
 30
-0.0000000000000058
  9
$EXTMAX
 10
4933.9986709562399483
 20
5.0937076907684293
 30
0.0000000000000104
  9
$LIMMIN
 10
0.0
 20
0.0
  9
$LIMMAX
 10
11.6929133858000007
 20
8.2677165353999982
  9
$ORTHOMODE
 70
     1
  9
$REGENMODE
 70
     1
  9
$FILLMODE
 70
     1
  9
$QTEXTMODE
 70
     0
  9
$MIRRTEXT
 70
     0
  9
$DRAGMODE
 70
     2
  9
$LTSCALE
 40
0.6431102362
  9
$OSMODE
 70
  2047
  9
$ATTMODE
 70
     1
  9
$TEXTSIZE
 40
0.2
  9
$TRACEWID
 40
0.05
  9
$TEXTSTYLE
  7
STANDARD
  9
$CLAYER
  8
0
  9
$CELTYPE
  6
BYLAYER
  9
$CECOLOR
 62
   256
  9
$DIMSCALE
 40
1.0
  9
$DIMASZ
 40
0.1875
  9
$DIMEXO
 40
0.0625
  9
$DIMDLI
 40
0.4443307087
  9
$DIMRND
 40
0.0
  9
$DIMDLE
 40
0.0
  9
$DIMEXE
 40
0.125
  9
$DIMTP
 40
0.01
  9
$DIMTM
 40
0.01
  9
$DIMTXT
 40
2.0
  9
$DIMCEN
 40
0.1052362205
  9
$DIMTSZ
 40
0.0
  9
$DIMTOL
 70
     1
  9
$DIMLIM
 70
     0
  9
$DIMTIH
 70
     1
  9
$DIMTOH
 70
     1
  9
$DIMSE1
 70
     0
  9
$DIMSE2
 70
     0
  9
$DIMTAD
 70
     0
  9
$DIMZIN
 70
     0
  9
$DIMBLK
  1

  9
$DIMASO
 70
     1
  9
$DIMSHO
 70
     1
  9
$DIMPOST
  1
\X
  9
$DIMAPOST
  1

  9
$DIMALT
 70
     1
  9
$DIMALTD
 70
     2
  9
$DIMALTF
 40
25.3999999999999986
  9
$DIMLFAC
 40
1.0
  9
$DIMTOFL
 70
     0
  9
$DIMTVP
 40
0.0
  9
$DIMTIX
 70
     0
  9
$DIMSOXD
 70
     0
  9
$DIMSAH
 70
     0
  9
$DIMBLK1
  1

  9
$DIMBLK2
  1

  9
$DIMSTYLE
  2
STANDARD
  9
$DIMCLRD
 70
     0
  9
$DIMCLRE
 70
     0
  9
$DIMCLRT
 70
     0
  9
$DIMTFAC
 40
1.0
  9
$DIMGAP
 40
0.09
  9
$LUNITS
 70
     2
  9
$LUPREC
 70
     4
  9
$SKETCHINC
 40
0.1
  9
$FILLETRAD
 40
0.0
  9
$AUNITS
 70
     0
  9
$AUPREC
 70
     0
  9
$MENU
  1
.
  9
$ELEVATION
 40
0.0
  9
$PELEVATION
 40
0.0
  9
$THICKNESS
 40
0.0
  9
$LIMCHECK
 70
     0
  9
$BLIPMODE
 70
     0
  9
$CHAMFERA
 40
0.0
  9
$CHAMFERB
 40
0.0
  9
$SKPOLY
 70
     0
  9
$TDCREATE
 40
2458060.468368056230247
  9
$TDUPDATE
 40
2460656.6054050931707025
  9
$TDINDWG
 40
0.994983912
  9
$TDUSRTIMER
 40
0.994983912
  9
$USRTIMER
 70
     1
  9
$ANGBASE
 50
0.0
  9
$ANGDIR
 70
     0
  9
$PDMODE
 70
     0
  9
$PDSIZE
 40
0.3125
  9
$PLINEWID
 40
0.0
  9
$COORDS
 70
     1
  9
$SPLFRAME
 70
     0
  9
$SPLINETYPE
 70
     6
  9
$SPLINESEGS
 70
     8
  9
$ATTDIA
 70
     1
  9
$ATTREQ
 70
     1
  9
$HANDLING
 70
     1
  9
$HANDSEED
  5
3C0FE
  9
$SURFTAB1
 70
     6
  9
$SURFTAB2
 70
     6
  9
$SURFTYPE
 70
     6
  9
$SURFU
 70
     6
  9
$SURFV
 70
     6
  9
$UCSNAME
  2

  9
$UCSORG
 10
0.0
 20
0.0
 30
0.0
  9
$UCSXDIR
 10
1.0
 20
0.0
 30
0.0
  9
$UCSYDIR
 10
0.0
 20
1.0
 30
0.0
  9
$PUCSNAME
  2

  9
$PUCSORG
 10
0.0
 20
0.0
 30
0.0
  9
$PUCSXDIR
 10
1.0
 20
0.0
 30
0.0
  9
$PUCSYDIR
 10
0.0
 20
1.0
 30
0.0
  9
$USERI1
 70
     0
  9
$USERI2
 70
     0
  9
$USERI3
 70
     0
  9
$USERI4
 70
     0
  9
$USERI5
 70
     0
  9
$USERR1
 40
0.0
  9
$USERR2
 40
0.0
  9
$USERR3
 40
0.0
  9
$USERR4
 40
0.0
  9
$USERR5
 40
0.0
  9
$WORLDVIEW
 70
     1
  9
$SHADEDGE
 70
     3
  9
$SHADEDIF
 70
    70
  9
$TILEMODE
 70
     1
  9
$MAXACTVP
 70
    64
  9
$PLIMCHECK
 70
     0
  9
$PEXTMIN
 10
1.0000000000000000E+20
 20
1.0000000000000000E+20
 30
1.0000000000000000E+20
  9
$PEXTMAX
 10
-1.0000000000000000E+20
 20
-1.0000000000000000E+20
 30
-1.0000000000000000E+20
  9
$PLIMMIN
 10
0.0
 20
0.0
  9
$PLIMMAX
 10
12.0
 20
9.0
  9
$UNITMODE
 70
     0
  9
$VISRETAIN
 70
     1
  9
$PLINEGEN
 70
     0
  9
$PSLTSCALE
 70
     1
  0
ENDSEC
  0
SECTION
  2
TABLES
  0
TABLE
  2
VPORT
 70
     1
  0
VPORT
  2
*ACTIVE
 70
     0
 10
0.0
 20
0.0
 11
1.0
 21
1.0
 12
1130.1589942361561043
 22
-118.9158252381476046
 13
0.0
 23
0.0
 14
1.0
 24
1.0
 15
0.0
 25
0.0
 16
0.0
 26
0.0
 36
5.1040778033513332
 17
3792.35791015625
 27
120.1806564331053977
 37
0.0
 40
9.2914734541348238
 41
2.4792207792207792
 42
50.0
 43
0.0
 44
0.0
 50
0.0
 51
0.0
 71
     0
 72
   100
 73
     1
 74
     1
 75
     0
 76
     0
 77
     0
 78
     0
  0
ENDTAB
  0
TABLE
  2
LTYPE
 70
     2
  0
LTYPE
  2
CONTINUOUS
 70
     0
  3
Solid line
 72
    65
 73
     0
 40
0.0
  0
LTYPE
  2
PHANTOM2
 70
     0
  3
___ _ _ ___ _ _ ___ _ _ ___ _ _
 72
    65
 73
     6
 40
1.25
 49
0.625
 49
-0.125
 49
0.125
 49
-0.125
 49
0.125
 49
-0.125
  0
ENDTAB
  0
TABLE
  2
LAYER
 70
     2
  0
LAYER
  2
0
 70
     0
 62
   255
  6
CONTINUOUS
  0
LAYER
  2
DEFPOINTS
 70
     0
 62
     7
  6
CONTINUOUS
  0
ENDTAB
  0
TABLE
  2
STYLE
 70
     1
  0
STYLE
  2
STANDARD
 70
     0
 40
0.0
 41
0.8
 50
0.0
 71
     0
 42
0.2
  3
txt
  4

  0
ENDTAB
  0
TABLE
  2
VIEW
 70
     0
  0
ENDTAB
  0
TABLE
  2
UCS
 70
     0
  0
ENDTAB
  0
TABLE
  2
APPID
 70
    11
  0
APPID
  2
ACAD
 70
     0
  0
APPID
  2
ACAD_MLEADERVER
 70
     0
  0
APPID
  2
ACAD_EXEMPT_FROM_CAD_STANDARDS
 70
     0
  0
APPID
  2
ACAD_NAV_VCDISPLAY
 70
     0
  0
APPID
  2
ACAECLAYERSTANDARD
 70
     0
  0
APPID
  2
ACCMTRANSPARENCY
 70
     0
  0
APPID
  2
ACAD_DSTYLE_DIMJAG
 70
     0
  0
APPID
  2
ACAD_DSTYLE_DIMTALN
 70
     0
  0
APPID
  2
ACDBATTR
 70
     0
  0
APPID
  2
GRADIENTCOLOR1ACI
 70
     0
  0
APPID
  2
GRADIENTCOLOR2ACI
 70
     0
  0
ENDTAB
  0
TABLE
  2
DIMSTYLE
 70
     1
  0
DIMSTYLE
  2
STANDARD
 70
     0
  3

  4

  5

  6

  7

 40
1.0
 41
0.1875
 42
0.0625
 43
0.38
 44
0.125
 45
0.0
 46
0.0
 47
0.01
 48
0.01
140
0.15625
141
0.09
142
0.0
143
25.3999999999999986
144
1.0
145
0.0
146
1.0
147
0.09
 71
     1
 72
     0
 73
     1
 74
     1
 75
     0
 76
     0
 77
     0
 78
     4
170
     0
171
     2
172
     0
173
     0
174
     0
175
     0
176
     0
177
     0
178
     0
  0
ENDTAB
  0
ENDSEC
  0
SECTION
  2
BLOCKS
  0
BLOCK
  8
0
  2
$MODEL_SPACE
 70
     0
 10
0.0
 20
0.0
 30
0.0
  3
$MODEL_SPACE
  1

  0
ENDBLK
  5
21
  8
0
  0
BLOCK
 67
     1
  8
0
  2
$PAPER_SPACE
 70
     0
 10
0.0
 20
0.0
 30
0.0
  3
$PAPER_SPACE
  1

  0
ENDBLK
  5
1D
 67
     1
  8
0
  0
ENDSEC
  0
SECTION
  2
ENTITIES
  0
ATTDEF
  5
25833
  8
DEFPOINTS
 10
4912.819982583005185
 20
-2.5606498641603248
 30
0.0
 40
0.001
  1
P32712-00
  3

  2
MODELNUMBER
 70
     0
1001
ACDBATTR
1070
     0
1070
     1
  0
ATTDEF
  5
25834
  8
DEFPOINTS
 10
4912.819982583005185
 20
-2.56231653082699
 30
0.0
 40
0.001
  1
BEZEL
  3

  2
TRADENAME
 70
     0
1001
ACDBATTR
1070
     0
1070
     1
  0
ATTDEF
  5
25835
  8
DEFPOINTS
 10
4912.819982583005185
 20
-2.5639831974936551
 30
0.0
 40
0.001
  1
BATH FAUCET
  3

  2
PRODUCT
 70
     0
1001
ACDBATTR
1070
     0
1070
     1
  0
LINE
  5
3BBB4
  8
0
 10
4911.2451341628484442
 20
1.6422740216651279
 30
0.0
 11
4911.2451341628484442
 21
-0.9892110565383124
 31
0.0
  0
LINE
  5
3BBBC
  8
0
 10
4927.1896853439484403
 20
-2.564014206134869
 30
0.0
 11
4927.1896853439484403
 21
-2.368331021934869
 31
0.0
  0
LINE
  5
3BBC0
  8
0
 10
4929.1581892809472265
 20
-2.564014206134869
 30
0.0
 11
4929.1581892809472265
 21
-2.3683310219348712
 31
0.0
  0
LINE
  5
3BBC2
  8
0
 10
4931.9146853439469851
 20
-2.564014206134869
 30
0.0
 11
4931.9146853439469851
 21
-2.3671638124348711
 31
0.0
  0
LINE
  5
3BBC4
  8
0
 10
4933.8831892809475903
 20
-2.564014206134869
 30
0.0
 11
4933.8831892809475903
 21
-2.3671638124348711
 31
0.0
  0
LINE
  5
3BBD3
  8
0
 10
4932.4264963675477702
 20
5.0898033406651289
 30
0.0
 11
4932.4264963675477702
 21
-2.0521638124348711
 31
0.0
  0
LINE
  5
3BBD5
  8
0
 10
4933.3713782573477147
 20
5.0898033406651289
 30
0.0
 11
4933.3713782573477147
 21
-2.0521638124348711
 31
0.0
  0
LINE
  5
3BC17
  8
0
 10
4914.3947404620466841
 20
1.6422740208651281
 30
0.0
 11
4914.3947404620466841
 21
-0.9892110565348716
 31
0.0
  0
LINE
  5
3BC1A
  8
0
 10
4914.1619793574982396
 20
1.8799274127151291
 30
0.0
 11
4914.1619793574982396
 21
0.4922525120068042
 31
0.0
  0
LINE
  5
3BC1B
  8
0
 10
4914.1619793592481074
 20
0.0594094002981396
 30
0.0
 11
4914.1619793574982396
 21
-0.9892110565348716
 31
0.0
  0
LINE
  5
3BC1E
  8
0
 10
4911.486246922348073
 20
1.883386778965128
 30
0.0
 11
4911.486246922348073
 21
0.4939859938651288
 31
0.0
  0
LINE
  5
3BC38
  8
0
 10
4933.8831892809475903
 20
-2.5640142061348712
 30
0.0
 11
4931.9146853439469851
 21
-2.5640142061348712
 31
0.0
  0
LINE
  5
3BC39
  8
0
 10
4929.1581892809472265
 20
-2.5640142061348712
 30
0.0
 11
4927.1896853439484403
 21
-2.5640142061348712
 31
0.0
  0
LINE
  5
3BC3A
  8
0
 10
4914.5797908533104419
 20
-2.5640142061348712
 30
0.0
 11
4911.0600947927478046
 21
-2.5640142061348712
 31
0.0
  0
ARC
  5
3BC3B
  8
0
 10
4914.5797908533104419
 20
-2.5522142061348712
 30
0.0
 40
0.0118
 50
270.0
 51
0.0
  0
ARC
  5
3BC3C
  8
0
 10
4911.2569451864483199
 20
1.642274021665127
 30
0.0
 40
0.0118110236000044
 50
135.0000000364111088
 51
179.9999999756909119
  0
LINE
  5
3BC3D
  8
0
 10
4911.2485935315617098
 20
1.650625676540137
 30
0.0
 11
4911.4778952649194252
 21
1.8799274101886541
 31
0.0
  0
ARC
  5
3BC3E
  8
0
 10
4911.486246919687801
 20
1.871575755430781
 30
0.0
 40
0.0118110234343472
 50
89.9999870961055422
 51
135.000000036410313
  0
LINE
  5
3BC3F
  8
0
 10
4911.486246922348073
 20
1.883386778865128
 30
0.0
 11
4914.1536277051473007
 21
1.883386178129935
 31
0.0
  0
ARC
  5
3BC40
  8
0
 10
4914.1536277024870287
 20
1.8715736974988919
 30
0.0
 40
0.0118124806310428
 50
45.0070484300445628
 51
89.9999870961055422
  0
LINE
  5
3BC41
  8
0
 10
4914.1619793600475532
 20
1.879927410125757
 30
0.0
 11
4914.391281093347061
 21
1.6506256765257561
 31
0.0
  0
ARC
  5
3BC42
  8
0
 10
4914.382929438447718
 20
1.6422740216651299
 30
0.0
 40
0.011811023599996
 50
359.99999611915689
 51
44.9999998649664974
  0
ARC
  5
3BC43
  8
0
 10
4911.0600947927478046
 20
-2.5522031825348721
 30
0.0
 40
0.0118110235999988
 50
179.999999999994003
 51
270.0
  0
LINE
  5
3BC44
  8
0
 10
4911.0482837691470195
 20
-2.5522031825348712
 30
0.0
 11
4911.0482837244480834
 21
-2.368921809884871
 31
0.0
  0
ARC
  5
3BC45
  8
0
 10
4906.5181944028963699
 20
-1.016999759289325
 30
0.0
 40
4.7270214419701864
 50
343.4248377273520987
 51
0.3368276233917599
  0
ARC
  5
3BC46
  8
0
 10
4911.0575820095191375
 20
-2.368543034829159
 30
0.0
 40
0.0093059967660524
 50
160.8541522464693969
 51
182.3327118353228968
  0
ARC
  5
3BC47
  8
0
 10
4909.0432262947279014
 20
-0.9801625721311459
 30
0.0
 40
2.4346857861765021
 50
326.0443476640382983
 51
359.7870603409630803
  0
ARC
  5
3BC48
  8
0
 10
4916.5964449001057801
 20
-0.9802250928284617
 30
0.0
 40
2.4344821267964831
 50
180.2114860317421119
 51
213.9571060289731861
  0
LINE
  5
3BC49
  8
0
 10
4911.0482837244480834
 20
-2.368921809884871
 30
0.0
 11
4914.5915908557481089
 21
-2.368921809884871
 31
0.0
  0
LINE
  5
3BC4A
  8
0
 10
4927.1896853439484403
 20
-2.368921809884871
 30
0.0
 11
4929.1581892809472265
 21
-2.368921809884871
 31
0.0
  0
LINE
  5
3BC4B
  8
0
 10
4931.9146853439469851
 20
-2.368921809884871
 30
0.0
 11
4933.8831892809475903
 21
-2.368921809884871
 31
0.0
  0
ARC
  5
3BC4D
  8
0
 10
4927.1975593697015938
 20
-2.3683310234791488
 30
0.0
 40
0.0078740257543261
 50
167.6550368697681961
 51
179.9999887629658133
  0
ARC
  5
3BC4E
  8
0
 10
4922.6580854096928306
 20
-1.016848239504051
 30
0.0
 40
4.7285310959222411
 50
343.4137433983818823
 51
0.3348842330120278
  0
LINE
  5
3BC4F
  8
0
 10
4927.3865357376480461
 20
-0.9892110565348712
 30
0.0
 11
4927.3865357377480905
 21
-0.8081086943348712
 31
0.0
  0
ARC
  5
3BC50
  8
0
 10
4927.3944097534522371
 20
-0.8081086943392189
 30
0.0
 40
0.0078740157043473
 50
90.0000000325167662
 51
179.9999999683610099
  0
LINE
  5
3BC51
  8
0
 10
4927.3944097534467801
 20
-0.8002346786348713
 30
0.0
 11
4928.9535979854217658
 21
-0.80023467774952
 31
0.0
  0
ARC
  5
3BC52
  8
0
 10
4928.9534628921155672
 20
-0.8081095142424645
 30
0.0
 40
0.0078759951747061
 50
0.0059646106598383
 51
89.0171837706089235
  0
LINE
  5
3BC53
  8
0
 10
4928.9613388872476207
 20
-0.8081086943348712
 30
0.0
 11
4928.9613388872758151
 21
-0.9892109138111884
 31
0.0
  0
ARC
  5
3BC54
  8
0
 10
4933.6883105825372695
 20
-1.0169856631863889
 30
0.0
 40
4.7270532940187646
 50
179.6633452228838053
 51
196.5822684373185041
  0
ARC
  5
3BC55
  8
0
 10
4929.1503152652467179
 20
-2.3683310219348819
 30
0.0
 40
0.0078740157000681
 50
0.0000000001131005
 51
16.8560666127588306
  0
LINE
  5
3BC56
  8
0
 10
4927.3865357376480461
 20
1.239135400165128
 30
0.0
 11
4927.3865357376480461
 21
-0.7411795605348713
 31
0.0
  0
LINE
  5
3BC57
  8
0
 10
4927.3865357376480461
 20
-0.7411795605348713
 30
0.0
 11
4928.9613388872476207
 21
-0.7411795605348713
 31
0.0
  0
LINE
  5
3BC58
  8
0
 10
4928.9613388872476207
 20
-0.7411795605348713
 30
0.0
 11
4928.9613388872476207
 21
1.239135400165128
 31
0.0
  0
LINE
  5
3BC59
  8
0
 10
4928.9613388872476207
 20
1.239135400165128
 30
0.0
 11
4928.7959845565474097
 21
1.4044897308651281
 31
0.0
  0
LINE
  5
3BC5A
  8
0
 10
4928.7959845565474097
 20
1.4044897308651281
 30
0.0
 11
4927.5518900683473476
 21
1.4044897308651281
 31
0.0
  0
LINE
  5
3BC5B
  8
0
 10
4927.5518900683473476
 20
1.4044897308651281
 30
0.0
 11
4927.3865357376480461
 21
1.239135400165128
 31
0.0
  0
LINE
  5
3BC5C
  8
0
 10
4927.4455908557465591
 20
-0.7411795605348713
 30
0.0
 11
4927.4455908557465591
 21
-0.7608645998348714
 31
0.0
  0
LINE
  5
3BC5D
  8
0
 10
4927.4455908557465591
 20
-0.7608645998348714
 30
0.0
 11
4928.9022837691472887
 21
-0.7608645998348714
 31
0.0
  0
LINE
  5
3BC5E
  8
0
 10
4928.9022837691472887
 20
-0.7608645998348714
 30
0.0
 11
4928.9022837691472887
 21
-0.741179560534871
 31
0.0
  0
LINE
  5
3BC5F
  8
0
 10
4928.6566264084467548
 20
1.4044897308651281
 30
0.0
 11
4928.7251184148481116
 21
1.239135400165128
 31
0.0
  0
LINE
  5
3BC60
  8
0
 10
4928.7251184148481116
 20
1.239135400165128
 30
0.0
 11
4928.7251184148481116
 21
-0.7411795605348713
 31
0.0
  0
LINE
  5
3BC61
  8
0
 10
4928.7251184148481116
 20
-0.7608645998348714
 30
0.0
 11
4928.7251184148481116
 21
-0.8002346786348713
 31
0.0
  0
LINE
  5
3BC62
  8
0
 10
4927.6912482164480025
 20
1.4044897308651281
 30
0.0
 11
4927.6227562101475996
 21
1.239135400165128
 31
0.0
  0
LINE
  5
3BC63
  8
0
 10
4927.6227562101475996
 20
1.239135400165128
 30
0.0
 11
4927.6227562101475996
 21
-0.7411795605348713
 31
0.0
  0
LINE
  5
3BC64
  8
0
 10
4927.6227562101475996
 20
-0.7608645998348714
 30
0.0
 11
4927.6227562101475996
 21
-0.8002346786348713
 31
0.0
  0
ARC
  5
3BC65
  8
0
 10
4927.6275730136758284
 20
-0.807239939134239
 30
0.0
 40
0.0071758322699312
 50
102.5175437970795969
 51
186.9536758345884948
  0
ARC
  5
3BC66
  8
0
 10
4925.1408654027591183
 20
-0.9583619844327735
 30
0.0
 40
2.484132775992181
 50
326.1831574985254179
 51
3.4676637786928062
  0
ARC
  5
3BC67
  8
0
 10
4931.2070092221365485
 20
-0.9583619844327735
 30
0.0
 40
2.484132775992181
 50
176.5323362213071903
 51
213.8168425014744969
  0
ARC
  5
3BC68
  8
0
 10
4928.720275835472421
 20
-0.8072581646477001
 30
0.0
 40
0.0071992431648388
 50
353.215142215353012
 51
77.3136320135267141
  0
ARC
  5
3BC69
  8
0
 10
4932.8989373124468329
 20
-25.0531664017436917
 30
0.0
 40
30.1466718783050993
 50
89.1020574200848046
 51
90.8979425799151954
  0
CIRCLE
  5
3BC6A
  8
0
 10
4932.6607483360467086
 20
4.3435054788651293
 30
0.0
 40
0.0604908027028294
  0
ARC
  5
3BC6B
  8
0
 10
4932.6627008665600442
 20
4.3455065481723167
 30
0.0
 40
0.0629879641310527
 50
251.8508841073229121
 51
199.5558988205249022
  0
CIRCLE
  5
3BC6C
  8
0
 10
4932.6607483360467086
 20
4.3435054788651293
 30
0.0
 40
0.0196850394000006
  0
CIRCLE
  5
3BC6D
  8
0
 10
4932.6607483360467086
 20
4.1072850064651281
 30
0.0
 40
0.0604908027028294
  0
ARC
  5
3BC6E
  8
0
 10
4932.6627008665600442
 20
4.1092860757723173
 30
0.0
 40
0.0629879641310527
 50
251.8508841073229121
 51
199.5558988205249022
  0
CIRCLE
  5
3BC6F
  8
0
 10
4932.6607483360467086
 20
4.1072850064651281
 30
0.0
 40
0.0196850394000006
  0
CIRCLE
  5
3BC70
  8
0
 10
4932.6607483360467086
 20
3.8710645339651282
 30
0.0
 40
0.0604908027028294
  0
ARC
  5
3BC71
  8
0
 10
4932.6627008665600442
 20
3.8730656032723161
 30
0.0
 40
0.0629879641310527
 50
251.8508841073229121
 51
199.5558988205249022
  0
CIRCLE
  5
3BC72
  8
0
 10
4932.6607483360467086
 20
3.8710645339651282
 30
0.0
 40
0.0196850394000006
  0
CIRCLE
  5
3BC73
  8
0
 10
4932.6607483360467086
 20
3.6348440615651292
 30
0.0
 40
0.0604908027028294
  0
ARC
  5
3BC74
  8
0
 10
4932.6627008665600442
 20
3.6368451308723171
 30
0.0
 40
0.0629879641310527
 50
251.8508841073229121
 51
199.5558988205249022
  0
CIRCLE
  5
3BC75
  8
0
 10
4932.6607483360467086
 20
3.6348440615651292
 30
0.0
 40
0.0196850394000006
  0
CIRCLE
  5
3BC76
  8
0
 10
4932.6607483360467086
 20
3.398623589065128
 30
0.0
 40
0.0604908027028294
  0
ARC
  5
3BC77
  8
0
 10
4932.6627008665600442
 20
3.4006246583723172
 30
0.0
 40
0.0629879641310527
 50
251.8508841073229121
 51
199.5558988205249022
  0
CIRCLE
  5
3BC78
  8
0
 10
4932.6607483360467086
 20
3.398623589065128
 30
0.0
 40
0.0196850394000006
  0
CIRCLE
  5
3BC79
  8
0
 10
4932.6607483360467086
 20
3.1624031166651281
 30
0.0
 40
0.0604908027028294
  0
ARC
  5
3BC7A
  8
0
 10
4932.6627008665600442
 20
3.164404185972316
 30
0.0
 40
0.0629879641310527
 50
251.8508841073229121
 51
199.5558988205249022
  0
CIRCLE
  5
3BC7B
  8
0
 10
4932.6607483360467086
 20
3.1624031166651281
 30
0.0
 40
0.0196850394000006
  0
CIRCLE
  5
3BC7C
  8
0
 10
4932.6607483360467086
 20
2.9261826441651291
 30
0.0
 40
0.0604908027028294
  0
ARC
  5
3BC7D
  8
0
 10
4932.6627008665600442
 20
2.928183713472317
 30
0.0
 40
0.0629879641310527
 50
251.8508841073229121
 51
199.5558988205249022
  0
CIRCLE
  5
3BC7E
  8
0
 10
4932.6607483360467086
 20
2.9261826441651291
 30
0.0
 40
0.0196850394000006
  0
CIRCLE
  5
3BC7F
  8
0
 10
4932.6607483360467086
 20
2.6899621717651279
 30
0.0
 40
0.0604908027028294
  0
ARC
  5
3BC80
  8
0
 10
4932.6627008665600442
 20
2.6919632410723171
 30
0.0
 40
0.0629879641310527
 50
251.8508841073229121
 51
199.5558988205249022
  0
CIRCLE
  5
3BC81
  8
0
 10
4932.6607483360467086
 20
2.6899621717651279
 30
0.0
 40
0.0196850394000006
  0
CIRCLE
  5
3BC82
  8
0
 10
4932.6607483360467086
 20
2.4537416993651289
 30
0.0
 40
0.0604908027028294
  0
ARC
  5
3BC83
  8
0
 10
4932.6627008665600442
 20
2.4557427686723168
 30
0.0
 40
0.0629879641310527
 50
251.8508841073229121
 51
199.5558988205249022
  0
CIRCLE
  5
3BC84
  8
0
 10
4932.6607483360467086
 20
2.4537416993651289
 30
0.0
 40
0.0196850394000006
  0
CIRCLE
  5
3BC85
  8
0
 10
4932.6607483360467086
 20
2.2175212268651281
 30
0.0
 40
0.0604908027028294
  0
ARC
  5
3BC86
  8
0
 10
4932.6627008665600442
 20
2.2195222961723169
 30
0.0
 40
0.0629879641310527
 50
251.8508841073229121
 51
199.5558988205249022
  0
CIRCLE
  5
3BC87
  8
0
 10
4932.6607483360467086
 20
2.2175212268651281
 30
0.0
 40
0.0196850394000006
  0
ARC
  5
3BC88
  8
0
 10
4932.8201971549478912
 20
4.3454739827651299
 30
0.0
 40
0.0629921259999978
 50
359.9999999999984084
 51
115.2214088462875026
  0
ARC
  5
3BC89
  8
0
 10
4932.8201971549478912
 20
4.3454739827651299
 30
0.0
 40
0.0629921260000046
 50
296.0723072821705273
 51
359.9999999999990905
  0
ARC
  5
3BC8A
  8
0
 10
4932.8201971549478912
 20
4.3454739827651201
 30
0.0
 40
0.0629921259999914
 50
240.0106148948106863
 51
296.0723072821702999
  0
ARC
  5
3BC8B
  8
0
 10
4932.8201971549478912
 20
4.3454739827651396
 30
0.0
 40
0.0629921260000159
 50
190.1763691233445002
 51
240.0106148948109137
  0
ARC
  5
3BC8C
  8
0
 10
4932.8201971549478912
 20
4.3454739827651361
 30
0.0
 40
0.062992125999988
 50
115.2214088462859962
 51
190.1763691233443012
  0
CIRCLE
  5
3BC8D
  8
0
 10
4932.8182286510473205
 20
4.3435054788651293
 30
0.0
 40
0.0196850393999997
  0
ARC
  5
3BC8E
  8
0
 10
4932.8196288858507614
 20
4.3431605468384431
 30
0.0
 40
0.057437784610256
 50
36.6451033815257219
 51
130.5377574185970957
  0
ARC
  5
3BC8F
  8
0
 10
4932.8200876009368585
 20
4.3435017793221471
 30
0.0
 40
0.0568660686509615
 50
320.2471873315217863
 51
36.6451033815251108
  0
ARC
  5
3BC90
  8
0
 10
4932.8196244758801186
 20
4.3438869948282877
 30
0.0
 40
0.0574684603873492
 50
242.8379451993772022
 51
320.2471873315221274
  0
ARC
  5
3BC91
  8
0
 10
4932.8194306894629335
 20
4.3435093122093242
 30
0.0
 40
0.0570439638199196
 50
130.6141480322148141
 51
242.8379451993772875
  0
ARC
  5
3BC92
  8
0
 10
4932.8201971549478912
 20
4.1092535103651304
 30
0.0
 40
0.0629921259999978
 50
359.9999999999984084
 51
115.2214088462875026
  0
ARC
  5
3BC93
  8
0
 10
4932.8201971549478912
 20
4.1092535103651304
 30
0.0
 40
0.0629921260000046
 50
296.0723072821705273
 51
359.9999999999990905
  0
ARC
  5
3BC94
  8
0
 10
4932.8201971549478912
 20
4.1092535103651189
 30
0.0
 40
0.0629921259999914
 50
240.0106148948106863
 51
296.0723072821702999
  0
ARC
  5
3BC95
  8
0
 10
4932.8201971549478912
 20
4.1092535103651402
 30
0.0
 40
0.0629921260000159
 50
190.1763691233445002
 51
240.0106148948109137
  0
ARC
  5
3BC96
  8
0
 10
4932.8201971549478912
 20
4.1092535103651349
 30
0.0
 40
0.062992125999988
 50
115.2214088462859962
 51
190.1763691233443012
  0
CIRCLE
  5
3BC97
  8
0
 10
4932.8182286510473205
 20
4.1072850064651281
 30
0.0
 40
0.0196850393999997
  0
ARC
  5
3BC98
  8
0
 10
4932.8196288858507614
 20
4.1069400744384419
 30
0.0
 40
0.057437784610256
 50
36.6451033815257219
 51
130.5377574185970957
  0
ARC
  5
3BC99
  8
0
 10
4932.8200876009368585
 20
4.1072813069221468
 30
0.0
 40
0.0568660686509615
 50
320.2471873315217863
 51
36.6451033815251108
  0
ARC
  5
3BC9A
  8
0
 10
4932.8196244758801186
 20
4.1076665224282882
 30
0.0
 40
0.0574684603873492
 50
242.8379451993772022
 51
320.2471873315221274
  0
ARC
  5
3BC9B
  8
0
 10
4932.8194306894629335
 20
4.107288839809323
 30
0.0
 40
0.0570439638199196
 50
130.6141480322148141
 51
242.8379451993772875
  0
ARC
  5
3BC9C
  8
0
 10
4932.8201971549478912
 20
3.8730330378651301
 30
0.0
 40
0.0629921259999978
 50
359.9999999999984084
 51
115.2214088462875026
  0
ARC
  5
3BC9D
  8
0
 10
4932.8201971549478912
 20
3.8730330378651301
 30
0.0
 40
0.0629921260000046
 50
296.0723072821705273
 51
359.9999999999990905
  0
ARC
  5
3BC9E
  8
0
 10
4932.8201971549478912
 20
3.873033037865119
 30
0.0
 40
0.0629921259999914
 50
240.0106148948106863
 51
296.0723072821702999
  0
ARC
  5
3BC9F
  8
0
 10
4932.8201971549478912
 20
3.873033037865139
 30
0.0
 40
0.0629921260000159
 50
190.1763691233445002
 51
240.0106148948109137
  0
ARC
  5
3BCA0
  8
0
 10
4932.8201971549478912
 20
3.873033037865135
 30
0.0
 40
0.062992125999988
 50
115.2214088462859962
 51
190.1763691233443012
  0
CIRCLE
  5
3BCA1
  8
0
 10
4932.8182286510473205
 20
3.8710645339651282
 30
0.0
 40
0.0196850393999997
  0
ARC
  5
3BCA2
  8
0
 10
4932.8196288858507614
 20
3.870719601938442
 30
0.0
 40
0.057437784610256
 50
36.6451033815257219
 51
130.5377574185970957
  0
ARC
  5
3BCA3
  8
0
 10
4932.8200876009368585
 20
3.8710608344221469
 30
0.0
 40
0.0568660686509615
 50
320.2471873315217863
 51
36.6451033815251108
  0
ARC
  5
3BCA4
  8
0
 10
4932.8196244758801186
 20
3.871446049928287
 30
0.0
 40
0.0574684603873492
 50
242.8379451993772022
 51
320.2471873315221274
  0
ARC
  5
3BCA5
  8
0
 10
4932.8194306894629335
 20
3.8710683673093231
 30
0.0
 40
0.0570439638199196
 50
130.6141480322148141
 51
242.8379451993772875
  0
ARC
  5
3BCA6
  8
0
 10
4932.8201971549478912
 20
3.6368125654651302
 30
0.0
 40
0.0629921259999978
 50
359.9999999999984084
 51
115.2214088462875026
  0
ARC
  5
3BCA7
  8
0
 10
4932.8201971549478912
 20
3.6368125654651302
 30
0.0
 40
0.0629921260000046
 50
296.0723072821705273
 51
359.9999999999990905
  0
ARC
  5
3BCA8
  8
0
 10
4932.8201971549478912
 20
3.6368125654651191
 30
0.0
 40
0.0629921259999914
 50
240.0106148948106863
 51
296.0723072821702999
  0
ARC
  5
3BCA9
  8
0
 10
4932.8201971549478912
 20
3.63681256546514
 30
0.0
 40
0.0629921260000159
 50
190.1763691233445002
 51
240.0106148948109137
  0
ARC
  5
3BCAA
  8
0
 10
4932.8201971549478912
 20
3.6368125654651351
 30
0.0
 40
0.062992125999988
 50
115.2214088462859962
 51
190.1763691233443012
  0
CIRCLE
  5
3BCAB
  8
0
 10
4932.8182286510473205
 20
3.6348440615651292
 30
0.0
 40
0.0196850393999997
  0
ARC
  5
3BCAC
  8
0
 10
4932.8196288858507614
 20
3.634499129538443
 30
0.0
 40
0.057437784610256
 50
36.6451033815257219
 51
130.5377574185970957
  0
ARC
  5
3BCAD
  8
0
 10
4932.8200876009368585
 20
3.634840362022147
 30
0.0
 40
0.0568660686509615
 50
320.2471873315217863
 51
36.6451033815251108
  0
ARC
  5
3BCAE
  8
0
 10
4932.8196244758801186
 20
3.635225577528288
 30
0.0
 40
0.0574684603873492
 50
242.8379451993772022
 51
320.2471873315221274
  0
ARC
  5
3BCAF
  8
0
 10
4932.8194306894629335
 20
3.6348478949093241
 30
0.0
 40
0.0570439638199196
 50
130.6141480322148141
 51
242.8379451993772875
  0
ARC
  5
3BCB0
  8
0
 10
4932.8201971549478912
 20
3.4005920929651299
 30
0.0
 40
0.0629921259999978
 50
359.9999999999984084
 51
115.2214088462875026
  0
ARC
  5
3BCB1
  8
0
 10
4932.8201971549478912
 20
3.4005920929651299
 30
0.0
 40
0.0629921260000046
 50
296.0723072821705273
 51
359.9999999999990905
  0
ARC
  5
3BCB2
  8
0
 10
4932.8201971549478912
 20
3.4005920929651192
 30
0.0
 40
0.0629921259999914
 50
240.0106148948106863
 51
296.0723072821702999
  0
ARC
  5
3BCB3
  8
0
 10
4932.8201971549478912
 20
3.4005920929651401
 30
0.0
 40
0.0629921260000159
 50
190.1763691233445002
 51
240.0106148948109137
  0
ARC
  5
3BCB4
  8
0
 10
4932.8201971549478912
 20
3.4005920929651352
 30
0.0
 40
0.062992125999988
 50
115.2214088462859962
 51
190.1763691233443012
  0
CIRCLE
  5
3BCB5
  8
0
 10
4932.8182286510473205
 20
3.398623589065128
 30
0.0
 40
0.0196850393999997
  0
ARC
  5
3BCB6
  8
0
 10
4932.8196288858507614
 20
3.3982786570384418
 30
0.0
 40
0.057437784610256
 50
36.6451033815257219
 51
130.5377574185970957
  0
ARC
  5
3BCB7
  8
0
 10
4932.8200876009368585
 20
3.3986198895221471
 30
0.0
 40
0.0568660686509615
 50
320.2471873315217863
 51
36.6451033815251108
  0
ARC
  5
3BCB8
  8
0
 10
4932.8196244758801186
 20
3.3990051050282881
 30
0.0
 40
0.0574684603873492
 50
242.8379451993772022
 51
320.2471873315221274
  0
ARC
  5
3BCB9
  8
0
 10
4932.8194306894629335
 20
3.3986274224093229
 30
0.0
 40
0.0570439638199196
 50
130.6141480322148141
 51
242.8379451993772875
  0
ARC
  5
3BCBA
  8
0
 10
4932.8201971549478912
 20
3.1643716205651291
 30
0.0
 40
0.0629921259999978
 50
359.9999999999984084
 51
115.2214088462875026
  0
ARC
  5
3BCBB
  8
0
 10
4932.8201971549478912
 20
3.1643716205651291
 30
0.0
 40
0.0629921260000046
 50
296.0723072821705273
 51
359.9999999999990905
  0
ARC
  5
3BCBC
  8
0
 10
4932.8201971549478912
 20
3.1643716205651189
 30
0.0
 40
0.0629921259999914
 50
240.0106148948106863
 51
296.0723072821702999
  0
ARC
  5
3BCBD
  8
0
 10
4932.8201971549478912
 20
3.1643716205651389
 30
0.0
 40
0.0629921260000159
 50
190.1763691233445002
 51
240.0106148948109137
  0
ARC
  5
3BCBE
  8
0
 10
4932.8201971549478912
 20
3.1643716205651349
 30
0.0
 40
0.062992125999988
 50
115.2214088462859962
 51
190.1763691233443012
  0
CIRCLE
  5
3BCBF
  8
0
 10
4932.8182286510473205
 20
3.1624031166651281
 30
0.0
 40
0.0196850393999997
  0
ARC
  5
3BCC0
  8
0
 10
4932.8196288858507614
 20
3.1620581846384419
 30
0.0
 40
0.057437784610256
 50
36.6451033815257219
 51
130.5377574185970957
  0
ARC
  5
3BCC1
  8
0
 10
4932.8200876009368585
 20
3.1623994171221468
 30
0.0
 40
0.0568660686509615
 50
320.2471873315217863
 51
36.6451033815251108
  0
ARC
  5
3BCC2
  8
0
 10
4932.8196244758801186
 20
3.1627846326282869
 30
0.0
 40
0.0574684603873492
 50
242.8379451993772022
 51
320.2471873315221274
  0
ARC
  5
3BCC3
  8
0
 10
4932.8194306894629335
 20
3.162406950009323
 30
0.0
 40
0.0570439638199196
 50
130.6141480322148141
 51
242.8379451993772875
  0
ARC
  5
3BCC4
  8
0
 10
4932.8201971549478912
 20
2.9281511480651301
 30
0.0
 40
0.0629921259999978
 50
359.9999999999984084
 51
115.2214088462875026
  0
ARC
  5
3BCC5
  8
0
 10
4932.8201971549478912
 20
2.9281511480651301
 30
0.0
 40
0.0629921260000046
 50
296.0723072821705273
 51
359.9999999999990905
  0
ARC
  5
3BCC6
  8
0
 10
4932.8201971549478912
 20
2.928151148065119
 30
0.0
 40
0.0629921259999914
 50
240.0106148948106863
 51
296.0723072821702999
  0
ARC
  5
3BCC7
  8
0
 10
4932.8201971549478912
 20
2.9281511480651399
 30
0.0
 40
0.0629921260000159
 50
190.1763691233445002
 51
240.0106148948109137
  0
ARC
  5
3BCC8
  8
0
 10
4932.8201971549478912
 20
2.928151148065135
 30
0.0
 40
0.062992125999988
 50
115.2214088462859962
 51
190.1763691233443012
  0
CIRCLE
  5
3BCC9
  8
0
 10
4932.8182286510473205
 20
2.9261826441651291
 30
0.0
 40
0.0196850393999997
  0
ARC
  5
3BCCA
  8
0
 10
4932.8196288858507614
 20
2.925837712138442
 30
0.0
 40
0.057437784610256
 50
36.6451033815257219
 51
130.5377574185970957
  0
ARC
  5
3BCCB
  8
0
 10
4932.8200876009368585
 20
2.9261789446221469
 30
0.0
 40
0.0568660686509615
 50
320.2471873315217863
 51
36.6451033815251108
  0
ARC
  5
3BCCC
  8
0
 10
4932.8196244758801186
 20
2.9265641601282879
 30
0.0
 40
0.0574684603873492
 50
242.8379451993772022
 51
320.2471873315221274
  0
ARC
  5
3BCCD
  8
0
 10
4932.8194306894629335
 20
2.926186477509324
 30
0.0
 40
0.0570439638199196
 50
130.6141480322148141
 51
242.8379451993772875
  0
ARC
  5
3BCCE
  8
0
 10
4932.8201971549478912
 20
2.6919306756651298
 30
0.0
 40
0.0629921259999978
 50
359.9999999999984084
 51
115.2214088462875026
  0
ARC
  5
3BCCF
  8
0
 10
4932.8201971549478912
 20
2.6919306756651298
 30
0.0
 40
0.0629921260000046
 50
296.0723072821705273
 51
359.9999999999990905
  0
ARC
  5
3BCD0
  8
0
 10
4932.8201971549478912
 20
2.6919306756651191
 30
0.0
 40
0.0629921259999914
 50
240.0106148948106863
 51
296.0723072821702999
  0
ARC
  5
3BCD1
  8
0
 10
4932.8201971549478912
 20
2.6919306756651391
 30
0.0
 40
0.0629921260000159
 50
190.1763691233445002
 51
240.0106148948109137
  0
ARC
  5
3BCD2
  8
0
 10
4932.8201971549478912
 20
2.6919306756651351
 30
0.0
 40
0.062992125999988
 50
115.2214088462859962
 51
190.1763691233443012
  0
CIRCLE
  5
3BCD3
  8
0
 10
4932.8182286510473205
 20
2.6899621717651279
 30
0.0
 40
0.0196850393999997
  0
ARC
  5
3BCD4
  8
0
 10
4932.8196288858507614
 20
2.6896172397384421
 30
0.0
 40
0.057437784610256
 50
36.6451033815257219
 51
130.5377574185970957
  0
ARC
  5
3BCD5
  8
0
 10
4932.8200876009368585
 20
2.689958472222147
 30
0.0
 40
0.0568660686509615
 50
320.2471873315217863
 51
36.6451033815251108
  0
ARC
  5
3BCD6
  8
0
 10
4932.8196244758801186
 20
2.690343687728288
 30
0.0
 40
0.0574684603873492
 50
242.8379451993772022
 51
320.2471873315221274
  0
ARC
  5
3BCD7
  8
0
 10
4932.8194306894629335
 20
2.6899660051093228
 30
0.0
 40
0.0570439638199196
 50
130.6141480322148141
 51
242.8379451993772875
  0
ARC
  5
3BCD8
  8
0
 10
4932.8201971549478912
 20
2.4557102032651299
 30
0.0
 40
0.0629921259999978
 50
359.9999999999984084
 51
115.2214088462875026
  0
ARC
  5
3BCD9
  8
0
 10
4932.8201971549478912
 20
2.4557102032651299
 30
0.0
 40
0.0629921260000046
 50
296.0723072821705273
 51
359.9999999999990905
  0
ARC
  5
3BCDA
  8
0
 10
4932.8201971549478912
 20
2.4557102032651201
 30
0.0
 40
0.0629921259999914
 50
240.0106148948106863
 51
296.0723072821702999
  0
ARC
  5
3BCDB
  8
0
 10
4932.8201971549478912
 20
2.4557102032651401
 30
0.0
 40
0.0629921260000159
 50
190.1763691233445002
 51
240.0106148948109137
  0
ARC
  5
3BCDC
  8
0
 10
4932.8201971549478912
 20
2.4557102032651361
 30
0.0
 40
0.062992125999988
 50
115.2214088462859962
 51
190.1763691233443012
  0
CIRCLE
  5
3BCDD
  8
0
 10
4932.8182286510473205
 20
2.4537416993651289
 30
0.0
 40
0.0196850393999997
  0
ARC
  5
3BCDE
  8
0
 10
4932.8196288858507614
 20
2.4533967673384431
 30
0.0
 40
0.057437784610256
 50
36.6451033815257219
 51
130.5377574185970957
  0
ARC
  5
3BCDF
  8
0
 10
4932.8200876009368585
 20
2.453737999822148
 30
0.0
 40
0.0568660686509615
 50
320.2471873315217863
 51
36.6451033815251108
  0
ARC
  5
3BCE0
  8
0
 10
4932.8196244758801186
 20
2.4541232153282881
 30
0.0
 40
0.0574684603873492
 50
242.8379451993772022
 51
320.2471873315221274
  0
ARC
  5
3BCE1
  8
0
 10
4932.8194306894629335
 20
2.4537455327093238
 30
0.0
 40
0.0570439638199196
 50
130.6141480322148141
 51
242.8379451993772875
  0
ARC
  5
3BCE2
  8
0
 10
4932.8201971549478912
 20
2.21948973076513
 30
0.0
 40
0.0629921259999978
 50
359.9999999999984084
 51
115.2214088462875026
  0
ARC
  5
3BCE3
  8
0
 10
4932.8201971549478912
 20
2.21948973076513
 30
0.0
 40
0.0629921260000046
 50
296.0723072821705273
 51
359.9999999999990905
  0
ARC
  5
3BCE4
  8
0
 10
4932.8201971549478912
 20
2.2194897307651189
 30
0.0
 40
0.0629921259999914
 50
240.0106148948106863
 51
296.0723072821702999
  0
ARC
  5
3BCE5
  8
0
 10
4932.8201971549478912
 20
2.2194897307651398
 30
0.0
 40
0.0629921260000159
 50
190.1763691233445002
 51
240.0106148948109137
  0
ARC
  5
3BCE6
  8
0
 10
4932.8201971549478912
 20
2.2194897307651349
 30
0.0
 40
0.062992125999988
 50
115.2214088462859962
 51
190.1763691233443012
  0
CIRCLE
  5
3BCE7
  8
0
 10
4932.8182286510473205
 20
2.2175212268651281
 30
0.0
 40
0.0196850393999997
  0
ARC
  5
3BCE8
  8
0
 10
4932.8196288858507614
 20
2.2171762948384419
 30
0.0
 40
0.057437784610256
 50
36.6451033815257219
 51
130.5377574185970957
  0
ARC
  5
3BCE9
  8
0
 10
4932.8200876009368585
 20
2.2175175273221468
 30
0.0
 40
0.0568660686509615
 50
320.2471873315217863
 51
36.6451033815251108
  0
ARC
  5
3BCEA
  8
0
 10
4932.8196244758801186
 20
2.2179027428282878
 30
0.0
 40
0.0574684603873492
 50
242.8379451993772022
 51
320.2471873315221274
  0
ARC
  5
3BCEB
  8
0
 10
4932.8194306894629335
 20
2.2175250602093231
 30
0.0
 40
0.0570439638199196
 50
130.6141480322148141
 51
242.8379451993772875
  0
ARC
  5
3BCEC
  8
0
 10
4932.9776774699466841
 20
4.3454739827651299
 30
0.0
 40
0.0629921259999978
 50
359.9999999999984084
 51
115.2214088462875026
  0
ARC
  5
3BCED
  8
0
 10
4932.9776774699466841
 20
4.3454739827651299
 30
0.0
 40
0.0629921260000046
 50
296.0723072821705273
 51
359.9999999999990905
  0
ARC
  5
3BCEE
  8
0
 10
4932.9776774699466841
 20
4.3454739827651201
 30
0.0
 40
0.0629921259999914
 50
240.0106148948106863
 51
296.0723072821702999
  0
ARC
  5
3BCEF
  8
0
 10
4932.9776774699466841
 20
4.3454739827651396
 30
0.0
 40
0.0629921260000159
 50
190.1763691233445002
 51
240.0106148948109137
  0
ARC
  5
3BCF0
  8
0
 10
4932.9776774699466841
 20
4.3454739827651361
 30
0.0
 40
0.062992125999988
 50
115.2214088462859962
 51
190.1763691233443012
  0
CIRCLE
  5
3BCF1
  8
0
 10
4932.9757089660479323
 20
4.3435054788651293
 30
0.0
 40
0.0196850393999997
  0
ARC
  5
3BCF2
  8
0
 10
4932.9782319845171514
 20
4.3431515906433749
 30
0.0
 40
0.0574452387914175
 50
37.0976684045944012
 51
131.3720891234590908
  0
ARC
  5
3BCF3
  8
0
 10
4932.9786328854615931
 20
4.3435036069111703
 30
0.0
 40
0.0569131625329575
 50
319.5502894066673889
 51
37.0584489797442274
  0
ARC
  5
3BCF4
  8
0
 10
4932.9782305814924257
 20
4.343870084165399
 30
0.0
 40
0.0574570721112385
 50
241.616857016198594
 51
319.5324662158299134
  0
ARC
  5
3BCF5
  8
0
 10
4932.9779235253681691
 20
4.3434965148061142
 30
0.0
 40
0.0569825214231393
 50
131.3685682913796882
 51
241.7099284079696133
  0
ARC
  5
3BCF6
  8
0
 10
4932.9776774699466841
 20
4.1092535103651304
 30
0.0
 40
0.0629921259999978
 50
359.9999999999984084
 51
115.2214088462875026
  0
ARC
  5
3BCF7
  8
0
 10
4932.9776774699466841
 20
4.1092535103651304
 30
0.0
 40
0.0629921260000046
 50
296.0723072821705273
 51
359.9999999999990905
  0
ARC
  5
3BCF8
  8
0
 10
4932.9776774699466841
 20
4.1092535103651189
 30
0.0
 40
0.0629921259999914
 50
240.0106148948106863
 51
296.0723072821702999
  0
ARC
  5
3BCF9
  8
0
 10
4932.9776774699466841
 20
4.1092535103651402
 30
0.0
 40
0.0629921260000159
 50
190.1763691233445002
 51
240.0106148948109137
  0
ARC
  5
3BCFA
  8
0
 10
4932.9776774699466841
 20
4.1092535103651349
 30
0.0
 40
0.062992125999988
 50
115.2214088462859962
 51
190.1763691233443012
  0
CIRCLE
  5
3BCFB
  8
0
 10
4932.9757089660479323
 20
4.1072850064651281
 30
0.0
 40
0.0196850393999997
  0
ARC
  5
3BCFC
  8
0
 10
4932.9782319845171514
 20
4.1069311182433754
 30
0.0
 40
0.0574452387914175
 50
37.0976684045944012
 51
131.3720891234590908
  0
ARC
  5
3BCFD
  8
0
 10
4932.9786328854615931
 20
4.1072831345111691
 30
0.0
 40
0.0569131625329575
 50
319.5502894066673889
 51
37.0584489797442274
  0
ARC
  5
3BCFE
  8
0
 10
4932.9782305814924257
 20
4.1076496117653987
 30
0.0
 40
0.0574570721112385
 50
241.616857016198594
 51
319.5324662158299134
  0
ARC
  5
3BCFF
  8
0
 10
4932.9779235253681691
 20
4.107276042406113
 30
0.0
 40
0.0569825214231393
 50
131.3685682913796882
 51
241.7099284079696133
  0
ARC
  5
3BD00
  8
0
 10
4932.9776774699466841
 20
3.8730330378651301
 30
0.0
 40
0.0629921259999978
 50
359.9999999999984084
 51
115.2214088462875026
  0
ARC
  5
3BD01
  8
0
 10
4932.9776774699466841
 20
3.8730330378651301
 30
0.0
 40
0.0629921260000046
 50
296.0723072821705273
 51
359.9999999999990905
  0
ARC
  5
3BD02
  8
0
 10
4932.9776774699466841
 20
3.873033037865119
 30
0.0
 40
0.0629921259999914
 50
240.0106148948106863
 51
296.0723072821702999
  0
ARC
  5
3BD03
  8
0
 10
4932.9776774699466841
 20
3.873033037865139
 30
0.0
 40
0.0629921260000159
 50
190.1763691233445002
 51
240.0106148948109137
  0
ARC
  5
3BD04
  8
0
 10
4932.9776774699466841
 20
3.873033037865135
 30
0.0
 40
0.062992125999988
 50
115.2214088462859962
 51
190.1763691233443012
  0
CIRCLE
  5
3BD05
  8
0
 10
4932.9757089660479323
 20
3.8710645339651282
 30
0.0
 40
0.0196850393999997
  0
ARC
  5
3BD06
  8
0
 10
4932.9782319845171514
 20
3.8707106457433751
 30
0.0
 40
0.0574452387914175
 50
37.0976684045944012
 51
131.3720891234590908
  0
ARC
  5
3BD07
  8
0
 10
4932.9786328854615931
 20
3.8710626620111692
 30
0.0
 40
0.0569131625329575
 50
319.5502894066673889
 51
37.0584489797442274
  0
ARC
  5
3BD08
  8
0
 10
4932.9782305814924257
 20
3.8714291392653992
 30
0.0
 40
0.0574570721112385
 50
241.616857016198594
 51
319.5324662158299134
  0
ARC
  5
3BD09
  8
0
 10
4932.9779235253681691
 20
3.8710555699061131
 30
0.0
 40
0.0569825214231393
 50
131.3685682913796882
 51
241.7099284079696133
  0
ARC
  5
3BD0A
  8
0
 10
4932.9776774699466841
 20
3.6368125654651302
 30
0.0
 40
0.0629921259999978
 50
359.9999999999984084
 51
115.2214088462875026
  0
ARC
  5
3BD0B
  8
0
 10
4932.9776774699466841
 20
3.6368125654651302
 30
0.0
 40
0.0629921260000046
 50
296.0723072821705273
 51
359.9999999999990905
  0
ARC
  5
3BD0C
  8
0
 10
4932.9776774699466841
 20
3.6368125654651191
 30
0.0
 40
0.0629921259999914
 50
240.0106148948106863
 51
296.0723072821702999
  0
ARC
  5
3BD0D
  8
0
 10
4932.9776774699466841
 20
3.63681256546514
 30
0.0
 40
0.0629921260000159
 50
190.1763691233445002
 51
240.0106148948109137
  0
ARC
  5
3BD0E
  8
0
 10
4932.9776774699466841
 20
3.6368125654651351
 30
0.0
 40
0.062992125999988
 50
115.2214088462859962
 51
190.1763691233443012
  0
CIRCLE
  5
3BD0F
  8
0
 10
4932.9757089660479323
 20
3.6348440615651292
 30
0.0
 40
0.0196850393999997
  0
ARC
  5
3BD10
  8
0
 10
4932.9782319845171514
 20
3.6344901733433752
 30
0.0
 40
0.0574452387914175
 50
37.0976684045944012
 51
131.3720891234590908
  0
ARC
  5
3BD11
  8
0
 10
4932.9786328854615931
 20
3.6348421896111698
 30
0.0
 40
0.0569131625329575
 50
319.5502894066673889
 51
37.0584489797442274
  0
ARC
  5
3BD12
  8
0
 10
4932.9782305814924257
 20
3.6352086668653989
 30
0.0
 40
0.0574570721112385
 50
241.616857016198594
 51
319.5324662158299134
  0
ARC
  5
3BD13
  8
0
 10
4932.9779235253681691
 20
3.6348350975061141
 30
0.0
 40
0.0569825214231393
 50
131.3685682913796882
 51
241.7099284079696133
  0
ARC
  5
3BD14
  8
0
 10
4932.9776774699466841
 20
3.4005920929651299
 30
0.0
 40
0.0629921259999978
 50
359.9999999999984084
 51
115.2214088462875026
  0
ARC
  5
3BD15
  8
0
 10
4932.9776774699466841
 20
3.4005920929651299
 30
0.0
 40
0.0629921260000046
 50
296.0723072821705273
 51
359.9999999999990905
  0
ARC
  5
3BD16
  8
0
 10
4932.9776774699466841
 20
3.4005920929651192
 30
0.0
 40
0.0629921259999914
 50
240.0106148948106863
 51
296.0723072821702999
  0
ARC
  5
3BD17
  8
0
 10
4932.9776774699466841
 20
3.4005920929651401
 30
0.0
 40
0.0629921260000159
 50
190.1763691233445002
 51
240.0106148948109137
  0
ARC
  5
3BD18
  8
0
 10
4932.9776774699466841
 20
3.4005920929651352
 30
0.0
 40
0.062992125999988
 50
115.2214088462859962
 51
190.1763691233443012
  0
CIRCLE
  5
3BD19
  8
0
 10
4932.9757089660479323
 20
3.398623589065128
 30
0.0
 40
0.0196850393999997
  0
ARC
  5
3BD1A
  8
0
 10
4932.9782319845171514
 20
3.3982697008433749
 30
0.0
 40
0.0574452387914175
 50
37.0976684045944012
 51
131.3720891234590908
  0
ARC
  5
3BD1B
  8
0
 10
4932.9786328854615931
 20
3.398621717111169
 30
0.0
 40
0.0569131625329575
 50
319.5502894066673889
 51
37.0584489797442274
  0
ARC
  5
3BD1C
  8
0
 10
4932.9782305814924257
 20
3.398988194365399
 30
0.0
 40
0.0574570721112385
 50
241.616857016198594
 51
319.5324662158299134
  0
ARC
  5
3BD1D
  8
0
 10
4932.9779235253681691
 20
3.3986146250061129
 30
0.0
 40
0.0569825214231393
 50
131.3685682913796882
 51
241.7099284079696133
  0
ARC
  5
3BD1E
  8
0
 10
4932.9776774699466841
 20
3.1643716205651291
 30
0.0
 40
0.0629921259999978
 50
359.9999999999984084
 51
115.2214088462875026
  0
ARC
  5
3BD1F
  8
0
 10
4932.9776774699466841
 20
3.1643716205651291
 30
0.0
 40
0.0629921260000046
 50
296.0723072821705273
 51
359.9999999999990905
  0
ARC
  5
3BD20
  8
0
 10
4932.9776774699466841
 20
3.1643716205651189
 30
0.0
 40
0.0629921259999914
 50
240.0106148948106863
 51
296.0723072821702999
  0
ARC
  5
3BD21
  8
0
 10
4932.9776774699466841
 20
3.1643716205651389
 30
0.0
 40
0.0629921260000159
 50
190.1763691233445002
 51
240.0106148948109137
  0
ARC
  5
3BD22
  8
0
 10
4932.9776774699466841
 20
3.1643716205651349
 30
0.0
 40
0.062992125999988
 50
115.2214088462859962
 51
190.1763691233443012
  0
CIRCLE
  5
3BD23
  8
0
 10
4932.9757089660479323
 20
3.1624031166651281
 30
0.0
 40
0.0196850393999997
  0
ARC
  5
3BD24
  8
0
 10
4932.9782319845171514
 20
3.1620492284433741
 30
0.0
 40
0.0574452387914175
 50
37.0976684045944012
 51
131.3720891234590908
  0
ARC
  5
3BD25
  8
0
 10
4932.9786328854615931
 20
3.1624012447111691
 30
0.0
 40
0.0569131625329575
 50
319.5502894066673889
 51
37.0584489797442274
  0
ARC
  5
3BD26
  8
0
 10
4932.9782305814924257
 20
3.1627677219653991
 30
0.0
 40
0.0574570721112385
 50
241.616857016198594
 51
319.5324662158299134
  0
ARC
  5
3BD27
  8
0
 10
4932.9779235253681691
 20
3.162394152606113
 30
0.0
 40
0.0569825214231393
 50
131.3685682913796882
 51
241.7099284079696133
  0
ARC
  5
3BD28
  8
0
 10
4932.9776774699466841
 20
2.9281511480651301
 30
0.0
 40
0.0629921259999978
 50
359.9999999999984084
 51
115.2214088462875026
  0
ARC
  5
3BD29
  8
0
 10
4932.9776774699466841
 20
2.9281511480651301
 30
0.0
 40
0.0629921260000046
 50
296.0723072821705273
 51
359.9999999999990905
  0
ARC
  5
3BD2A
  8
0
 10
4932.9776774699466841
 20
2.928151148065119
 30
0.0
 40
0.0629921259999914
 50
240.0106148948106863
 51
296.0723072821702999
  0
ARC
  5
3BD2B
  8
0
 10
4932.9776774699466841
 20
2.9281511480651399
 30
0.0
 40
0.0629921260000159
 50
190.1763691233445002
 51
240.0106148948109137
  0
ARC
  5
3BD2C
  8
0
 10
4932.9776774699466841
 20
2.928151148065135
 30
0.0
 40
0.062992125999988
 50
115.2214088462859962
 51
190.1763691233443012
  0
CIRCLE
  5
3BD2D
  8
0
 10
4932.9757089660479323
 20
2.9261826441651291
 30
0.0
 40
0.0196850393999997
  0
ARC
  5
3BD2E
  8
0
 10
4932.9782319845171514
 20
2.9258287559433751
 30
0.0
 40
0.0574452387914175
 50
37.0976684045944012
 51
131.3720891234590908
  0
ARC
  5
3BD2F
  8
0
 10
4932.9786328854615931
 20
2.9261807722111701
 30
0.0
 40
0.0569131625329575
 50
319.5502894066673889
 51
37.0584489797442274
  0
ARC
  5
3BD30
  8
0
 10
4932.9782305814924257
 20
2.9265472494653988
 30
0.0
 40
0.0574570721112385
 50
241.616857016198594
 51
319.5324662158299134
  0
ARC
  5
3BD31
  8
0
 10
4932.9779235253681691
 20
2.926173680106114
 30
0.0
 40
0.0569825214231393
 50
131.3685682913796882
 51
241.7099284079696133
  0
ARC
  5
3BD32
  8
0
 10
4932.9776774699466841
 20
2.6919306756651298
 30
0.0
 40
0.0629921259999978
 50
359.9999999999984084
 51
115.2214088462875026
  0
ARC
  5
3BD33
  8
0
 10
4932.9776774699466841
 20
2.6919306756651298
 30
0.0
 40
0.0629921260000046
 50
296.0723072821705273
 51
359.9999999999990905
  0
ARC
  5
3BD34
  8
0
 10
4932.9776774699466841
 20
2.6919306756651191
 30
0.0
 40
0.0629921259999914
 50
240.0106148948106863
 51
296.0723072821702999
  0
ARC
  5
3BD35
  8
0
 10
4932.9776774699466841
 20
2.6919306756651391
 30
0.0
 40
0.0629921260000159
 50
190.1763691233445002
 51
240.0106148948109137
  0
ARC
  5
3BD36
  8
0
 10
4932.9776774699466841
 20
2.6919306756651351
 30
0.0
 40
0.062992125999988
 50
115.2214088462859962
 51
190.1763691233443012
  0
CIRCLE
  5
3BD37
  8
0
 10
4932.9757089660479323
 20
2.6899621717651279
 30
0.0
 40
0.0196850393999997
  0
ARC
  5
3BD38
  8
0
 10
4932.9782319845171514
 20
2.6896082835433748
 30
0.0
 40
0.0574452387914175
 50
37.0976684045944012
 51
131.3720891234590908
  0
ARC
  5
3BD39
  8
0
 10
4932.9786328854615931
 20
2.6899602998111689
 30
0.0
 40
0.0569131625329575
 50
319.5502894066673889
 51
37.0584489797442274
  0
ARC
  5
3BD3A
  8
0
 10
4932.9782305814924257
 20
2.6903267770653989
 30
0.0
 40
0.0574570721112385
 50
241.616857016198594
 51
319.5324662158299134
  0
ARC
  5
3BD3B
  8
0
 10
4932.9779235253681691
 20
2.6899532077061128
 30
0.0
 40
0.0569825214231393
 50
131.3685682913796882
 51
241.7099284079696133
  0
ARC
  5
3BD3C
  8
0
 10
4932.9776774699466841
 20
2.4557102032651299
 30
0.0
 40
0.0629921259999978
 50
359.9999999999984084
 51
115.2214088462875026
  0
ARC
  5
3BD3D
  8
0
 10
4932.9776774699466841
 20
2.4557102032651299
 30
0.0
 40
0.0629921260000046
 50
296.0723072821705273
 51
359.9999999999990905
  0
ARC
  5
3BD3E
  8
0
 10
4932.9776774699466841
 20
2.4557102032651201
 30
0.0
 40
0.0629921259999914
 50
240.0106148948106863
 51
296.0723072821702999
  0
ARC
  5
3BD3F
  8
0
 10
4932.9776774699466841
 20
2.4557102032651401
 30
0.0
 40
0.0629921260000159
 50
190.1763691233443865
 51
240.0106148948109137
  0
ARC
  5
3BD40
  8
0
 10
4932.9776774699466841
 20
2.4557102032651361
 30
0.0
 40
0.062992125999988
 50
115.2214088462859962
 51
190.1763691233443012
  0
CIRCLE
  5
3BD41
  8
0
 10
4932.9757089660479323
 20
2.4537416993651289
 30
0.0
 40
0.0196850393999997
  0
ARC
  5
3BD42
  8
0
 10
4932.9782319845171514
 20
2.4533878111433749
 30
0.0
 40
0.0574452387914175
 50
37.0976684045944012
 51
131.3720891234590908
  0
ARC
  5
3BD43
  8
0
 10
4932.9786328854615931
 20
2.4537398274111699
 30
0.0
 40
0.0569131625329575
 50
319.5502894066673889
 51
37.0584489797442274
  0
ARC
  5
3BD44
  8
0
 10
4932.9782305814924257
 20
2.454106304665399
 30
0.0
 40
0.0574570721112385
 50
241.616857016198594
 51
319.5324662158299134
  0
ARC
  5
3BD45
  8
0
 10
4932.9779235253681691
 20
2.4537327353061138
 30
0.0
 40
0.0569825214231393
 50
131.3685682913796882
 51
241.7099284079696133
  0
ARC
  5
3BD46
  8
0
 10
4932.9776774699466841
 20
2.21948973076513
 30
0.0
 40
0.0629921259999978
 50
359.9999999999984084
 51
115.2214088462875026
  0
ARC
  5
3BD47
  8
0
 10
4932.9776774699466841
 20
2.21948973076513
 30
0.0
 40
0.0629921260000046
 50
296.0723072821705273
 51
359.9999999999990905
  0
ARC
  5
3BD48
  8
0
 10
4932.9776774699466841
 20
2.2194897307651189
 30
0.0
 40
0.0629921259999914
 50
240.0106148948106863
 51
296.0723072821702999
  0
ARC
  5
3BD49
  8
0
 10
4932.9776774699466841
 20
2.2194897307651398
 30
0.0
 40
0.0629921260000159
 50
190.1763691233443865
 51
240.0106148948109137
  0
ARC
  5
3BD4A
  8
0
 10
4932.9776774699466841
 20
2.2194897307651349
 30
0.0
 40
0.062992125999988
 50
115.2214088462859962
 51
190.1763691233443012
  0
CIRCLE
  5
3BD4B
  8
0
 10
4932.9757089660479323
 20
2.2175212268651281
 30
0.0
 40
0.0196850393999997
  0
ARC
  5
3BD4C
  8
0
 10
4932.9782319845171514
 20
2.217167338643375
 30
0.0
 40
0.0574452387914175
 50
37.0976684045944012
 51
131.3720891234590908
  0
ARC
  5
3BD4D
  8
0
 10
4932.9786328854615931
 20
2.21751935491117
 30
0.0
 40
0.0569131625329575
 50
319.5502894066673889
 51
37.0584489797442274
  0
ARC
  5
3BD4E
  8
0
 10
4932.9782305814924257
 20
2.2178858321653991
 30
0.0
 40
0.0574570721112385
 50
241.616857016198594
 51
319.5324662158299134
  0
ARC
  5
3BD4F
  8
0
 10
4932.9779235253681691
 20
2.217512262806113
 30
0.0
 40
0.0569825214231393
 50
131.3685682913796882
 51
241.7099284079696133
  0
CIRCLE
  5
3BD50
  8
0
 10
4933.1331892809475903
 20
4.3435054788651293
 30
0.0
 40
0.0196850394000006
  0
ARC
  5
3BD51
  8
0
 10
4933.135157784947296
 20
4.3454739827651307
 30
0.0
 40
0.0629921259999987
 50
359.9999999999976126
 51
118.7707580711386015
  0
ARC
  5
3BD52
  8
0
 10
4933.135157784947296
 20
4.3454739827651316
 30
0.0
 40
0.0629921260000064
 50
305.5241973610844184
 51
359.9999999999980105
  0
ARC
  5
3BD53
  8
0
 10
4933.135157784947296
 20
4.3454739827651201
 30
0.0
 40
0.062992125999992
 50
249.5724363827386014
 51
305.5241973610843047
  0
ARC
  5
3BD54
  8
0
 10
4933.135157784947296
 20
4.3454739827651343
 30
0.0
 40
0.0629921260000063
 50
175.2568123637080078
 51
249.5724363827386014
  0
ARC
  5
3BD55
  8
0
 10
4933.135157784947296
 20
4.3454739827651361
 30
0.0
 40
0.0629921259999893
 50
118.7707580711367967
 51
175.2568123637082067
  0
ARC
  5
3BD56
  8
0
 10
4933.1372762306127697
 20
4.342864428940806
 30
0.0
 40
0.0610639608303425
 50
61.170534749281849
 51
146.0864219133165136
  0
ARC
  5
3BD57
  8
0
 10
4933.1362388288989678
 20
4.3435618908768641
 30
0.0
 40
0.0598138986435341
 50
146.086421913316201
 51
196.3171084594987121
  0
ARC
  5
3BD58
  8
0
 10
4933.1371780945910359
 20
4.3438368558593599
 30
0.0
 40
0.0607925843863188
 50
196.3171084594976037
 51
286.7933366857618012
  0
ARC
  5
3BD59
  8
0
 10
4933.13768397271906
 20
4.3432773310568997
 30
0.0
 40
0.0605058258731333
 50
2.080568843378336
 51
61.3202499099801983
  0
CIRCLE
  5
3BD5A
  8
0
 10
4933.1331892809475903
 20
4.1072850064651281
 30
0.0
 40
0.0196850394000006
  0
ARC
  5
3BD5B
  8
0
 10
4933.135157784947296
 20
4.1092535103651313
 30
0.0
 40
0.0629921259999987
 50
359.9999999999976126
 51
118.7707580711386015
  0
ARC
  5
3BD5C
  8
0
 10
4933.135157784947296
 20
4.1092535103651322
 30
0.0
 40
0.0629921260000064
 50
305.5241973610844184
 51
359.9999999999980105
  0
ARC
  5
3BD5D
  8
0
 10
4933.135157784947296
 20
4.1092535103651198
 30
0.0
 40
0.062992125999992
 50
249.5724363827386014
 51
305.5241973610843047
  0
ARC
  5
3BD5E
  8
0
 10
4933.135157784947296
 20
4.1092535103651331
 30
0.0
 40
0.0629921260000063
 50
175.2568123637080078
 51
249.5724363827386014
  0
ARC
  5
3BD5F
  8
0
 10
4933.135157784947296
 20
4.1092535103651349
 30
0.0
 40
0.0629921259999893
 50
118.7707580711367967
 51
175.2568123637082067
  0
ARC
  5
3BD60
  8
0
 10
4933.1372762306127697
 20
4.1066439565408057
 30
0.0
 40
0.0610639608303425
 50
61.170534749281849
 51
146.0864219133165136
  0
ARC
  5
3BD61
  8
0
 10
4933.1362388288989678
 20
4.1073414184768628
 30
0.0
 40
0.0598138986435341
 50
146.086421913316201
 51
196.3171084594987121
  0
ARC
  5
3BD62
  8
0
 10
4933.1371780945910359
 20
4.1076163834593604
 30
0.0
 40
0.0607925843863188
 50
196.3171084594976037
 51
286.7933366857618012
  0
ARC
  5
3BD63
  8
0
 10
4933.13768397271906
 20
4.1070568586569003
 30
0.0
 40
0.0605058258731333
 50
2.080568843378336
 51
61.3202499099801983
  0
CIRCLE
  5
3BD64
  8
0
 10
4933.1331892809475903
 20
3.8710645339651282
 30
0.0
 40
0.0196850394000006
  0
ARC
  5
3BD65
  8
0
 10
4933.135157784947296
 20
3.8730330378651301
 30
0.0
 40
0.0629921259999987
 50
359.9999999999976126
 51
118.7707580711386015
  0
ARC
  5
3BD66
  8
0
 10
4933.135157784947296
 20
3.873033037865131
 30
0.0
 40
0.0629921260000064
 50
305.5241973610844184
 51
359.9999999999980105
  0
ARC
  5
3BD67
  8
0
 10
4933.135157784947296
 20
3.8730330378651199
 30
0.0
 40
0.062992125999992
 50
249.5724363827386014
 51
305.5241973610843047
  0
ARC
  5
3BD68
  8
0
 10
4933.135157784947296
 20
3.8730330378651332
 30
0.0
 40
0.0629921260000063
 50
175.2568123637080078
 51
249.5724363827386014
  0
ARC
  5
3BD69
  8
0
 10
4933.135157784947296
 20
3.873033037865135
 30
0.0
 40
0.0629921259999893
 50
118.7707580711367967
 51
175.2568123637082067
  0
ARC
  5
3BD6A
  8
0
 10
4933.1372762306127697
 20
3.8704234840408058
 30
0.0
 40
0.0610639608303425
 50
61.170534749281849
 51
146.0864219133165136
  0
ARC
  5
3BD6B
  8
0
 10
4933.1362388288989678
 20
3.871120945976863
 30
0.0
 40
0.0598138986435341
 50
146.086421913316201
 51
196.3171084594987121
  0
ARC
  5
3BD6C
  8
0
 10
4933.1371780945910359
 20
3.8713959109593601
 30
0.0
 40
0.0607925843863188
 50
196.3171084594976037
 51
286.7933366857618012
  0
ARC
  5
3BD6D
  8
0
 10
4933.13768397271906
 20
3.8708363861568991
 30
0.0
 40
0.0605058258731333
 50
2.080568843378336
 51
61.3202499099801983
  0
CIRCLE
  5
3BD6E
  8
0
 10
4933.1331892809475903
 20
3.6348440615651292
 30
0.0
 40
0.0196850394000006
  0
ARC
  5
3BD6F
  8
0
 10
4933.135157784947296
 20
3.6368125654651311
 30
0.0
 40
0.0629921259999987
 50
359.9999999999976126
 51
118.7707580711386015
  0
ARC
  5
3BD70
  8
0
 10
4933.135157784947296
 20
3.636812565465132
 30
0.0
 40
0.0629921260000064
 50
305.5241973610844184
 51
359.9999999999980105
  0
ARC
  5
3BD71
  8
0
 10
4933.135157784947296
 20
3.63681256546512
 30
0.0
 40
0.062992125999992
 50
249.5724363827386014
 51
305.5241973610843047
  0
ARC
  5
3BD72
  8
0
 10
4933.135157784947296
 20
3.6368125654651342
 30
0.0
 40
0.0629921260000063
 50
175.2568123637080078
 51
249.5724363827386014
  0
ARC
  5
3BD73
  8
0
 10
4933.135157784947296
 20
3.6368125654651351
 30
0.0
 40
0.0629921259999893
 50
118.7707580711367967
 51
175.2568123637082067
  0
ARC
  5
3BD74
  8
0
 10
4933.1372762306127697
 20
3.6342030116408059
 30
0.0
 40
0.0610639608303425
 50
61.170534749281849
 51
146.0864219133165136
  0
ARC
  5
3BD75
  8
0
 10
4933.1362388288989678
 20
3.6349004735768631
 30
0.0
 40
0.0598138986435341
 50
146.086421913316201
 51
196.3171084594987121
  0
ARC
  5
3BD76
  8
0
 10
4933.1371780945910359
 20
3.6351754385593602
 30
0.0
 40
0.0607925843863188
 50
196.3171084594976037
 51
286.7933366857618012
  0
ARC
  5
3BD77
  8
0
 10
4933.13768397271906
 20
3.6346159137569001
 30
0.0
 40
0.0605058258731333
 50
2.080568843378336
 51
61.3202499099801983
  0
CIRCLE
  5
3BD78
  8
0
 10
4933.1331892809475903
 20
3.398623589065128
 30
0.0
 40
0.0196850394000006
  0
ARC
  5
3BD79
  8
0
 10
4933.135157784947296
 20
3.4005920929651312
 30
0.0
 40
0.0629921259999987
 50
359.9999999999976126
 51
118.7707580711386015
  0
ARC
  5
3BD7A
  8
0
 10
4933.135157784947296
 20
3.4005920929651321
 30
0.0
 40
0.0629921260000064
 50
305.5241973610844184
 51
359.9999999999980105
  0
ARC
  5
3BD7B
  8
0
 10
4933.135157784947296
 20
3.4005920929651201
 30
0.0
 40
0.062992125999992
 50
249.5724363827386014
 51
305.5241973610843047
  0
ARC
  5
3BD7C
  8
0
 10
4933.135157784947296
 20
3.400592092965133
 30
0.0
 40
0.0629921260000063
 50
175.2568123637080078
 51
249.5724363827386014
  0
ARC
  5
3BD7D
  8
0
 10
4933.135157784947296
 20
3.4005920929651352
 30
0.0
 40
0.0629921259999893
 50
118.7707580711367967
 51
175.2568123637082067
  0
ARC
  5
3BD7E
  8
0
 10
4933.1372762306127697
 20
3.3979825391408061
 30
0.0
 40
0.0610639608303425
 50
61.170534749281849
 51
146.0864219133165136
  0
ARC
  5
3BD7F
  8
0
 10
4933.1362388288989678
 20
3.3986800010768632
 30
0.0
 40
0.0598138986435341
 50
146.086421913316201
 51
196.3171084594987121
  0
ARC
  5
3BD80
  8
0
 10
4933.1371780945910359
 20
3.3989549660593599
 30
0.0
 40
0.0607925843863188
 50
196.3171084594976037
 51
286.7933366857618012
  0
ARC
  5
3BD81
  8
0
 10
4933.13768397271906
 20
3.3983954412569002
 30
0.0
 40
0.0605058258731333
 50
2.080568843378336
 51
61.3202499099801983
  0
CIRCLE
  5
3BD82
  8
0
 10
4933.1331892809475903
 20
3.1624031166651281
 30
0.0
 40
0.0196850394000006
  0
ARC
  5
3BD83
  8
0
 10
4933.135157784947296
 20
3.16437162056513
 30
0.0
 40
0.0629921259999987
 50
359.9999999999976126
 51
118.7707580711386015
  0
ARC
  5
3BD84
  8
0
 10
4933.135157784947296
 20
3.1643716205651309
 30
0.0
 40
0.0629921260000064
 50
305.5241973610844184
 51
359.9999999999980105
  0
ARC
  5
3BD85
  8
0
 10
4933.135157784947296
 20
3.1643716205651198
 30
0.0
 40
0.062992125999992
 50
249.5724363827386014
 51
305.5241973610843047
  0
ARC
  5
3BD86
  8
0
 10
4933.135157784947296
 20
3.1643716205651331
 30
0.0
 40
0.0629921260000063
 50
175.2568123637080078
 51
249.5724363827386014
  0
ARC
  5
3BD87
  8
0
 10
4933.135157784947296
 20
3.1643716205651349
 30
0.0
 40
0.0629921259999893
 50
118.7707580711367967
 51
175.2568123637082067
  0
ARC
  5
3BD88
  8
0
 10
4933.1372762306127697
 20
3.1617620667408062
 30
0.0
 40
0.0610639608303425
 50
61.170534749281849
 51
146.0864219133165136
  0
ARC
  5
3BD89
  8
0
 10
4933.1362388288989678
 20
3.1624595286768629
 30
0.0
 40
0.0598138986435341
 50
146.086421913316201
 51
196.3171084594987121
  0
ARC
  5
3BD8A
  8
0
 10
4933.1371780945910359
 20
3.1627344936593591
 30
0.0
 40
0.0607925843863188
 50
196.3171084594976037
 51
286.7933366857618012
  0
ARC
  5
3BD8B
  8
0
 10
4933.13768397271906
 20
3.162174968856899
 30
0.0
 40
0.0605058258731333
 50
2.080568843378336
 51
61.3202499099801983
  0
CIRCLE
  5
3BD8C
  8
0
 10
4933.1331892809475903
 20
2.9261826441651291
 30
0.0
 40
0.0196850394000006
  0
ARC
  5
3BD8D
  8
0
 10
4933.135157784947296
 20
2.928151148065131
 30
0.0
 40
0.0629921259999987
 50
359.9999999999976126
 51
118.7707580711386015
  0
ARC
  5
3BD8E
  8
0
 10
4933.135157784947296
 20
2.9281511480651319
 30
0.0
 40
0.0629921260000064
 50
305.5241973610844184
 51
359.9999999999980105
  0
ARC
  5
3BD8F
  8
0
 10
4933.135157784947296
 20
2.9281511480651199
 30
0.0
 40
0.062992125999992
 50
249.5724363827386014
 51
305.5241973610843047
  0
ARC
  5
3BD90
  8
0
 10
4933.135157784947296
 20
2.9281511480651341
 30
0.0
 40
0.0629921260000063
 50
175.2568123637080078
 51
249.5724363827386014
  0
ARC
  5
3BD91
  8
0
 10
4933.135157784947296
 20
2.928151148065135
 30
0.0
 40
0.0629921259999893
 50
118.7707580711367967
 51
175.2568123637082067
  0
ARC
  5
3BD92
  8
0
 10
4933.1372762306127697
 20
2.9255415942408058
 30
0.0
 40
0.0610639608303425
 50
61.170534749281849
 51
146.0864219133165136
  0
ARC
  5
3BD93
  8
0
 10
4933.1362388288989678
 20
2.926239056176863
 30
0.0
 40
0.0598138986435341
 50
146.086421913316201
 51
196.3171084594987121
  0
ARC
  5
3BD94
  8
0
 10
4933.1371780945910359
 20
2.9265140211593601
 30
0.0
 40
0.0607925843863188
 50
196.3171084594976037
 51
286.7933366857618012
  0
ARC
  5
3BD95
  8
0
 10
4933.13768397271906
 20
2.9259544963569
 30
0.0
 40
0.0605058258731333
 50
2.080568843378336
 51
61.3202499099801983
  0
CIRCLE
  5
3BD96
  8
0
 10
4933.1331892809475903
 20
2.6899621717651279
 30
0.0
 40
0.0196850394000006
  0
ARC
  5
3BD97
  8
0
 10
4933.135157784947296
 20
2.6919306756651311
 30
0.0
 40
0.0629921259999987
 50
359.9999999999976126
 51
118.7707580711386015
  0
ARC
  5
3BD98
  8
0
 10
4933.135157784947296
 20
2.691930675665132
 30
0.0
 40
0.0629921260000064
 50
305.5241973610844184
 51
359.9999999999980105
  0
ARC
  5
3BD99
  8
0
 10
4933.135157784947296
 20
2.69193067566512
 30
0.0
 40
0.062992125999992
 50
249.5724363827386014
 51
305.5241973610843047
  0
ARC
  5
3BD9A
  8
0
 10
4933.135157784947296
 20
2.6919306756651329
 30
0.0
 40
0.0629921260000063
 50
175.2568123637080078
 51
249.5724363827386014
  0
ARC
  5
3BD9B
  8
0
 10
4933.135157784947296
 20
2.6919306756651351
 30
0.0
 40
0.0629921259999893
 50
118.7707580711367967
 51
175.2568123637082067
  0
ARC
  5
3BD9C
  8
0
 10
4933.1372762306127697
 20
2.689321121840806
 30
0.0
 40
0.0610639608303425
 50
61.170534749281849
 51
146.0864219133165136
  0
ARC
  5
3BD9D
  8
0
 10
4933.1362388288989678
 20
2.6900185837768631
 30
0.0
 40
0.0598138986435341
 50
146.086421913316201
 51
196.3171084594987121
  0
ARC
  5
3BD9E
  8
0
 10
4933.1371780945910359
 20
2.6902935487593602
 30
0.0
 40
0.0607925843863188
 50
196.3171084594976037
 51
286.7933366857618012
  0
ARC
  5
3BD9F
  8
0
 10
4933.13768397271906
 20
2.6897340239569001
 30
0.0
 40
0.0605058258731333
 50
2.080568843378336
 51
61.3202499099801983
  0
CIRCLE
  5
3BDA0
  8
0
 10
4933.1331892809475903
 20
2.4537416993651289
 30
0.0
 40
0.0196850394000006
  0
ARC
  5
3BDA1
  8
0
 10
4933.135157784947296
 20
2.4557102032651308
 30
0.0
 40
0.0629921259999987
 50
359.9999999999976126
 51
118.7707580711386015
  0
ARC
  5
3BDA2
  8
0
 10
4933.135157784947296
 20
2.4557102032651321
 30
0.0
 40
0.0629921260000064
 50
305.5241973610844184
 51
359.9999999999980105
  0
ARC
  5
3BDA3
  8
0
 10
4933.135157784947296
 20
2.455710203265121
 30
0.0
 40
0.062992125999992
 50
249.5724363827386014
 51
305.5241973610843047
  0
ARC
  5
3BDA4
  8
0
 10
4933.135157784947296
 20
2.4557102032651339
 30
0.0
 40
0.0629921260000063
 50
175.2568123637080078
 51
249.5724363827386014
  0
ARC
  5
3BDA5
  8
0
 10
4933.135157784947296
 20
2.4557102032651361
 30
0.0
 40
0.0629921259999893
 50
118.7707580711367967
 51
175.2568123637082067
  0
ARC
  5
3BDA6
  8
0
 10
4933.1372762306127697
 20
2.4531006494408061
 30
0.0
 40
0.0610639608303425
 50
61.170534749281849
 51
146.0864219133165136
  0
ARC
  5
3BDA7
  8
0
 10
4933.1362388288989678
 20
2.4537981113768641
 30
0.0
 40
0.0598138986435341
 50
146.086421913316201
 51
196.3171084594987121
  0
ARC
  5
3BDA8
  8
0
 10
4933.1371780945910359
 20
2.4540730763593599
 30
0.0
 40
0.0607925843863188
 50
196.3171084594976037
 51
286.7933366857618012
  0
ARC
  5
3BDA9
  8
0
 10
4933.13768397271906
 20
2.4535135515569002
 30
0.0
 40
0.0605058258731333
 50
2.080568843378336
 51
61.3202499099801983
  0
CIRCLE
  5
3BDAA
  8
0
 10
4933.1331892809475903
 20
2.2175212268651281
 30
0.0
 40
0.0196850394000006
  0
ARC
  5
3BDAB
  8
0
 10
4933.135157784947296
 20
2.2194897307651309
 30
0.0
 40
0.0629921259999987
 50
359.9999999999976126
 51
118.7707580711386015
  0
ARC
  5
3BDAC
  8
0
 10
4933.135157784947296
 20
2.2194897307651318
 30
0.0
 40
0.0629921260000064
 50
305.5241973610844184
 51
359.9999999999980105
  0
ARC
  5
3BDAD
  8
0
 10
4933.135157784947296
 20
2.2194897307651198
 30
0.0
 40
0.062992125999992
 50
249.5724363827386014
 51
305.5241973610843047
  0
ARC
  5
3BDAE
  8
0
 10
4933.135157784947296
 20
2.219489730765134
 30
0.0
 40
0.0629921260000063
 50
175.2568123637080078
 51
249.5724363827386014
  0
ARC
  5
3BDAF
  8
0
 10
4933.135157784947296
 20
2.2194897307651349
 30
0.0
 40
0.0629921259999893
 50
118.7707580711367967
 51
175.2568123637082067
  0
ARC
  5
3BDB0
  8
0
 10
4933.1372762306127697
 20
2.2168801769408062
 30
0.0
 40
0.0610639608303425
 50
61.170534749281849
 51
146.0864219133165136
  0
ARC
  5
3BDB1
  8
0
 10
4933.1362388288989678
 20
2.2175776388768629
 30
0.0
 40
0.0598138986435341
 50
146.086421913316201
 51
196.3171084594987121
  0
ARC
  5
3BDB2
  8
0
 10
4933.1371780945910359
 20
2.21785260385936
 30
0.0
 40
0.0607925843863188
 50
196.3171084594976037
 51
286.7933366857618012
  0
ARC
  5
3BDB3
  8
0
 10
4933.13768397271906
 20
2.2172930790568999
 30
0.0
 40
0.0605058258731333
 50
2.080568843378336
 51
61.3202499099801983
  0
LINE
  5
3BDB4
  8
0
 10
4931.9146853439469851
 20
-2.3671638124348711
 30
0.0
 11
4932.0327955801467397
 21
-2.2490535762348709
 31
0.0
  0
LINE
  5
3BDB5
  8
0
 10
4932.0327955801467397
 20
-2.2490535762348709
 30
0.0
 11
4933.7650790447469262
 21
-2.2490535762348709
 31
0.0
  0
LINE
  5
3BDB6
  8
0
 10
4933.7650790447469262
 20
-2.2490535762348709
 30
0.0
 11
4933.8831892809475903
 21
-2.3671638124348711
 31
0.0
  0
LINE
  5
3BDB7
  8
0
 10
4932.4264963675477702
 20
-2.0521638124348711
 30
0.0
 11
4933.3713782573477147
 21
-2.0521638124348711
 31
0.0
  0
ARC
  5
3BDB8
  8
0
 10
4933.3229708508370095
 20
-2.0731437359016951
 30
0.0
 40
0.0241862495950262
 50
1.576084953300271
 51
60.1615627361849477
  0
ARC
  5
3BDB9
  8
0
 10
4932.4727395142235764
 20
-2.072540023106781
 30
0.0
 40
0.022012925636464
 50
112.2337966583599069
 51
179.8398855956500881
  0
LINE
  5
3BDBA
  8
0
 10
4932.4507266745486049
 20
-2.072478507552201
 30
0.0
 11
4932.4560239266465942
 21
-2.2490535762348709
 31
0.0
  0
LINE
  5
3BDBB
  8
0
 10
4933.3471479503514274
 20
-2.0724785076828631
 30
0.0
 11
4933.3418506982479812
 21
-2.2490535762348709
 31
0.0
  0
LINE
  5
3BDBC
  8
0
 10
4922.4656853439473707
 20
-2.564014206134869
 30
0.0
 11
4922.4656853439473707
 21
-2.368331021934869
 31
0.0
  0
LINE
  5
3BDBD
  8
0
 10
4924.4341892809479759
 20
-2.564014206134869
 30
0.0
 11
4924.4341892809479759
 21
-2.3683310219348712
 31
0.0
  0
LINE
  5
3BDBE
  8
0
 10
4924.4341892809479759
 20
-2.5640142061348712
 30
0.0
 11
4922.4656853439473707
 21
-2.5640142061348712
 31
0.0
  0
LINE
  5
3BDBF
  8
0
 10
4922.4656853439473707
 20
-2.368921809884871
 30
0.0
 11
4924.4341892809479759
 21
-2.368921809884871
 31
0.0
  0
ARC
  5
3BDC0
  8
0
 10
4922.4735593697023432
 20
-2.3683310234791488
 30
0.0
 40
0.0078740257543261
 50
167.6550368697681961
 51
179.9999887629658133
  0
ARC
  5
3BDC1
  8
0
 10
4917.9340854096926705
 20
-1.016848239504051
 30
0.0
 40
4.7285310959222411
 50
343.4137433983818823
 51
0.3348842330120278
  0
LINE
  5
3BDC2
  8
0
 10
4922.6625357376469765
 20
-0.9892110565348712
 30
0.0
 11
4922.6625357377479304
 21
-0.8081086943348712
 31
0.0
  0
ARC
  5
3BDC3
  8
0
 10
4922.670409753452077
 20
-0.8081086943392189
 30
0.0
 40
0.0078740157043473
 50
90.0000000325167662
 51
179.9999999683610099
  0
LINE
  5
3BDC4
  8
0
 10
4922.670409753448439
 20
-0.8002346786348713
 30
0.0
 11
4924.2295979854216057
 21
-0.80023467774952
 31
0.0
  0
ARC
  5
3BDC5
  8
0
 10
4924.2294628921163167
 20
-0.8081095142424645
 30
0.0
 40
0.0078759951747061
 50
0.0059646106598383
 51
89.0171837706089235
  0
LINE
  5
3BDC6
  8
0
 10
4924.2373388872465512
 20
-0.8081086943348712
 30
0.0
 11
4924.2373388872765645
 21
-0.9892109138111884
 31
0.0
  0
ARC
  5
3BDC7
  8
0
 10
4928.9643105825371094
 20
-1.0169856631863889
 30
0.0
 40
4.7270532940187646
 50
179.6633452228838053
 51
196.5822684373185041
  0
ARC
  5
3BDC8
  8
0
 10
4924.4263152652483768
 20
-2.3683310219348819
 30
0.0
 40
0.0078740157000681
 50
0.0000000001131005
 51
16.8560666127588306
  0
LINE
  5
3BDC9
  8
0
 10
4922.6625357376469765
 20
1.239135400165128
 30
0.0
 11
4922.6625357376469765
 21
-0.7411795605348713
 31
0.0
  0
LINE
  5
3BDCA
  8
0
 10
4922.6625357376469765
 20
-0.7411795605348713
 30
0.0
 11
4924.2373388872465512
 21
-0.7411795605348713
 31
0.0
  0
LINE
  5
3BDCB
  8
0
 10
4924.2373388872465512
 20
-0.7411795605348713
 30
0.0
 11
4924.2373388872465512
 21
1.239135400165128
 31
0.0
  0
LINE
  5
3BDCC
  8
0
 10
4924.2373388872465512
 20
1.239135400165128
 30
0.0
 11
4924.0719845565472497
 21
1.4044897308651281
 31
0.0
  0
LINE
  5
3BDCD
  8
0
 10
4924.0719845565472497
 20
1.4044897308651281
 30
0.0
 11
4922.827890068348097
 21
1.4044897308651281
 31
0.0
  0
LINE
  5
3BDCE
  8
0
 10
4922.827890068348097
 20
1.4044897308651281
 30
0.0
 11
4922.6625357376469765
 21
1.239135400165128
 31
0.0
  0
LINE
  5
3BDCF
  8
0
 10
4922.7215908557473085
 20
-0.7411795605348713
 30
0.0
 11
4922.7215908557473085
 21
-0.7608645998348714
 31
0.0
  0
LINE
  5
3BDD0
  8
0
 10
4922.7215908557473085
 20
-0.7608645998348714
 30
0.0
 11
4924.1782837691480381
 21
-0.7608645998348714
 31
0.0
  0
LINE
  5
3BDD1
  8
0
 10
4924.1782837691480381
 20
-0.7608645998348714
 30
0.0
 11
4924.1782837691480381
 21
-0.741179560534871
 31
0.0
  0
LINE
  5
3BDD2
  8
0
 10
4923.9326264084465947
 20
1.4044897308651281
 30
0.0
 11
4924.0011184148479515
 21
1.239135400165128
 31
0.0
  0
LINE
  5
3BDD3
  8
0
 10
4924.0011184148479515
 20
1.239135400165128
 30
0.0
 11
4924.0011184148479515
 21
-0.7411795605348713
 31
0.0
  0
LINE
  5
3BDD4
  8
0
 10
4924.0011184148479515
 20
-0.7608645998348714
 30
0.0
 11
4924.0011184148479515
 21
-0.8002346786348713
 31
0.0
  0
LINE
  5
3BDD5
  8
0
 10
4922.9672482164478424
 20
1.4044897308651281
 30
0.0
 11
4922.8987562101474396
 21
1.239135400165128
 31
0.0
  0
LINE
  5
3BDD6
  8
0
 10
4922.8987562101474396
 20
1.239135400165128
 30
0.0
 11
4922.8987562101474396
 21
-0.7411795605348713
 31
0.0
  0
LINE
  5
3BDD7
  8
0
 10
4922.8987562101474396
 20
-0.7608645998348714
 30
0.0
 11
4922.8987562101474396
 21
-0.8002346786348713
 31
0.0
  0
ARC
  5
3BDD8
  8
0
 10
4922.9035730136765778
 20
-0.807239939134239
 30
0.0
 40
0.0071758322699312
 50
102.5175437970795969
 51
186.9536758345884948
  0
ARC
  5
3BDD9
  8
0
 10
4920.4168654027589582
 20
-0.9583619844327735
 30
0.0
 40
2.484132775992181
 50
326.1831574985254179
 51
3.4676637786928062
  0
ARC
  5
3BDDA
  8
0
 10
4926.4830092221363884
 20
-0.9583619844327735
 30
0.0
 40
2.484132775992181
 50
176.5323362213071903
 51
213.8168425014744969
  0
ARC
  5
3BDDB
  8
0
 10
4923.9962758354713515
 20
-0.8072581646477001
 30
0.0
 40
0.0071992431648388
 50
353.215142215353012
 51
77.3136320135267141
  0
LINE
  5
3BDDC
  8
0
 10
4917.7416853439481201
 20
-2.564014206134869
 30
0.0
 11
4917.7416853439481201
 21
-2.368331021934869
 31
0.0
  0
LINE
  5
3BDDD
  8
0
 10
4919.7101892809478159
 20
-2.564014206134869
 30
0.0
 11
4919.7101892809478159
 21
-2.3683310219348712
 31
0.0
  0
LINE
  5
3BDDE
  8
0
 10
4919.7101892809478159
 20
-2.5640142061348712
 30
0.0
 11
4917.7416853439481201
 21
-2.5640142061348712
 31
0.0
  0
LINE
  5
3BDDF
  8
0
 10
4917.7416853439481201
 20
-2.368921809884871
 30
0.0
 11
4919.7101892809478159
 21
-2.368921809884871
 31
0.0
  0
ARC
  5
3BDE0
  8
0
 10
4917.7495593697030927
 20
-2.3683310234791488
 30
0.0
 40
0.0078740257543261
 50
167.6550368697681961
 51
179.9999887629658133
  0
ARC
  5
3BDE1
  8
0
 10
4913.2100854096916009
 20
-1.016848239504051
 30
0.0
 40
4.7285310959222411
 50
343.4137433983818255
 51
0.3348842330120278
  0
LINE
  5
3BDE2
  8
0
 10
4917.9385357376468164
 20
-0.9892110565348712
 30
0.0
 11
4917.9385357377468608
 21
-0.8081086943348712
 31
0.0
  0
ARC
  5
3BDE3
  8
0
 10
4917.9464097534519169
 20
-0.8081086943392189
 30
0.0
 40
0.0078740157043473
 50
90.0000000325167662
 51
179.9999999683610099
  0
LINE
  5
3BDE4
  8
0
 10
4917.9464097534473694
 20
-0.8002346786348713
 30
0.0
 11
4919.5055979854223551
 21
-0.80023467774952
 31
0.0
  0
ARC
  5
3BDE5
  8
0
 10
4919.5054628921152471
 20
-0.8081095142424645
 30
0.0
 40
0.0078759951747061
 50
0.0059646106598383
 51
89.0171837706089235
  0
LINE
  5
3BDE6
  8
0
 10
4919.5133388872482101
 20
-0.8081086943348712
 30
0.0
 11
4919.5133388872773139
 21
-0.9892109138111884
 31
0.0
  0
ARC
  5
3BDE7
  8
0
 10
4924.2403105825360399
 20
-1.0169856631863889
 30
0.0
 40
4.7270532940187646
 50
179.6633452228838053
 51
196.5822684373185041
  0
ARC
  5
3BDE8
  8
0
 10
4919.7023152652473073
 20
-2.3683310219348819
 30
0.0
 40
0.0078740157000681
 50
0.0000000001131005
 51
16.8560666127588306
  0
LINE
  5
3BDE9
  8
0
 10
4917.9385357376468164
 20
1.239135400165128
 30
0.0
 11
4917.9385357376468164
 21
-0.7411795605348713
 31
0.0
  0
LINE
  5
3BDEA
  8
0
 10
4917.9385357376468164
 20
-0.7411795605348713
 30
0.0
 11
4919.5133388872482101
 21
-0.7411795605348713
 31
0.0
  0
LINE
  5
3BDEB
  8
0
 10
4919.5133388872482101
 20
-0.7411795605348713
 30
0.0
 11
4919.5133388872482101
 21
1.239135400165128
 31
0.0
  0
LINE
  5
3BDEC
  8
0
 10
4919.5133388872482101
 20
1.239135400165128
 30
0.0
 11
4919.3479845565479991
 21
1.4044897308651281
 31
0.0
  0
LINE
  5
3BDED
  8
0
 10
4919.3479845565479991
 20
1.4044897308651281
 30
0.0
 11
4918.1038900683479369
 21
1.4044897308651281
 31
0.0
  0
LINE
  5
3BDEE
  8
0
 10
4918.1038900683479369
 20
1.4044897308651281
 30
0.0
 11
4917.9385357376468164
 21
1.239135400165128
 31
0.0
  0
LINE
  5
3BDEF
  8
0
 10
4917.9975908557480579
 20
-0.7411795605348713
 30
0.0
 11
4917.9975908557480579
 21
-0.7608645998348714
 31
0.0
  0
LINE
  5
3BDF0
  8
0
 10
4917.9975908557480579
 20
-0.7608645998348714
 30
0.0
 11
4919.454283769147878
 21
-0.7608645998348714
 31
0.0
  0
LINE
  5
3BDF1
  8
0
 10
4919.454283769147878
 20
-0.7608645998348714
 30
0.0
 11
4919.454283769147878
 21
-0.741179560534871
 31
0.0
  0
LINE
  5
3BDF2
  8
0
 10
4919.2086264084482536
 20
1.4044897308651281
 30
0.0
 11
4919.2771184148468819
 21
1.239135400165128
 31
0.0
  0
LINE
  5
3BDF3
  8
0
 10
4919.2771184148468819
 20
1.239135400165128
 30
0.0
 11
4919.2771184148468819
 21
-0.7411795605348713
 31
0.0
  0
LINE
  5
3BDF4
  8
0
 10
4919.2771184148468819
 20
-0.7608645998348714
 30
0.0
 11
4919.2771184148468819
 21
-0.8002346786348713
 31
0.0
  0
LINE
  5
3BDF5
  8
0
 10
4918.2432482164476824
 20
1.4044897308651281
 30
0.0
 11
4918.1747562101472795
 21
1.239135400165128
 31
0.0
  0
LINE
  5
3BDF6
  8
0
 10
4918.1747562101472795
 20
1.239135400165128
 30
0.0
 11
4918.1747562101472795
 21
-0.7411795605348713
 31
0.0
  0
LINE
  5
3BDF7
  8
0
 10
4918.1747562101472795
 20
-0.7608645998348714
 30
0.0
 11
4918.1747562101472795
 21
-0.8002346786348713
 31
0.0
  0
ARC
  5
3BDF8
  8
0
 10
4918.1795730136764178
 20
-0.807239939134239
 30
0.0
 40
0.0071758322699312
 50
102.5175437970795969
 51
186.9536758345884948
  0
ARC
  5
3BDF9
  8
0
 10
4915.6928654027587982
 20
-0.9583619844327735
 30
0.0
 40
2.484132775992181
 50
326.1831574985254179
 51
3.4676637786928062
  0
ARC
  5
3BDFA
  8
0
 10
4921.7590092221362283
 20
-0.9583619844327735
 30
0.0
 40
2.484132775992181
 50
176.5323362213071903
 51
213.8168425014744969
  0
ARC
  5
3BDFB
  8
0
 10
4919.2722758354711914
 20
-0.8072581646477001
 30
0.0
 40
0.0071992431648388
 50
353.215142215353012
 51
77.3136320135267141
  0
ARC
  5
3BDFC
  8
0
 10
4911.2507641522033737
 20
0.3721599158579081
 30
0.0
 40
0.0058621965318118
 50
111.7325333563317002
 51
163.8195961785773136
  0
LINE
  5
3BDFD
  8
0
 10
4911.2485935316490213
 20
0.3776054419651285
 30
0.0
 11
4911.4778952665474208
 21
0.4922563094651289
 31
0.0
  0
ARC
  5
3BDFE
  8
0
 10
4911.4859053539521483
 20
0.4746077070903887
 30
0.0
 40
0.0193812968423834
 50
88.9901893138732873
 51
114.4116482230062957
  0
LINE
  5
3BDFF
  8
0
 10
4911.486246922348073
 20
0.4939859938651288
 30
0.0
 11
4912.0974998957808566
 21
0.4939859931229762
 31
0.0
  0
LINE
  5
3BE00
  8
0
 10
4912.2128305113674287
 20
0.4939859929829474
 30
0.0
 11
4913.4191704538761769
 21
0.4939859915182696
 31
0.0
  0
LINE
  5
3BE01
  8
0
 10
4913.5345006306270079
 20
0.4939859913782421
 30
0.0
 11
4914.1536277034610976
 21
0.4939859906265287
 31
0.0
  0
ARC
  5
3BE02
  8
0
 10
4911.254599301178132
 20
0.1816356210119179
 30
0.0
 40
0.0094665609926577
 50
180.9933399588701093
 51
245.2759987407411018
  0
LINE
  5
3BE03
  8
0
 10
4911.2506399346475519
 20
0.1730368307651289
 30
0.0
 11
4911.4799417197473304
 21
0.0583860633651288
 31
0.0
  0
ARC
  5
3BE04
  8
0
 10
4911.4865805557456042
 20
0.0725213266987539
 30
0.0
 40
0.0156167636957006
 50
244.842191412999199
 51
268.7758480556620952
  0
ARC
  5
3BE05
  8
0
 10
4914.1532424560145955
 20
0.0727110737896513
 30
0.0
 40
0.015810277250936
 50
271.3962586765210858
 51
295.0347624774116184
  0
LINE
  5
3BE06
  8
0
 10
4914.159932860347908
 20
0.0583861529651291
 30
0.0
 11
4914.389235055808058
 21
0.1730370135031736
 31
0.0
  0
ARC
  5
3BE07
  8
0
 10
4914.3851826844829702
 20
0.1816961036570928
 30
0.0
 40
0.0095604160812696
 50
295.0791442178481816
 51
358.6538633447411257
  0
ARC
  5
3BE08
  8
0
 10
4914.1540238656161819
 20
0.4748712769197616
 30
0.0
 40
0.0191188185969777
 50
65.4108929789387332
 51
91.1873141610744256
  0
LINE
  5
3BE09
  8
0
 10
4914.1619793574982396
 20
0.4922563099496058
 30
0.0
 11
4914.391281093347061
 21
0.3776054419651285
 31
0.0
  0
ARC
  5
3BE0A
  8
0
 10
4914.3894525350806362
 20
0.3725697835529167
 30
0.0
 40
0.005357376315143
 50
9.2356170304425227
 51
70.0429276588468213
  0
ARC
  5
3BE0B
  8
0
 10
4911.462327729163917
 20
0.2644477724806169
 30
0.0
 40
0.061990942630816
 50
111.4094018283163052
 51
174.2751380783784043
  0
ARC
  5
3BE0C
  8
0
 10
4911.5506984991079662
 20
0.1009474466815083
 30
0.0
 40
0.2475001389759922
 50
88.7360839100985146
 51
116.6463165025455027
  0
LINE
  5
3BE0D
  8
0
 10
4911.4006459738484409
 20
0.2706314630651305
 30
0.0
 11
4911.4006459738484409
 21
0.2259391735651288
 31
0.0
  0
ARC
  5
3BE0E
  8
0
 10
4911.4499505196354221
 20
0.2259391735651284
 30
0.0
 40
0.0493045457867094
 50
179.999999999999801
 51
217.8427002400287904
  0
ARC
  5
3BE0F
  8
0
 10
4911.5153058575342584
 20
0.2819665924566901
 30
0.0
 40
0.1353517316901192
 50
219.5995097054772884
 51
252.8428002862013955
  0
ARC
  5
3BE10
  8
0
 10
4911.5667377158606541
 20
0.4176434542959018
 30
0.0
 40
0.2803113182068211
 50
250.9785065034772913
 51
267.7678803395436944
  0
ARC
  5
3BE11
  8
0
 10
4912.8160003045477424
 20
29.5042576057656483
 30
0.0
 40
29.3937386792005206
 50
267.5428392493113279
 51
272.4571607487587812
  0
LINE
  5
3BE12
  8
0
 10
4911.556157784946663
 20
0.3483873686651289
 30
0.0
 11
4914.0758428242479567
 21
0.3483873686651289
 31
0.0
  0
ARC
  5
3BE13
  8
0
 10
4914.1696728800307028
 20
0.2644477724806169
 30
0.0
 40
0.061990942630816
 50
5.7248619216216277
 51
68.5905981716837516
  0
ARC
  5
3BE14
  8
0
 10
4914.0813021100866536
 20
0.1009474466815083
 30
0.0
 40
0.2475001389759922
 50
63.3536834974544618
 51
91.2639160899014996
  0
LINE
  5
3BE15
  8
0
 10
4914.2313546353470883
 20
0.2706314630651305
 30
0.0
 11
4914.2313546353470883
 21
0.2259391735651288
 31
0.0
  0
ARC
  5
3BE16
  8
0
 10
4914.1820500895610166
 20
0.2259391735651284
 30
0.0
 40
0.0493045457867094
 50
322.1572997599711812
 51
0.000000000000229
  0
ARC
  5
3BE17
  8
0
 10
4914.1166947516621804
 20
0.2819665924566901
 30
0.0
 40
0.1353517316901192
 50
287.1571997137986045
 51
320.4004902945225126
  0
ARC
  5
3BE18
  8
0
 10
4914.0652628933348751
 20
0.4176434542959018
 30
0.0
 40
0.2803113182068211
 50
272.2321196604561919
 51
289.0214934965226803
  0
LINE
  5
3BE19
  8
0
 10
4911.4778952657497939
 20
0.056908135522058
 30
0.0
 11
4911.9658332360859276
 21
0.0569076532533184
 31
0.0
  0
LINE
  5
3BE1A
  8
0
 10
4912.0491304539345947
 20
0.0569075709239102
 30
0.0
 11
4913.582868367431729
 21
0.0569060550061185
 31
0.0
  0
LINE
  5
3BE1B
  8
0
 10
4913.6661653237006249
 20
0.0569059726769692
 30
0.0
 11
4914.1536277034483646
 21
0.0569054908782945
 31
0.0
  0
ARC
  5
3BE1C
  8
0
 10
4911.4753291390261438
 20
0.2086680501125908
 30
0.0
 40
0.0773360257984199
 50
101.0820525361838946
 51
164.5405260175706985
  0
ARC
  5
3BE1D
  8
0
 10
4911.5421384953633606
 20
0.0302316628821684
 30
0.0
 40
0.2671228769899711
 50
86.991589272400617
 51
107.803662647507295
  0
ARC
  5
3BE1E
  8
0
 10
4912.8160003045031772
 20
29.6558407382353906
 30
0.0
 40
29.3858729851702485
 50
267.5428400466532253
 51
272.4571599538161877
  0
ARC
  5
3BE1F
  8
0
 10
4914.0909235570661622
 20
0.0452837959331802
 30
0.0
 40
0.2521539817074217
 50
68.0295121565989263
 51
93.428771114173415
  0
ARC
  5
3BE20
  8
0
 10
4914.1652571172799071
 20
0.2152224510854097
 30
0.0
 40
0.0669610642967413
 50
9.2117353007501226
 51
72.6175218440181425
  0
ARC
  5
3BE21
  8
0
 10
4911.5686954277589393
 20
0.3522050950634106
 30
0.0
 40
0.192698659315964
 50
252.4742429627011973
 51
286.3424010719539865
  0
ARC
  5
3BE22
  8
0
 10
4911.537844348523322
 20
0.2663459891671285
 30
0.0
 40
0.1015971920811664
 50
224.6134739609200039
 51
254.4845093665888101
  0
ARC
  5
3BE23
  8
0
 10
4911.4856674400625707
 20
0.2163138580631729
 30
0.0
 40
0.0293339539997983
 50
139.9384775552537121
 51
226.6237403647795077
  0
ARC
  5
3BE24
  8
0
 10
4911.5195216925640125
 20
0.1835360065975582
 30
0.0
 40
0.0764117744731447
 50
104.5298468692153051
 51
137.4649791450557927
  0
ARC
  5
3BE25
  8
0
 10
4911.5487846342666671
 20
0.0975514110848841
 30
0.0
 40
0.167124508724916
 50
91.8415095122848584
 51
106.8462599067883048
  0
ARC
  5
3BE26
  8
0
 10
4911.5552227763892006
 20
0.082678987102296
 30
0.0
 40
0.1822934947460812
 50
68.2014667920499136
 51
93.7141250853330945
  0
ARC
  5
3BE27
  8
0
 10
4912.8160003042958124
 20
29.538500172275409
 30
0.0
 40
29.3954302586102791
 50
267.6738746512908733
 51
272.326125349804272
  0
ARC
  5
3BE28
  8
0
 10
4912.8160003042958124
 20
29.6231458415707607
 30
0.0
 40
29.3954302586056286
 50
267.673874651499375
 51
272.326125349804272
  0
ARC
  5
3BE29
  8
0
 10
4914.0794724827655955
 20
0.0664614153569976
 30
0.0
 40
0.1983833134754383
 50
84.3498721329605701
 51
110.7817612690566023
  0
ARC
  5
3BE2A
  8
0
 10
4914.0988995357438398
 20
0.1681241585769873
 30
0.0
 40
0.0957568105446051
 50
39.6801051890139718
 51
89.9374757040925772
  0
ARC
  5
3BE2B
  8
0
 10
4914.148085152605745
 20
0.2166788840853373
 30
0.0
 40
0.027553427024387
 50
330.5584432883783279
 51
27.1799957880224916
  0
ARC
  5
3BE2C
  8
0
 10
4914.1072503588538893
 20
0.2459850495029059
 30
0.0
 40
0.0777110618671925
 50
288.8878429010853779
 51
326.5370878930331173
  0
ARC
  5
3BE2D
  8
0
 10
4914.0630631499097944
 20
0.3532518376761806
 30
0.0
 40
0.1936357251804093
 50
253.8134711016766971
 51
290.984387182960802
  0
ARC
  5
3BE2E
  8
0
 10
4914.0902676224923198
 20
0.2742356069530465
 30
0.0
 40
0.0446363567331297
 50
310.6577589937018047
 51
337.9853895270535986
  0
ARC
  5
3BE2F
  8
0
 10
4914.1035308553982759
 20
0.2643574632341532
 30
0.0
 40
0.0287308224158633
 50
252.4061740343879023
 51
303.4079862701028105
  0
ARC
  5
3BE30
  8
0
 10
4914.0681307769291379
 20
0.162761833151623
 30
0.0
 40
0.0788711971340139
 50
70.2007499822674959
 51
79.2449929996682414
  0
ARC
  5
3BE31
  8
0
 10
4914.0739433056196503
 20
0.1887495388914511
 30
0.0
 40
0.0522624041802506
 50
80.1888086050277877
 51
112.9738104748476957
  0
ARC
  5
3BE32
  8
0
 10
4914.1237025428627021
 20
0.1054745708288918
 30
0.0
 40
0.1489496502634232
 50
118.1003220515797949
 51
138.3012129334011888
  0
ARC
  5
3BE33
  8
0
 10
4914.0657260327998301
 20
0.320380688095625
 30
0.0
 40
0.1274718466613933
 50
245.3144475844312069
 51
261.7966727982043267
  0
ARC
  5
3BE34
  8
0
 10
4914.1146131402965693
 20
0.0574812363755384
 30
0.0
 40
0.1522982293567099
 50
116.1308585011496035
 51
133.8608776461304046
  0
ARC
  5
3BE35
  8
0
 10
4911.5284054726844261
 20
0.2645384832950768
 30
0.0
 40
0.0289228057899179
 50
194.0766025352947963
 51
287.606817145353773
  0
ARC
  5
3BE36
  8
0
 10
4911.5576783993428762
 20
0.1865986354805638
 30
0.0
 40
0.0543928085606525
 50
67.5430527823021407
 51
112.1686474799558937
  0
ARC
  5
3BE37
  8
0
 10
4911.5082778209025491
 20
0.105448844531137
 30
0.0
 40
0.1489818801023503
 50
41.7009949957553587
 51
61.8974698836378394
  0
ARC
  5
3BE38
  8
0
 10
4911.5662734083916803
 20
0.3203846447801228
 30
0.0
 40
0.1274759295204071
 50
278.2035930535254806
 51
294.6852866526360799
  0
ARC
  5
3BE39
  8
0
 10
4911.5177924007466572
 20
0.0580596273863927
 30
0.0
 40
0.1516006532419136
 50
46.0979999347586187
 51
63.910264047287761
  0
LINE
  5
3BE3A
  8
0
 10
4911.6195116599483299
 20
0.204558045165129
 30
0.0
 11
4914.0124889491480644
 21
0.204558045165129
 31
0.0
  0
LINE
  5
3BE3B
  8
0
 10
4914.0475375326241192
 20
0.194213140154547
 30
0.0
 11
4911.5844630765541297
 21
0.194213140154547
 31
0.0
  0
ARC
  5
3BE3C
  8
0
 10
4919.1245376661800037
 20
-1.016592111817342
 30
0.0
 40
4.7298764586833926
 50
179.6683152969170862
 51
196.5700207423222992
  0
ARC
  5
3BE3D
  8
0
 10
4914.5793800215742522
 20
-2.3689733113362799
 30
0.0
 40
0.012210942782237
 50
0.2416541135024325
 51
16.5700207423223596
  0
LINE
  5
3BE3E
  8
0
 10
4914.5915908533097536
 20
-2.368921809849049
 30
0.0
 11
4914.5915908533097536
 21
-2.5522142061348712
 31
0.0
  0
ARC
  5
3BE3F
  8
0
 10
4914.5618531506443105
 20
-2.3451871008404819
 30
0.0
 40
0.0161307444915361
 50
354.824998082985303
 51
18.5194900290456914
  0
ARC
  5
3BE40
  8
0
 10
4914.5448845404007443
 20
-2.334703881241992
 30
0.0
 40
0.0351246228427043
 50
283.046706535903013
 51
340.1303938251681984
  0
ARC
  5
3BE41
  8
0
 10
4911.0780245531477703
 20
-2.3451899314022531
 30
0.0
 40
0.0161365856212814
 50
161.4594009586315906
 51
185.1360780994245943
  0
ARC
  5
3BE42
  8
0
 10
4911.094066570504765
 20
-2.3355529440341551
 30
0.0
 40
0.0339720165491319
 50
199.0380898054388012
 51
259.119288882046817
  0
ARC
  5
3BED8
  8
0
 10
4924.4086450262957442
 20
-2.3437976744466331
 30
0.0
 40
0.0108925365774277
 50
352.2190285901110087
 51
15.5320217365035802
  0
ARC
  5
3BED9
  8
0
 10
4924.3847837930388778
 20
-2.3338374598674489
 30
0.0
 40
0.0364913833410972
 50
285.962469777100182
 51
341.7382005464851886
  0
ARC
  5
3BEDA
  8
0
 10
4922.4898622611581231
 20
-2.3437086112771111
 30
0.0
 40
0.0095553969189588
 50
162.7868266274959126
 51
189.3848542663000103
  0
ARC
  5
3BEDB
  8
0
 10
4922.5081944153944278
 20
-2.3410143103310448
 30
0.0
 40
0.0280834792613222
 50
188.7093357345628135
 51
263.5824314484623869
  0
LINE
  5
3BF45
  8
DEFPOINTS
 10
4911.5784558598479634
 20
0.2368666646651292
 30
0.0
 11
4911.6900160526483887
 21
0.2368666646651292
 31
0.0
  0
ARC
  5
3BF46
  8
DEFPOINTS
 10
4911.660002737641662
 20
0.2542182673066309
 30
0.0
 40
0.0346681004945252
 50
329.9664979288638733
 51
351.5524367887094854
  0
ARC
  5
3BF47
  8
DEFPOINTS
 10
4911.7478831765629366
 20
0.2528241799832895
 30
0.0
 40
0.0308232890681399
 50
188.5308232252222069
 51
211.1787468043984859
  0
LINE
  5
3BF48
  8
DEFPOINTS
 10
4911.721512115646874
 20
0.2368666646651287
 30
0.0
 11
4912.0049766824531616
 21
0.2368666646651287
 31
0.0
  0
LINE
  5
3BF49
  8
DEFPOINTS
 10
4912.0049766824531616
 20
0.2368666646651287
 30
0.0
 11
4912.0060121295246063
 21
0.2388772741017409
 31
0.0
  0
LINE
  5
3BF4F
  8
0
 10
4933.3713782573477147
 20
5.0861007478671514
 30
0.0
 11
4932.4264963675477702
 21
5.0861007478671514
 31
0.0
  0
LINE
  5
3BF50
  8
0
 10
4932.2195137174476258
 20
-2.2490535762348709
 30
0.0
 11
4932.1705908557469229
 21
-2.3671638124348711
 31
0.0
  0
LINE
  5
3BF51
  8
0
 10
4932.1705908557469229
 20
-2.3671638124348711
 30
0.0
 11
4932.1705908557469229
 21
-2.5640142061348712
 31
0.0
  0
LINE
  5
3BF52
  8
0
 10
4933.5783609074478591
 20
-2.2490535762348709
 30
0.0
 11
4933.6272837691476525
 21
-2.3671638124348711
 31
0.0
  0
LINE
  5
3BF53
  8
0
 10
4933.6272837691476525
 20
-2.3671638124348711
 30
0.0
 11
4933.6272837691476525
 21
-2.5640142061348712
 31
0.0
  0
ARC
  5
3BF54
  8
0
 10
4927.2153541475418024
 20
-2.3438106653093058
 30
0.0
 40
0.0110160354662511
 50
164.576343210103289
 51
187.5955647576541878
  0
ARC
  5
3BF55
  8
0
 10
4927.2321236934349145
 20
-2.341087930071537
 30
0.0
 40
0.0280024847411863
 50
188.5823485140726916
 51
263.7093919234512782
  0
ARC
  5
3BF56
  8
0
 10
4917.7654813401468346
 20
-2.3436825288506582
 30
0.0
 40
0.0091842385075992
 50
162.2390110733344954
 51
189.9328968235516868
  0
ARC
  5
3BF57
  8
0
 10
4917.7908956912942813
 20
-2.3340394976949579
 30
0.0
 40
0.0362437110774734
 50
198.0454517418571072
 51
254.2462886956789987
  0
ARC
  5
3BF58
  8
0
 10
4919.6858103204967847
 20
-2.3437224149464888
 30
0.0
 40
0.0097525869581731
 50
350.8887196572264884
 51
16.9393724459041906
  0
ARC
  5
3BF59
  8
0
 10
4919.6609789336007452
 20
-2.3340394976949579
 30
0.0
 40
0.0362437110774734
 50
285.7537113043209729
 51
341.9545482581430065
  0
LINE
  5
3BF5C
  8
0
 10
4924.2373388872465512
 20
1.239135400165128
 30
0.0
 11
4922.6625357376469765
 21
1.239135400165128
 31
0.0
  0
LINE
  5
3BF5D
  8
0
 10
4919.5133388872482101
 20
1.239135400165128
 30
0.0
 11
4917.9385357376468164
 21
1.239135400165128
 31
0.0
  0
LINE
  5
3BF5E
  8
0
 10
4914.161979359309953
 20
1.239135400165128
 30
0.0
 11
4911.4862469205836533
 21
1.2391354001651289
 31
0.0
  0
LINE
  5
3BF5F
  8
0
 10
4914.161979359309953
 20
1.239135400165128
 30
0.0
 11
4914.3947404620466841
 21
1.1155633613168741
 31
0.0
  0
LINE
  5
3BF60
  8
0
 10
4911.477906286749203
 20
1.239135400165128
 30
0.0
 11
4911.2451451840106529
 21
1.1155633613168741
 31
0.0
  0
ARC
  5
3BF61
  8
0
 10
4929.1375005878589945
 20
-2.3434687272436152
 30
0.0
 40
0.0062046182337017
 50
343.1008506500472777
 51
24.6503747094675987
  0
ARC
  5
3BF62
  8
0
 10
4929.1089819649887431
 20
-2.334043762798653
 30
0.0
 40
0.0362387832214113
 50
285.7509295270717757
 51
341.9498331568951244
  0
LINE
  5
3BF64
  8
0
 10
4914.0535447493402899
 20
0.2368666646651287
 30
0.0
 11
4913.94198455654805
 21
0.2368666646651287
 31
0.0
  0
ARC
  5
3BF65
  8
0
 10
4913.9700260110139425
 20
0.2535300182525244
 30
0.0
 40
0.0326188675673736
 50
187.7611117190606933
 51
210.7204748165507056
  0
LINE
  5
3BF66
  8
0
 10
4913.625988387648249
 20
0.2388772715795202
 30
0.0
 11
4913.627023926676884
 21
0.2368666646651292
 31
0.0
  0
LINE
  5
3BF67
  8
0
 10
4913.627023926676884
 20
0.2368666646651292
 30
0.0
 11
4913.9104884935477457
 21
0.2368666646651292
 31
0.0
  0
ARC
  5
3BF68
  8
0
 10
4913.8838834069838413
 20
0.2529086873280519
 30
0.0
 40
0.0310672998855354
 50
328.9113567833992988
 51
351.3790725216504143
  0
ARC
  5
3BF69
  8
0
 10
4912.8160002618769795
 20
-0.5985506141434596
 30
0.0
 40
1.307623422204482
 50
46.3996121105290626
 51
133.6003878894709089
  0
ARC
  5
3BF6A
  8
0
 10
4912.8160004811861654
 20
-0.6881102661525516
 30
0.0
 40
1.3270891373054909
 50
51.3550615762133376
 51
128.644938423786698
  0
ARC
  5
3BF6B
  8
0
 10
4912.8160002618769795
 20
1.050434221873717
 30
0.0
 40
1.307623422204482
 50
225.0473281772671896
 51
314.9526716508793811
  0
ARC
  5
3BF6C
  8
0
 10
4912.8160004811861654
 20
1.139993873882809
 30
0.0
 40
1.3270891373054909
 50
230.0337618406412048
 51
309.966238872988697
  0
LINE
  5
3BF6F
  8
0
 10
4911.4778952657479749
 20
0.0594091651651287
 30
0.0
 11
4911.4778952665474208
 21
-0.9892110565412457
 31
0.0
  0
ENDSEC
  0
EOF
