  0
SECTION
  2
HEADER
  9
$ACADVER
  1
AC1009
  9
$INSBASE
 10
4948.6876632475477891
 20
-2.5640142061348712
 30
0.0
  9
$EXTMIN
 10
4940.0644923475992982
 20
-2.5647307819695011
 30
-0.0000000000000058
  9
$EXTMAX
 10
4949.8829855840540404
 20
5.093506825649718
 30
0.0000000000000104
  9
$LIMMIN
 10
0.0
 20
0.0
  9
$LIMMAX
 10
11.6929133858000007
 20
8.2677165353999982
  9
$ORTHOMODE
 70
     1
  9
$REGENMODE
 70
     1
  9
$FILLMODE
 70
     1
  9
$QTEXTMODE
 70
     0
  9
$MIRRTEXT
 70
     0
  9
$DRAGMODE
 70
     2
  9
$LTSCALE
 40
0.6431102362
  9
$OSMODE
 70
  2047
  9
$ATTMODE
 70
     1
  9
$TEXTSIZE
 40
0.2
  9
$TRACEWID
 40
0.05
  9
$TEXTSTYLE
  7
STANDARD
  9
$CLAYER
  8
0
  9
$CELTYPE
  6
BYLAYER
  9
$CECOLOR
 62
   256
  9
$DIMSCALE
 40
1.0
  9
$DIMASZ
 40
0.1875
  9
$DIMEXO
 40
0.0625
  9
$DIMDLI
 40
0.4443307087
  9
$DIMRND
 40
0.0
  9
$DIMDLE
 40
0.0
  9
$DIMEXE
 40
0.125
  9
$DIMTP
 40
0.01
  9
$DIMTM
 40
0.01
  9
$DIMTXT
 40
2.0
  9
$DIMCEN
 40
0.1052362205
  9
$DIMTSZ
 40
0.0
  9
$DIMTOL
 70
     1
  9
$DIMLIM
 70
     0
  9
$DIMTIH
 70
     1
  9
$DIMTOH
 70
     1
  9
$DIMSE1
 70
     0
  9
$DIMSE2
 70
     0
  9
$DIMTAD
 70
     0
  9
$DIMZIN
 70
     0
  9
$DIMBLK
  1

  9
$DIMASO
 70
     1
  9
$DIMSHO
 70
     1
  9
$DIMPOST
  1
\X
  9
$DIMAPOST
  1

  9
$DIMALT
 70
     1
  9
$DIMALTD
 70
     2
  9
$DIMALTF
 40
25.3999999999999986
  9
$DIMLFAC
 40
1.0
  9
$DIMTOFL
 70
     0
  9
$DIMTVP
 40
0.0
  9
$DIMTIX
 70
     0
  9
$DIMSOXD
 70
     0
  9
$DIMSAH
 70
     0
  9
$DIMBLK1
  1

  9
$DIMBLK2
  1

  9
$DIMSTYLE
  2
STANDARD
  9
$DIMCLRD
 70
     0
  9
$DIMCLRE
 70
     0
  9
$DIMCLRT
 70
     0
  9
$DIMTFAC
 40
1.0
  9
$DIMGAP
 40
0.09
  9
$LUNITS
 70
     2
  9
$LUPREC
 70
     4
  9
$SKETCHINC
 40
0.1
  9
$FILLETRAD
 40
0.0
  9
$AUNITS
 70
     0
  9
$AUPREC
 70
     0
  9
$MENU
  1
.
  9
$ELEVATION
 40
0.0
  9
$PELEVATION
 40
0.0
  9
$THICKNESS
 40
0.0
  9
$LIMCHECK
 70
     0
  9
$BLIPMODE
 70
     0
  9
$CHAMFERA
 40
0.0
  9
$CHAMFERB
 40
0.0
  9
$SKPOLY
 70
     0
  9
$TDCREATE
 40
2458060.468368056230247
  9
$TDUPDATE
 40
2460656.6056365738622844
  9
$TDINDWG
 40
0.9957709491
  9
$TDUSRTIMER
 40
0.9957709491
  9
$USRTIMER
 70
     1
  9
$ANGBASE
 50
0.0
  9
$ANGDIR
 70
     0
  9
$PDMODE
 70
     0
  9
$PDSIZE
 40
0.3125
  9
$PLINEWID
 40
0.0
  9
$COORDS
 70
     1
  9
$SPLFRAME
 70
     0
  9
$SPLINETYPE
 70
     6
  9
$SPLINESEGS
 70
     8
  9
$ATTDIA
 70
     1
  9
$ATTREQ
 70
     1
  9
$HANDLING
 70
     1
  9
$HANDSEED
  5
3C07E
  9
$SURFTAB1
 70
     6
  9
$SURFTAB2
 70
     6
  9
$SURFTYPE
 70
     6
  9
$SURFU
 70
     6
  9
$SURFV
 70
     6
  9
$UCSNAME
  2

  9
$UCSORG
 10
0.0
 20
0.0
 30
0.0
  9
$UCSXDIR
 10
1.0
 20
0.0
 30
0.0
  9
$UCSYDIR
 10
0.0
 20
1.0
 30
0.0
  9
$PUCSNAME
  2

  9
$PUCSORG
 10
0.0
 20
0.0
 30
0.0
  9
$PUCSXDIR
 10
1.0
 20
0.0
 30
0.0
  9
$PUCSYDIR
 10
0.0
 20
1.0
 30
0.0
  9
$USERI1
 70
     0
  9
$USERI2
 70
     0
  9
$USERI3
 70
     0
  9
$USERI4
 70
     0
  9
$USERI5
 70
     0
  9
$USERR1
 40
0.0
  9
$USERR2
 40
0.0
  9
$USERR3
 40
0.0
  9
$USERR4
 40
0.0
  9
$USERR5
 40
0.0
  9
$WORLDVIEW
 70
     1
  9
$SHADEDGE
 70
     3
  9
$SHADEDIF
 70
    70
  9
$TILEMODE
 70
     1
  9
$MAXACTVP
 70
    64
  9
$PLIMCHECK
 70
     0
  9
$PEXTMIN
 10
1.0000000000000000E+20
 20
1.0000000000000000E+20
 30
1.0000000000000000E+20
  9
$PEXTMAX
 10
-1.0000000000000000E+20
 20
-1.0000000000000000E+20
 30
-1.0000000000000000E+20
  9
$PLIMMIN
 10
0.0
 20
0.0
  9
$PLIMMAX
 10
12.0
 20
9.0
  9
$UNITMODE
 70
     0
  9
$VISRETAIN
 70
     1
  9
$PLINEGEN
 70
     0
  9
$PSLTSCALE
 70
     1
  0
ENDSEC
  0
SECTION
  2
TABLES
  0
TABLE
  2
VPORT
 70
     1
  0
VPORT
  2
*ACTIVE
 70
     0
 10
0.0
 20
0.0
 11
1.0
 21
1.0
 12
1152.6158288095759872
 22
-118.9162684112653068
 13
0.0
 23
0.0
 14
1.0
 24
1.0
 15
0.0
 25
0.0
 16
0.0
 26
0.0
 36
5.1040778033513332
 17
3792.35791015625
 27
120.1806564331053977
 37
0.0
 40
7.7178347874450424
 41
2.4792207792207792
 42
50.0
 43
0.0
 44
0.0
 50
0.0
 51
0.0
 71
     0
 72
   100
 73
     1
 74
     1
 75
     0
 76
     0
 77
     0
 78
     0
  0
ENDTAB
  0
TABLE
  2
LTYPE
 70
     2
  0
LTYPE
  2
CONTINUOUS
 70
     0
  3
Solid line
 72
    65
 73
     0
 40
0.0
  0
LTYPE
  2
PHANTOM2
 70
     0
  3
___ _ _ ___ _ _ ___ _ _ ___ _ _
 72
    65
 73
     6
 40
1.25
 49
0.625
 49
-0.125
 49
0.125
 49
-0.125
 49
0.125
 49
-0.125
  0
ENDTAB
  0
TABLE
  2
LAYER
 70
     2
  0
LAYER
  2
0
 70
     0
 62
   255
  6
CONTINUOUS
  0
LAYER
  2
DEFPOINTS
 70
     0
 62
     7
  6
CONTINUOUS
  0
ENDTAB
  0
TABLE
  2
STYLE
 70
     1
  0
STYLE
  2
STANDARD
 70
     0
 40
0.0
 41
0.8
 50
0.0
 71
     0
 42
0.2
  3
txt
  4

  0
ENDTAB
  0
TABLE
  2
VIEW
 70
     0
  0
ENDTAB
  0
TABLE
  2
UCS
 70
     0
  0
ENDTAB
  0
TABLE
  2
APPID
 70
    11
  0
APPID
  2
ACAD
 70
     0
  0
APPID
  2
ACAD_MLEADERVER
 70
     0
  0
APPID
  2
ACAD_EXEMPT_FROM_CAD_STANDARDS
 70
     0
  0
APPID
  2
ACAD_NAV_VCDISPLAY
 70
     0
  0
APPID
  2
ACAECLAYERSTANDARD
 70
     0
  0
APPID
  2
ACCMTRANSPARENCY
 70
     0
  0
APPID
  2
ACAD_DSTYLE_DIMJAG
 70
     0
  0
APPID
  2
ACAD_DSTYLE_DIMTALN
 70
     0
  0
APPID
  2
ACDBATTR
 70
     0
  0
APPID
  2
GRADIENTCOLOR1ACI
 70
     0
  0
APPID
  2
GRADIENTCOLOR2ACI
 70
     0
  0
ENDTAB
  0
TABLE
  2
DIMSTYLE
 70
     1
  0
DIMSTYLE
  2
STANDARD
 70
     0
  3

  4

  5

  6

  7

 40
1.0
 41
0.1875
 42
0.0625
 43
0.38
 44
0.125
 45
0.0
 46
0.0
 47
0.01
 48
0.01
140
0.15625
141
0.09
142
0.0
143
25.3999999999999986
144
1.0
145
0.0
146
1.0
147
0.09
 71
     1
 72
     0
 73
     1
 74
     1
 75
     0
 76
     0
 77
     0
 78
     4
170
     0
171
     2
172
     0
173
     0
174
     0
175
     0
176
     0
177
     0
178
     0
  0
ENDTAB
  0
ENDSEC
  0
SECTION
  2
BLOCKS
  0
BLOCK
  8
0
  2
$MODEL_SPACE
 70
     0
 10
0.0
 20
0.0
 30
0.0
  3
$MODEL_SPACE
  1

  0
ENDBLK
  5
21
  8
0
  0
BLOCK
 67
     1
  8
0
  2
$PAPER_SPACE
 70
     0
 10
0.0
 20
0.0
 30
0.0
  3
$PAPER_SPACE
  1

  0
ENDBLK
  5
1D
 67
     1
  8
0
  0
ENDSEC
  0
SECTION
  2
ENTITIES
  0
LINE
  5
3BC37
  8
0
 10
4947.7034112790470317
 20
-2.5640142061348712
 30
0.0
 11
4949.6719152160476369
 21
-2.5640142061348712
 31
0.0
  0
LINE
  5
3BC4C
  8
0
 10
4947.7034112790470317
 20
-2.368921809884871
 30
0.0
 11
4949.6719152160476369
 21
-2.368921809884871
 31
0.0
  0
LINE
  5
3BE43
  8
0
 10
4948.2152223026478168
 20
1.7750069114651279
 30
0.0
 11
4942.0174801826196926
 21
1.883386478496291
 31
0.0
  0
ARC
  5
3BE44
  8
0
 10
4941.9953269380594065
 20
0.5836484678128229
 30
0.0
 40
1.299926791269425
 50
90.9764771921687156
 51
149.9914179462703885
  0
LINE
  5
3BE45
  8
0
 10
4940.8696546812161614
 20
1.2337804796651279
 30
0.0
 11
4940.4425341340665909
 21
0.4939859947695986
 31
0.0
  0
ARC
  5
3BE46
  8
0
 10
4940.4493532316701021
 20
0.4900489869135396
 30
0.0
 40
0.0078740156823989
 50
149.9999998751333976
 51
240.0000140092890888
  0
LINE
  5
3BE47
  8
0
 10
4940.445416225496956
 20
0.4832298883401554
 30
0.0
 11
4941.1808802436898986
 21
0.0586097792256197
 31
0.0
  0
ARC
  5
3BE48
  8
0
 10
4941.1857377823816933
 20
0.0649621577213973
 30
0.0
 40
0.0079967740179767
 50
232.5955682940439999
 51
329.5967403040049248
  0
LINE
  5
3BE49
  8
0
 10
4941.1926348790739212
 20
0.0609151277158548
 30
0.0
 11
4941.6197554246664367
 21
0.8007096135138201
 31
0.0
  0
ARC
  5
3BE4A
  8
0
 10
4941.9948057963802057
 20
0.5841741804092023
 30
0.0
 40
0.4330708661553649
 50
89.0000000044021959
 51
149.9999999958872934
  0
LINE
  5
3BE4B
  8
0
 10
4942.0023639251176064
 20
1.017179087774609
 30
0.0
 11
4947.5907978637796987
 21
0.9196326109589186
 31
0.0
  0
ARC
  5
3BE4C
  8
0
 10
4947.5853010428800189
 20
0.604719951120186
 30
0.0
 40
0.3149606298677841
 50
359.9999999172187017
 51
89.0000000044021959
  0
LINE
  5
3BE4D
  8
0
 10
4947.900261672747547
 20
0.6047199506651287
 30
0.0
 11
4947.9002616704447064
 21
-0.9892110565347485
 31
0.0
  0
ARC
  5
3BE4E
  8
0
 10
4943.1664847028341683
 20
-1.016232751654546
 30
0.0
 40
4.7338540906001612
 50
343.4199457658423853
 51
0.3270564457391576
  0
LINE
  5
3BE4F
  8
0
 10
4947.7034112790470317
 20
-2.5640142061348712
 30
0.0
 11
4947.7034112790470317
 21
-2.3671638124348711
 31
0.0
  0
LINE
  5
3BE50
  8
0
 10
4947.7034112790470317
 20
-2.3671638124348711
 30
0.0
 11
4947.8215215152476958
 21
-2.2490535762348709
 31
0.0
  0
LINE
  5
3BE51
  8
0
 10
4947.8215215152476958
 20
-2.2490535762348709
 30
0.0
 11
4949.5538049798478824
 21
-2.2490535762348709
 31
0.0
  0
LINE
  5
3BE52
  8
0
 10
4949.5538049798478824
 20
-2.2490535762348709
 30
0.0
 11
4949.6719152160476369
 21
-2.3671638124348711
 31
0.0
  0
LINE
  5
3BE53
  8
0
 10
4949.6719152160476369
 20
-2.3671638124348711
 30
0.0
 11
4949.6719152160476369
 21
-2.5640142061348712
 31
0.0
  0
ARC
  5
3BE54
  8
0
 10
4948.2591287967416065
 20
-2.0718882219226789
 30
0.0
 40
0.0196850393878081
 50
89.9999999853049246
 51
181.7183580502095879
  0
LINE
  5
3BE55
  8
0
 10
4948.2394526096477421
 20
-2.0724785075348708
 30
0.0
 11
4948.2447498617466408
 21
-2.2490535762348709
 31
0.0
  0
ARC
  5
3BE56
  8
0
 10
4949.1161976983476052
 20
-2.0718882219348731
 30
0.0
 40
0.0196850394000018
 50
358.2816420368267245
 51
90.0
  0
LINE
  5
3BE57
  8
0
 10
4949.135873885455112
 20
-2.0724785075348708
 30
0.0
 11
4949.1305766335126464
 21
-2.2490535762398229
 31
0.0
  0
LINE
  5
3BE58
  8
0
 10
4948.2152223026478168
 20
-2.0521638124348711
 30
0.0
 11
4948.2152223026478168
 21
5.0898033407169487
 31
0.0
  0
LINE
  5
3BE59
  8
0
 10
4949.1601041924468518
 20
-2.0521638124348711
 30
0.0
 11
4949.1601041924468518
 21
5.0898033407169487
 31
0.0
  0
LINE
  5
3BE5A
  8
0
 10
4949.1601041924468518
 20
-2.0521638124348711
 30
0.0
 11
4948.2152223026478168
 21
-2.0521638124348711
 31
0.0
  0
ARC
  5
3BE5B
  8
0
 10
4948.6876632475477891
 20
-25.0531476424766808
 30
0.0
 40
30.1466531213418101
 50
89.1020568613426747
 51
90.8979431386573538
  0
LINE
  5
3BE5C
  8
0
 10
4948.2152223026478168
 20
1.4044897308651281
 30
0.0
 11
4948.0656160034468485
 21
1.4044897308651281
 31
0.0
  0
LINE
  5
3BE5D
  8
0
 10
4948.0656160034468485
 20
1.4044897308651281
 30
0.0
 11
4947.900261672747547
 21
1.239135400165128
 31
0.0
  0
LINE
  5
3BE5E
  8
0
 10
4947.900261672747547
 20
1.239135400165128
 30
0.0
 11
4947.900261672747547
 21
0.6047199506651287
 31
0.0
  0
LINE
  5
3BE5F
  8
0
 10
4949.1601041924468518
 20
1.4044897308651281
 30
0.0
 11
4949.3097104916478202
 21
1.4044897308651281
 31
0.0
  0
LINE
  5
3BE60
  8
0
 10
4949.3097104916478202
 20
1.4044897308651281
 30
0.0
 11
4949.4750648223480312
 21
1.239135400165128
 31
0.0
  0
LINE
  5
3BE61
  8
0
 10
4949.4750648223480312
 20
1.239135400165128
 30
0.0
 11
4949.4750648223480312
 21
-0.9892110567241928
 31
0.0
  0
ARC
  5
3BE62
  8
0
 10
4954.204655410482701
 20
-1.0168305197519429
 30
0.0
 40
4.729671232349264
 50
179.6654127569651109
 51
196.587585174221914
  0
LINE
  5
3BE63
  8
0
 10
4947.9002616708021378
 20
-0.7411795605348713
 30
0.0
 11
4948.2152223026478168
 21
-0.7411795605348716
 31
0.0
  0
LINE
  5
3BE64
  8
0
 10
4949.1601041924468518
 20
-0.7411795605348716
 30
0.0
 11
4949.4750648223480312
 21
-0.7411795605348716
 31
0.0
  0
LINE
  5
3BE65
  8
0
 10
4947.959316790847879
 20
-0.7411795605348713
 30
0.0
 11
4947.959316790847879
 21
-0.7608645998348714
 31
0.0
  0
LINE
  5
3BE66
  8
0
 10
4947.959316790847879
 20
-0.7608645998348714
 30
0.0
 11
4948.2152223026478168
 21
-0.7608645998348714
 31
0.0
  0
LINE
  5
3BE67
  8
0
 10
4949.1601041924468518
 20
-0.7608645998348714
 30
0.0
 11
4949.4160097042476991
 21
-0.7608645998348714
 31
0.0
  0
LINE
  5
3BE68
  8
0
 10
4949.4160097042476991
 20
-0.7608645998348714
 30
0.0
 11
4949.4160097042476991
 21
-0.7411795605348713
 31
0.0
  0
LINE
  5
3BE69
  8
0
 10
4948.1364821451479656
 20
-0.7608645998348714
 30
0.0
 11
4948.1364821451479656
 21
-0.8002346786348713
 31
0.0
  0
LINE
  5
3BE6A
  8
0
 10
4948.2152223026478168
 20
-0.8002346786348713
 30
0.0
 11
4947.9081356884480556
 21
-0.8002346786348713
 31
0.0
  0
ARC
  5
3BE6B
  8
0
 10
4947.9081356884480556
 20
-0.8081086943348719
 30
0.0
 40
0.0078740157000006
 50
90.0
 51
179.9999999999951115
  0
LINE
  5
3BE6C
  8
0
 10
4949.1601041924468518
 20
-0.8002346786348715
 30
0.0
 11
4949.4671908065465686
 21
-0.8002346786348713
 31
0.0
  0
ARC
  5
3BE6D
  8
0
 10
4949.4671908065465686
 20
-0.8081086944352467
 30
0.0
 40
0.0078740158003754
 50
0.0000007303886328
 51
90.0
  0
ARC
  5
3BE6E
  8
0
 10
4948.1415469448784279
 20
-0.8074152988397152
 30
0.0
 40
0.0074035876120131
 50
104.0972116267906955
 51
185.3740089809068081
  0
LINE
  5
3BE6F
  8
0
 10
4948.1341758993476105
 20
-0.8081086943348712
 30
0.0
 11
4948.1341759704755532
 21
-0.9892109646656158
 31
0.0
  0
ARC
  5
3BE70
  8
0
 10
4945.6991060220270811
 20
-0.980053922243076
 30
0.0
 40
2.4350871658444899
 50
326.0242024660237803
 51
359.7845411336642769
  0
ARC
  5
3BE71
  8
0
 10
4947.7289526703061711
 20
-2.343797563446155
 30
0.0
 40
0.010889742966001
 50
164.4841610385298907
 51
187.78292388250361
  0
ARC
  5
3BE72
  8
0
 10
4948.4230835643757018
 20
-1.994451311857623
 30
0.0
 40
0.7873931653771618
 50
206.4583638241169865
 51
206.8452888533875864
  0
LINE
  5
3BE73
  8
0
 10
4949.2388443498475681
 20
-0.7608645998348714
 30
0.0
 11
4949.2388443498475681
 21
-0.8002346786348715
 31
0.0
  0
ARC
  5
3BE74
  8
0
 10
4949.2340275511533036
 20
-0.8072399357155806
 30
0.0
 40
0.0071758278846657
 50
353.0462923961832189
 51
77.482487972204737
  0
LINE
  5
3BE75
  8
0
 10
4949.2411505957479676
 20
-0.80810869433493
 30
0.0
 11
4949.2411505967484118
 21
-0.9892109597639713
 31
0.0
  0
ARC
  5
3BE76
  8
0
 10
4951.676001945538701
 20
-0.9801190900573161
 30
0.0
 40
2.434868323504483
 50
180.2139446177006903
 51
213.9773115626981053
  0
ARC
  5
3BE77
  8
0
 10
4949.6463696816454103
 20
-2.343802365212583
 30
0.0
 40
0.0108949814936895
 50
352.2754756055724101
 51
15.55500434473017
  0
ARC
  5
3BE78
  8
0
 10
4949.1844160470891438
 20
-2.1109950012143739
 30
0.0
 40
0.5276131034474761
 50
333.061129816653704
 51
333.6392240862828089
  0
LINE
  5
3BE79
  8
0
 10
4940.4639908285653291
 20
0.5311500761547259
 30
0.0
 11
4940.1639505311968605
 21
0.7043784226043335
 31
0.0
  0
ARC
  5
3BE7A
  8
0
 10
4940.1464308461618202
 20
0.6740334379905
 30
0.0
 40
0.035039370070523
 50
60.000000000487681
 51
240.0000000382163989
  0
LINE
  5
3BE7B
  8
0
 10
4940.1289111611467888
 20
0.6436884533651291
 30
0.0
 11
4940.6693246514741986
 21
0.33168057973251
 31
0.0
  0
LINE
  5
3BE7C
  8
0
 10
4940.6789703535296212
 20
0.3483874257909103
 30
0.0
 11
4940.6336947300478641
 21
0.269967745465129
 31
0.0
  0
ARC
  5
3BE7D
  8
0
 10
4940.6405138277277729
 20
0.2660307375887521
 30
0.0
 40
0.0078740157611384
 50
150.0000000351986102
 51
239.99999957325889
  0
LINE
  5
3BE7E
  8
0
 10
4940.6365768197983925
 20
0.2592116399391311
 30
0.0
 11
4940.6911296009466241
 21
0.227715576516212
 31
0.0
  0
LINE
  5
3BE7F
  8
0
 10
4940.6911296009466241
 20
0.227715576516212
 30
0.0
 11
4940.7081602204480077
 21
0.2572134747651287
 31
0.0
  0
LINE
  5
3BE80
  8
0
 10
4940.854770810447917
 20
0.1725677884651287
 30
0.0
 11
4940.8377402010473816
 21
0.1430699076651289
 31
0.0
  0
LINE
  5
3BE81
  8
0
 10
4940.8377402010473816
 20
0.1430699076651289
 30
0.0
 11
4940.8922929823384038
 21
0.1115738446497985
 31
0.0
  0
ARC
  5
3BE82
  8
0
 10
4940.8962299901950246
 20
0.1183929422757401
 30
0.0
 40
0.007874015703175
 50
239.9999999591493065
 51
330.0000003443013838
  0
LINE
  5
3BE83
  8
0
 10
4940.9030490878476485
 20
0.1144559344651288
 30
0.0
 11
4940.9247026308967179
 21
0.1519609717101211
 31
0.0
  0
LINE
  5
3BE84
  8
0
 10
4940.9247026308967179
 20
0.1519609717101211
 30
0.0
 11
4940.907654887048011
 21
0.1618034912651289
 31
0.0
  0
LINE
  5
3BE85
  8
0
 10
4940.907654887048011
 20
0.1618034912651289
 30
0.0
 11
4940.9214344144693314
 21
0.1856703331111098
 31
0.0
  0
LINE
  5
3BE86
  8
0
 10
4940.9214344144693314
 20
0.1856703331111098
 30
0.0
 11
4941.4781673110474003
 21
-0.1353049480348716
 31
0.0
  0
LINE
  5
3BE87
  8
0
 10
4940.9384821587473198
 20
0.1758278134651285
 30
0.0
 11
4940.9483246784229777
 21
0.1928755576202144
 31
0.0
  0
ARC
  5
3BE88
  8
0
 10
4940.9236107827446176
 20
0.3072337280485642
 30
0.0
 40
0.1573254124479425
 50
242.8111191316108943
 51
249.3753939539556939
  0
ARC
  5
3BE89
  8
0
 10
4940.8703552801916885
 20
0.1657343008282401
 30
0.0
 40
0.006136006549642
 50
249.3753939539568023
 51
270.1055954038841946
  0
ARC
  5
3BE8A
  8
0
 10
4940.8703547893901487
 20
0.1600086839597177
 30
0.0
 40
0.0004105488553664
 50
271.6469359997121273
 51
330.5079574168560725
  0
ARC
  5
3BE8B
  8
0
 10
4940.8703210790135927
 20
0.1599360659734748
 30
0.0
 40
0.0004119451071381
 50
341.6782209027326758
 51
18.7808901963599304
  0
ARC
  5
3BE8C
  8
0
 10
4940.8658902753650182
 20
0.1575775092742115
 30
0.0
 40
0.0054264400154332
 50
27.3279039333848317
 51
49.2553700146982791
  0
ARC
  5
3BE8D
  8
0
 10
4940.8260391212379545
 20
0.1138013919721206
 30
0.0
 40
0.064623082635935
 50
47.8188169284338471
 51
54.3115231463527692
  0
ARC
  5
3BE8E
  8
0
 10
4940.7131065485073123
 20
-0.0392926198659427
 30
0.0
 40
0.254859953169261
 50
53.7692048797401512
 51
56.2306228159294221
  0
ARC
  5
3BE8F
  8
0
 10
4940.1072366434600553
 20
-0.9646757481898449
 30
0.0
 40
1.3609298999130339
 50
56.682237460622737
 51
60.247713957054259
  0
ARC
  5
3BE90
  8
0
 10
4940.0970155138784321
 20
-0.9588465377691692
 30
0.0
 40
1.360992213957414
 50
59.7523544144571304
 51
63.3176675817181618
  0
ARC
  5
3BE91
  8
0
 10
4940.6095719721697606
 20
0.0582285880439524
 30
0.0
 40
0.2220689709122111
 50
63.6436105735279085
 51
67.1625467002842527
  0
ARC
  5
3BE92
  8
0
 10
4940.6809159057329452
 20
0.2283779204712237
 30
0.0
 40
0.0375689274467471
 50
66.725178361817612
 51
75.0588703002736111
  0
ARC
  5
3BE93
  8
0
 10
4940.6896316481943359
 20
0.2607840274481017
 30
0.0
 40
0.004011823332462
 50
76.0004062517333097
 51
91.5912758306959347
  0
ARC
  5
3BE94
  8
0
 10
4940.6895171189153189
 20
0.2642604335002217
 30
0.0
 40
0.000533879276139
 50
89.6648146474855423
 51
136.2588932742505108
  0
ARC
  5
3BE95
  8
0
 10
4940.6894144613461322
 20
0.2644503236803422
 30
0.0
 40
0.0003350299248236
 50
147.6574174569591094
 51
196.1778562293283983
  0
ARC
  5
3BE96
  8
0
 10
4940.6912548120371866
 20
0.265117706679554
 30
0.0
 40
0.0022920395310445
 50
199.3841675315044029
 51
222.8593073305702035
  0
ARC
  5
3BE97
  8
0
 10
4940.7112012581810632
 20
0.2842184536413721
 30
0.0
 40
0.0299087885892081
 50
223.6902954411054907
 51
233.5480290710212898
  0
ARC
  5
3BE98
  8
0
 10
4940.794131344854577
 20
0.3922511968751068
 30
0.0
 40
0.1660973761387171
 50
232.6794978395508053
 51
235.687323677237913
  0
ARC
  5
3BE99
  8
0
 10
4940.9046284265396025
 20
0.5517797741642166
 30
0.0
 40
0.3601544396987634
 50
235.4741456489514917
 51
236.360304488317297
  0
LINE
  5
3BE9A
  8
0
 10
4941.2140915720483463
 20
0.0980792099651287
 30
0.0
 11
4941.514131869396806
 21
-0.075149136395666
 31
0.0
  0
ARC
  5
3BE9B
  8
0
 10
4941.4966081128595761
 20
-0.1055011730717323
 30
0.0
 40
0.0350475130866161
 50
238.2532442840312115
 51
60.0000000117357217
  0
LINE
  5
3BE9C
  8
0
 10
4948.2152223026478168
 20
4.3965988040651292
 30
0.0
 11
4948.1558923853617671
 21
4.3945269576275141
 31
0.0
  0
ARC
  5
3BE9D
  8
0
 10
4948.1561682887631832
 20
4.3866261182549282
 30
0.0
 40
0.0079056552845167
 50
92.000000069561068
 51
185.0374350217329891
  0
LINE
  5
3BE9E
  8
0
 10
4948.1482931687478413
 20
4.3859319495259381
 30
0.0
 11
4948.1482931687478413
 21
4.3003532192651281
 31
0.0
  0
ARC
  5
3BE9F
  8
0
 10
4948.1561671845865931
 20
4.3003532192651281
 30
0.0
 40
0.0078740158394304
 50
180.000000000005997
 51
267.999999705863388
  0
LINE
  5
3BEA0
  8
0
 10
4948.1558923853581291
 20
4.2924840000648068
 30
0.0
 11
4948.2152223026378124
 21
4.2904121533945032
 31
0.0
  0
LINE
  5
3BEA1
  8
0
 10
4948.2152223026478168
 20
4.1607412261347241
 30
0.0
 11
4948.1558923853617671
 21
4.158669379697109
 31
0.0
  0
ARC
  5
3BEA2
  8
0
 10
4948.1561682887631832
 20
4.150768540324524
 30
0.0
 40
0.0079056552845167
 50
92.000000069561068
 51
185.0374350217329038
  0
LINE
  5
3BEA3
  8
0
 10
4948.1482931687478413
 20
4.1500743715955331
 30
0.0
 11
4948.1482931687478413
 21
4.0644956413347231
 31
0.0
  0
ARC
  5
3BEA4
  8
0
 10
4948.1561671845865931
 20
4.0644956413347231
 30
0.0
 40
0.0078740158394304
 50
180.0000000000059117
 51
267.999999705863388
  0
LINE
  5
3BEA5
  8
0
 10
4948.1558923853581291
 20
4.0566264221344026
 30
0.0
 11
4948.2152223026378124
 21
4.054554575464099
 31
0.0
  0
LINE
  5
3BEA6
  8
0
 10
4948.2152223026478168
 20
3.9245207536847242
 30
0.0
 11
4948.1558923853617671
 21
3.9224489072471092
 31
0.0
  0
ARC
  5
3BEA7
  8
0
 10
4948.1561682887631832
 20
3.9145480678745228
 30
0.0
 40
0.0079056552845167
 50
92.000000069561068
 51
185.0374350217329038
  0
LINE
  5
3BEA8
  8
0
 10
4948.1482931687478413
 20
3.9138538991455332
 30
0.0
 11
4948.1482931687478413
 21
3.8282751688847232
 31
0.0
  0
ARC
  5
3BEA9
  8
0
 10
4948.1561671845865931
 20
3.8282751688847232
 30
0.0
 40
0.0078740158394304
 50
180.0000000000059117
 51
267.999999705863388
  0
LINE
  5
3BEAA
  8
0
 10
4948.1558923853581291
 20
3.8204059496844032
 30
0.0
 11
4948.2152223026378124
 21
3.8183341030140978
 31
0.0
  0
LINE
  5
3BEAB
  8
0
 10
4948.2152223026478168
 20
3.6883002811847239
 30
0.0
 11
4948.1558923853617671
 21
3.6862284347471088
 31
0.0
  0
ARC
  5
3BEAC
  8
0
 10
4948.1561682887631832
 20
3.6783275953745229
 30
0.0
 40
0.0079056552845167
 50
92.000000069561068
 51
185.0374350217329038
  0
LINE
  5
3BEAD
  8
0
 10
4948.1482931687478413
 20
3.6776334266455328
 30
0.0
 11
4948.1482931687478413
 21
3.5920546963847229
 31
0.0
  0
ARC
  5
3BEAE
  8
0
 10
4948.1561671845865931
 20
3.5920546963847229
 30
0.0
 40
0.0078740158394304
 50
180.0000000000059117
 51
267.999999705863388
  0
LINE
  5
3BEAF
  8
0
 10
4948.1558923853581291
 20
3.5841854771844019
 30
0.0
 11
4948.2152223026378124
 21
3.5821136305140979
 31
0.0
  0
LINE
  5
3BEB0
  8
0
 10
4948.2152223026478168
 20
3.4517169142651278
 30
0.0
 11
4948.1558923853472152
 21
3.449645067865128
 31
0.0
  0
ARC
  5
3BEB1
  8
0
 10
4948.1561735606828734
 20
3.4417619640740629
 30
0.0
 40
0.0078881166922094
 50
92.0427656164166592
 51
182.5358807357158923
  0
LINE
  5
3BEB2
  8
0
 10
4948.1482931687478413
 20
3.4414129541955329
 30
0.0
 11
4948.1482931687478413
 21
3.355834223934723
 31
0.0
  0
ARC
  5
3BEB3
  8
0
 10
4948.156173590695289
 20
3.3554852322744462
 30
0.0
 40
0.0078881458694107
 50
177.4642611086931083
 51
267.8605883071393805
  0
LINE
  5
3BEB4
  8
0
 10
4948.1558791175193619
 20
3.347602584825438
 30
0.0
 11
4948.2152223026478168
 21
3.3455301864306919
 31
0.0
  0
LINE
  5
3BEB5
  8
0
 10
4948.2152223026478168
 20
3.2158593363347241
 30
0.0
 11
4948.1558923853617671
 21
3.2137874898971091
 31
0.0
  0
ARC
  5
3BEB6
  8
0
 10
4948.1561682887631832
 20
3.2058866505245232
 30
0.0
 40
0.0079056552845167
 50
92.000000069561068
 51
185.0374350217329038
  0
LINE
  5
3BEB7
  8
0
 10
4948.1482931687478413
 20
3.2051924817955331
 30
0.0
 11
4948.1482931687478413
 21
3.1196137515347231
 31
0.0
  0
ARC
  5
3BEB8
  8
0
 10
4948.1561671845865931
 20
3.1196137515347231
 30
0.0
 40
0.0078740158394304
 50
180.0000000000059117
 51
267.999999705863388
  0
LINE
  5
3BEB9
  8
0
 10
4948.1558923853581291
 20
3.1117445323344031
 30
0.0
 11
4948.2152223026378124
 21
3.1096726856640982
 31
0.0
  0
LINE
  5
3BEBA
  8
0
 10
4948.2152223026478168
 20
2.9796388638847251
 30
0.0
 11
4948.1558923853617671
 21
2.9775670174471101
 31
0.0
  0
ARC
  5
3BEBB
  8
0
 10
4948.1561682887631832
 20
2.9696661780745242
 30
0.0
 40
0.0079056552845167
 50
92.000000069561068
 51
185.0374350217329038
  0
LINE
  5
3BEBC
  8
0
 10
4948.1482931687478413
 20
2.9689720093455341
 30
0.0
 11
4948.1482931687478413
 21
2.8833932790847241
 31
0.0
  0
ARC
  5
3BEBD
  8
0
 10
4948.1561671845865931
 20
2.8833932790847241
 30
0.0
 40
0.0078740158394304
 50
180.0000000000059117
 51
267.999999705863388
  0
LINE
  5
3BEBE
  8
0
 10
4948.1558923853581291
 20
2.8755240598844032
 30
0.0
 11
4948.2152223026378124
 21
2.8734522132140992
 31
0.0
  0
LINE
  5
3BEBF
  8
0
 10
4948.2152223026478168
 20
2.7434183914347239
 30
0.0
 11
4948.1558923853617671
 21
2.7413465449971088
 31
0.0
  0
ARC
  5
3BEC0
  8
0
 10
4948.1561682887631832
 20
2.7334457056245229
 30
0.0
 40
0.0079056552845167
 50
92.000000069561068
 51
185.0374350217329038
  0
LINE
  5
3BEC1
  8
0
 10
4948.1482931687478413
 20
2.7327515368955329
 30
0.0
 11
4948.1482931687478413
 21
2.6471728066347229
 31
0.0
  0
ARC
  5
3BEC2
  8
0
 10
4948.1561671845865931
 20
2.6471728066347229
 30
0.0
 40
0.0078740158394304
 50
180.0000000000059117
 51
267.999999705863388
  0
LINE
  5
3BEC3
  8
0
 10
4948.1558923853581291
 20
2.6393035874344029
 30
0.0
 11
4948.2152223026378124
 21
2.6372317407640979
 31
0.0
  0
LINE
  5
3BEC4
  8
0
 10
4948.2152223026478168
 20
2.5071979189847249
 30
0.0
 11
4948.1558923853617671
 21
2.5051260725471098
 31
0.0
  0
ARC
  5
3BEC5
  8
0
 10
4948.1561682887631832
 20
2.4972252331745239
 30
0.0
 40
0.0079056552845167
 50
92.000000069561068
 51
185.0374350217329038
  0
LINE
  5
3BEC6
  8
0
 10
4948.1482931687478413
 20
2.4965310644455339
 30
0.0
 11
4948.1482931687478413
 21
2.4109523341847239
 31
0.0
  0
ARC
  5
3BEC7
  8
0
 10
4948.1561671845865931
 20
2.4109523341847239
 30
0.0
 40
0.0078740158394304
 50
180.0000000000059117
 51
267.999999705863388
  0
LINE
  5
3BEC8
  8
0
 10
4948.1558923853581291
 20
2.403083114984403
 30
0.0
 11
4948.2152223026378124
 21
2.4010112683140989
 31
0.0
  0
LINE
  5
3BEC9
  8
0
 10
4948.2152349597654393
 20
2.2706149940614262
 30
0.0
 11
4948.1559050424793895
 21
2.268543147661906
 31
0.0
  0
ARC
  5
3BECA
  8
0
 10
4948.1561735502191368
 20
2.2606596122308869
 30
0.0
 40
0.0078881066992457
 50
91.9507003866559103
 51
182.5359596151189123
  0
LINE
  5
3BECB
  8
0
 10
4948.1482931687478413
 20
2.260310591945534
 30
0.0
 11
4948.1482931687478413
 21
2.174731861684724
 31
0.0
  0
ARC
  5
3BECC
  8
0
 10
4948.1561738970012811
 20
2.1743831523517279
 30
0.0
 40
0.0078884393902091
 50
177.4664081469177859
 51
267.8584416296940276
  0
LINE
  5
3BECD
  8
0
 10
4948.1558791175211809
 20
2.1665002226253689
 30
0.0
 11
4948.2152223026478168
 21
2.1644279016651291
 31
0.0
  0
ARC
  5
3BECE
  8
0
 10
4940.6502794337802698
 20
0.3733315333433791
 30
0.0
 40
0.0075042548933407
 50
145.2824460301982015
 51
225.2463337180267047
  0
LINE
  5
3BECF
  8
0
 10
4940.6441111644489865
 20
0.3776054419651129
 30
0.0
 11
4941.0712317100460496
 21
1.1173999278124871
 31
0.0
  0
ARC
  5
3BED0
  8
0
 10
4941.9948057973060713
 20
0.5841741798549203
 30
0.0
 40
1.066451495822637
 50
89.0000000488068821
 51
149.9999999971342959
  0
LINE
  5
3BED1
  8
0
 10
4942.0134179413298625
 20
1.650463249965437
 30
0.0
 11
4948.2152223026478168
 21
1.542210351465128
 31
0.0
  0
ARC
  5
3BED2
  8
0
 10
4940.9845077696427325
 20
0.1800527385351889
 30
0.0
 40
0.0071066820692079
 50
229.4549049761490949
 51
337.1728078542436151
  0
LINE
  5
3BED3
  8
0
 10
4940.9910578502467615
 20
0.177295679565129
 30
0.0
 11
4941.4181783956246363
 21
0.9170901653767372
 31
0.0
  0
ARC
  5
3BED4
  8
0
 10
4941.9948057963483734
 20
0.5841741804651291
 30
0.0
 40
0.6658319700000022
 50
89.000000000284885
 51
150.0000000087916021
  0
LINE
  5
3BED5
  8
0
 10
4942.0064261665029335
 20
1.249904741031129
 30
0.0
 11
4947.5948601058462373
 21
1.1523582638021399
 31
0.0
  0
ARC
  5
3BED6
  8
0
 10
4947.5853010442870072
 20
0.6047199937189336
 30
0.0
 40
0.5477216907496077
 50
54.8953401588219521
 51
89.000000000284885
  0
ARC
  5
3BED7
  8
0
 10
4948.8845136412473948
 20
1.1726832490651391
 30
0.0
 40
0.5905511810999798
 50
6.8851976515986868
 51
62.1772410802902371
  0
LINE
  5
3BEDC
  8
0
 10
4948.2152223026478168
 20
5.0344503607651276
 30
0.0
 11
4949.1601041924468518
 21
5.0344503607651276
 31
0.0
  0
LINE
  5
3BEDD
  8
0
 10
4948.2049741515465939
 20
1.4044897308651281
 30
0.0
 11
4948.1364821451479656
 21
1.239135400165128
 31
0.0
  0
LINE
  5
3BEDE
  8
0
 10
4948.1364821451479656
 20
1.239135400165128
 30
0.0
 11
4948.1364821451479656
 21
-0.741179560534871
 31
0.0
  0
LINE
  5
3BEDF
  8
0
 10
4949.1703523435480747
 20
1.4044897308651281
 30
0.0
 11
4949.2388443498475681
 21
1.239135400165128
 31
0.0
  0
LINE
  5
3BEE0
  8
0
 10
4949.2388443498475681
 20
1.239135400165128
 30
0.0
 11
4949.2388443498475681
 21
-0.7411795605348713
 31
0.0
  0
LINE
  5
3BF4A
  8
0
 10
4948.0082396525476724
 20
-2.2490535762348709
 30
0.0
 11
4947.959316790847879
 21
-2.3671638124348711
 31
0.0
  0
LINE
  5
3BF4B
  8
0
 10
4947.959316790847879
 20
-2.3671638124348711
 30
0.0
 11
4947.959316790847879
 21
-2.5640142061348712
 31
0.0
  0
LINE
  5
3BF4C
  8
0
 10
4949.3670868425479057
 20
-2.2490535762348709
 30
0.0
 11
4949.4160097042476991
 21
-2.3671638124348711
 31
0.0
  0
LINE
  5
3BF4D
  8
0
 10
4949.4160097042476991
 20
-2.3671638124348711
 30
0.0
 11
4949.4160097042476991
 21
-2.5640142061348712
 31
0.0
  0
LINE
  5
3BF4E
  8
0
 10
4948.2152223026478168
 20
5.0861007478671514
 30
0.0
 11
4949.1601041924468518
 21
5.0861007478671514
 31
0.0
  0
LINE
  5
3BF5A
  8
0
 10
4949.4750648223480312
 20
1.239135400165128
 30
0.0
 11
4949.1601041924468518
 21
1.239135400165128
 31
0.0
  0
LINE
  5
3BF5B
  8
0
 10
4948.2152223026478168
 20
1.239135400165128
 30
0.0
 11
4947.900261672747547
 21
1.239135400165128
 31
0.0
  0
LINE
  5
3BF63
  8
0
 10
4941.9731736934973014
 20
1.883386478496291
 30
0.0
 11
4942.0174801826196926
 21
1.883386478496291
 31
0.0
  0
ATTDEF
  5
3BF70
  8
DEFPOINTS
 10
4948.6877030075220318
 20
-2.5606498641603248
 30
0.0
 40
0.001
  1
P32712-00
  3

  2
MODELNUMBER
 70
     0
1001
ACDBATTR
1070
     0
1070
     1
  0
ATTDEF
  5
3BF71
  8
DEFPOINTS
 10
4948.6877030075220318
 20
-2.56231653082699
 30
0.0
 40
0.001
  1
BEZEL
  3

  2
TRADENAME
 70
     0
1001
ACDBATTR
1070
     0
1070
     1
  0
ATTDEF
  5
3BF72
  8
DEFPOINTS
 10
4948.6877030075220318
 20
-2.5639831974936551
 30
0.0
 40
0.001
  1
BATH FAUCET
  3

  2
PRODUCT
 70
     0
1001
ACDBATTR
1070
     0
1070
     1
  0
ENDSEC
  0
EOF
