  0
SECTION
  2
HEADER
  9
$ACADVER
  1
AC1009
  9
$INSBASE
 10
4912.8199674096313174
 20
-2.5639938468291059
 30
0.0
  9
$EXTMIN
 10
4910.1841406380308399
 20
-2.5639938479333551
 30
0.0
  9
$EXTMAX
 10
4919.8863281194935553
 20
34.0108093027708875
 30
0.0
  9
$LIMMIN
 10
0.0
 20
0.0
  9
$LIMMAX
 10
11.6929133858000007
 20
8.2677165353999982
  9
$ORTHOMODE
 70
     1
  9
$REGENMODE
 70
     1
  9
$FILLMODE
 70
     1
  9
$QTEXTMODE
 70
     0
  9
$MIRRTEXT
 70
     0
  9
$DRAGMODE
 70
     2
  9
$LTSCALE
 40
0.6431102362
  9
$OSMODE
 70
  2047
  9
$ATTMODE
 70
     1
  9
$TEXTSIZE
 40
0.2
  9
$TRACEWID
 40
0.05
  9
$TEXTSTYLE
  7
STANDARD
  9
$CLAYER
  8
0
  9
$CELTYPE
  6
BYLAYER
  9
$CECOLOR
 62
   256
  9
$DIMSCALE
 40
1.0
  9
$DIMASZ
 40
0.1875
  9
$DIMEXO
 40
0.0625
  9
$DIMDLI
 40
0.4443307087
  9
$DIMRND
 40
0.0
  9
$DIMDLE
 40
0.0
  9
$DIMEXE
 40
0.125
  9
$DIMTP
 40
0.01
  9
$DIMTM
 40
0.01
  9
$DIMTXT
 40
2.0
  9
$DIMCEN
 40
0.1052362205
  9
$DIMTSZ
 40
0.0
  9
$DIMTOL
 70
     1
  9
$DIMLIM
 70
     0
  9
$DIMTIH
 70
     1
  9
$DIMTOH
 70
     1
  9
$DIMSE1
 70
     0
  9
$DIMSE2
 70
     0
  9
$DIMTAD
 70
     0
  9
$DIMZIN
 70
     0
  9
$DIMBLK
  1

  9
$DIMASO
 70
     1
  9
$DIMSHO
 70
     1
  9
$DIMPOST
  1
\X
  9
$DIMAPOST
  1

  9
$DIMALT
 70
     1
  9
$DIMALTD
 70
     2
  9
$DIMALTF
 40
25.3999999999999986
  9
$DIMLFAC
 40
1.0
  9
$DIMTOFL
 70
     0
  9
$DIMTVP
 40
0.0
  9
$DIMTIX
 70
     0
  9
$DIMSOXD
 70
     0
  9
$DIMSAH
 70
     0
  9
$DIMBLK1
  1

  9
$DIMBLK2
  1

  9
$DIMSTYLE
  2
STANDARD
  9
$DIMCLRD
 70
     0
  9
$DIMCLRE
 70
     0
  9
$DIMCLRT
 70
     0
  9
$DIMTFAC
 40
1.0
  9
$DIMGAP
 40
0.09
  9
$LUNITS
 70
     2
  9
$LUPREC
 70
     4
  9
$SKETCHINC
 40
0.1
  9
$FILLETRAD
 40
0.0
  9
$AUNITS
 70
     0
  9
$AUPREC
 70
     0
  9
$MENU
  1
.
  9
$ELEVATION
 40
0.0
  9
$PELEVATION
 40
0.0
  9
$THICKNESS
 40
0.0
  9
$LIMCHECK
 70
     0
  9
$BLIPMODE
 70
     0
  9
$CHAMFERA
 40
0.0
  9
$CHAMFERB
 40
0.0
  9
$SKPOLY
 70
     0
  9
$TDCREATE
 40
2458060.468368056230247
  9
$TDUPDATE
 40
2460657.4765277779661119
  9
$TDINDWG
 40
1.0066853009000001
  9
$TDUSRTIMER
 40
1.0066853009000001
  9
$USRTIMER
 70
     1
  9
$ANGBASE
 50
0.0
  9
$ANGDIR
 70
     0
  9
$PDMODE
 70
     0
  9
$PDSIZE
 40
0.3125
  9
$PLINEWID
 40
0.0
  9
$COORDS
 70
     1
  9
$SPLFRAME
 70
     0
  9
$SPLINETYPE
 70
     6
  9
$SPLINESEGS
 70
     8
  9
$ATTDIA
 70
     1
  9
$ATTREQ
 70
     1
  9
$HANDLING
 70
     1
  9
$HANDSEED
  5
3D599
  9
$SURFTAB1
 70
     6
  9
$SURFTAB2
 70
     6
  9
$SURFTYPE
 70
     6
  9
$SURFU
 70
     6
  9
$SURFV
 70
     6
  9
$UCSNAME
  2

  9
$UCSORG
 10
0.0
 20
0.0
 30
0.0
  9
$UCSXDIR
 10
1.0
 20
0.0
 30
0.0
  9
$UCSYDIR
 10
0.0
 20
1.0
 30
0.0
  9
$PUCSNAME
  2

  9
$PUCSORG
 10
0.0
 20
0.0
 30
0.0
  9
$PUCSXDIR
 10
1.0
 20
0.0
 30
0.0
  9
$PUCSYDIR
 10
0.0
 20
1.0
 30
0.0
  9
$USERI1
 70
     0
  9
$USERI2
 70
     0
  9
$USERI3
 70
     0
  9
$USERI4
 70
     0
  9
$USERI5
 70
     0
  9
$USERR1
 40
0.0
  9
$USERR2
 40
0.0
  9
$USERR3
 40
0.0
  9
$USERR4
 40
0.0
  9
$USERR5
 40
0.0
  9
$WORLDVIEW
 70
     1
  9
$SHADEDGE
 70
     3
  9
$SHADEDIF
 70
    70
  9
$TILEMODE
 70
     1
  9
$MAXACTVP
 70
    64
  9
$PLIMCHECK
 70
     0
  9
$PEXTMIN
 10
1.0000000000000000E+20
 20
1.0000000000000000E+20
 30
1.0000000000000000E+20
  9
$PEXTMAX
 10
-1.0000000000000000E+20
 20
-1.0000000000000000E+20
 30
-1.0000000000000000E+20
  9
$PLIMMIN
 10
0.0
 20
0.0
  9
$PLIMMAX
 10
12.0
 20
9.0
  9
$UNITMODE
 70
     0
  9
$VISRETAIN
 70
     1
  9
$PLINEGEN
 70
     0
  9
$PSLTSCALE
 70
     1
  0
ENDSEC
  0
SECTION
  2
TABLES
  0
TABLE
  2
VPORT
 70
     1
  0
VPORT
  2
*ACTIVE
 70
     0
 10
0.0
 20
0.0
 11
1.0
 21
1.0
 12
1122.5808148682740466
 22
-104.4580392776600064
 13
0.0
 23
0.0
 14
1.0
 24
1.0
 15
0.0
 25
0.0
 16
0.0
 26
0.0
 36
5.1040778033513332
 17
3792.35791015625
 27
120.1806564331053977
 37
0.0
 40
36.8821381734432308
 41
2.558981233243967
 42
50.0
 43
0.0
 44
0.0
 50
0.0
 51
0.0
 71
     0
 72
   100
 73
     1
 74
     1
 75
     0
 76
     0
 77
     0
 78
     0
  0
ENDTAB
  0
TABLE
  2
LTYPE
 70
     2
  0
LTYPE
  2
CONTINUOUS
 70
     0
  3
Solid line
 72
    65
 73
     0
 40
0.0
  0
LTYPE
  2
PHANTOM2
 70
     0
  3
___ _ _ ___ _ _ ___ _ _ ___ _ _
 72
    65
 73
     6
 40
1.25
 49
0.625
 49
-0.125
 49
0.125
 49
-0.125
 49
0.125
 49
-0.125
  0
ENDTAB
  0
TABLE
  2
LAYER
 70
     2
  0
LAYER
  2
0
 70
     0
 62
   255
  6
CONTINUOUS
  0
LAYER
  2
DEFPOINTS
 70
     0
 62
     7
  6
CONTINUOUS
  0
ENDTAB
  0
TABLE
  2
STYLE
 70
     1
  0
STYLE
  2
STANDARD
 70
     0
 40
0.0
 41
0.8
 50
0.0
 71
     0
 42
0.2
  3
txt
  4

  0
ENDTAB
  0
TABLE
  2
VIEW
 70
     0
  0
ENDTAB
  0
TABLE
  2
UCS
 70
     0
  0
ENDTAB
  0
TABLE
  2
APPID
 70
    11
  0
APPID
  2
ACAD
 70
     0
  0
APPID
  2
ACAD_MLEADERVER
 70
     0
  0
APPID
  2
ACAD_EXEMPT_FROM_CAD_STANDARDS
 70
     0
  0
APPID
  2
ACAD_NAV_VCDISPLAY
 70
     0
  0
APPID
  2
ACAECLAYERSTANDARD
 70
     0
  0
APPID
  2
ACCMTRANSPARENCY
 70
     0
  0
APPID
  2
ACAD_DSTYLE_DIMJAG
 70
     0
  0
APPID
  2
ACAD_DSTYLE_DIMTALN
 70
     0
  0
APPID
  2
ACDBATTR
 70
     0
  0
APPID
  2
GRADIENTCOLOR1ACI
 70
     0
  0
APPID
  2
GRADIENTCOLOR2ACI
 70
     0
  0
ENDTAB
  0
TABLE
  2
DIMSTYLE
 70
     1
  0
DIMSTYLE
  2
STANDARD
 70
     0
  3

  4

  5

  6

  7

 40
1.0
 41
0.1875
 42
0.0625
 43
0.38
 44
0.125
 45
0.0
 46
0.0
 47
0.01
 48
0.01
140
0.15625
141
0.09
142
0.0
143
25.3999999999999986
144
1.0
145
0.0
146
1.0
147
0.09
 71
     1
 72
     0
 73
     1
 74
     1
 75
     0
 76
     0
 77
     0
 78
     4
170
     0
171
     2
172
     0
173
     0
174
     0
175
     0
176
     0
177
     0
178
     0
  0
ENDTAB
  0
ENDSEC
  0
SECTION
  2
BLOCKS
  0
BLOCK
  8
0
  2
$MODEL_SPACE
 70
     0
 10
0.0
 20
0.0
 30
0.0
  3
$MODEL_SPACE
  1

  0
ENDBLK
  5
21
  8
0
  0
BLOCK
 67
     1
  8
0
  2
$PAPER_SPACE
 70
     0
 10
0.0
 20
0.0
 30
0.0
  3
$PAPER_SPACE
  1

  0
ENDBLK
  5
1D
 67
     1
  8
0
  0
ENDSEC
  0
SECTION
  2
ENTITIES
  0
ATTDEF
  5
25833
  8
DEFPOINTS
 10
4912.819982583005185
 20
-2.5606498641603248
 30
0.0
 40
0.001
  1
P32713-GTM
  3

  2
MODELNUMBER
 70
     0
1001
ACDBATTR
1070
     0
1070
     1
  0
ATTDEF
  5
25834
  8
DEFPOINTS
 10
4912.819982583005185
 20
-2.56231653082699
 30
0.0
 40
0.001
  1
BEZEL
  3

  2
TRADENAME
 70
     0
1001
ACDBATTR
1070
     0
1070
     1
  0
ATTDEF
  5
25835
  8
DEFPOINTS
 10
4912.819982583005185
 20
-2.5639831974936551
 30
0.0
 40
0.001
  1
BATH FAUCET
  3

  2
PRODUCT
 70
     0
1001
ACDBATTR
1070
     0
1070
     1
  0
LINE
  5
3CFF6
  8
0
 10
4911.9511961939306275
 20
33.8454549720708968
 30
0.0
 11
4911.9516402689196184
 21
31.8454549720709004
 31
0.0
  0
LINE
  5
3CFF7
  8
0
 10
4911.9516511960709977
 20
31.7962418814456989
 30
0.0
 11
4911.9538256773303146
 21
22.0029352870708905
 31
0.0
  0
LINE
  5
3CFF9
  8
0
 10
4913.6861091419314107
 20
33.8459720143555032
 30
0.0
 11
4913.6861091419314107
 21
31.8454549720708791
 31
0.0
  0
LINE
  5
3CFFA
  8
0
 10
4913.6861091419314107
 20
31.7962423736708892
 30
0.0
 11
4913.6861091419314107
 21
22.0029352870708905
 31
0.0
  0
LINE
  5
3CFFB
  8
0
 10
4913.6861091419314107
 20
21.9635652082708894
 30
0.0
 11
4913.6861091419314107
 21
-2.178167075229128
 31
0.0
  0
LINE
  5
3CFFD
  8
0
 10
4915.1821939460942303
 20
-2.4239629067791091
 30
0.0
 11
4915.1821796434232965
 21
-2.5639938468291081
 31
0.0
  0
LINE
  5
3D002
  8
0
 10
4910.4577555602299981
 20
-2.4239629067791042
 30
0.0
 11
4910.4577555602299981
 21
-2.5639938479333551
 31
0.0
  0
LINE
  5
3D004
  8
0
 10
4915.1821721340311342
 20
-2.5639938468291081
 30
0.0
 11
4910.4577626852296817
 21
-2.5639938468291059
 31
0.0
  0
LINE
  5
3D006
  8
0
 10
4913.5181253278296936
 20
34.0108093027708875
 30
0.0
 11
4912.1165505246308385
 21
34.0108093027708875
 31
0.0
  0
LINE
  5
3D007
  8
0
 10
4916.7674083545298345
 20
32.4057148145708993
 30
0.0
 11
4915.82252646472989
 21
32.4057148145708993
 31
0.0
  0
LINE
  5
3D008
  8
0
 10
4913.6861091419314107
 20
32.4057148145708993
 30
0.0
 11
4913.683479658530814
 21
32.4057148145708993
 31
0.0
  0
LINE
  5
3D00A
  8
0
 10
4916.7674083545298345
 20
32.4610677945709014
 30
0.0
 11
4916.7674083545298345
 21
25.3191006413708983
 31
0.0
  0
LINE
  5
3D00C
  8
0
 10
4915.82252646472989
 20
32.4610677945709014
 30
0.0
 11
4915.82252646472989
 21
25.3191006413708983
 31
0.0
  0
LINE
  5
3D00D
  8
0
 10
4915.82252646472989
 20
25.3191006413708983
 30
0.0
 11
4916.7674083545298345
 21
25.3191006413708983
 31
0.0
  0
LINE
  5
3D00E
  8
0
 10
4916.7210418504300833
 20
25.3191006413708983
 30
0.0
 11
4916.7503353527299623
 21
25.2724030868708986
 31
0.0
  0
LINE
  5
3D00F
  8
0
 10
4916.7503353527299623
 20
25.2724030868708986
 30
0.0
 11
4916.7503353527299623
 21
25.0974234759708992
 31
0.0
  0
LINE
  5
3D010
  8
0
 10
4916.7503353527299623
 20
23.9163273249659092
 30
0.0
 11
4916.7503353527299623
 21
23.9163211137708984
 31
0.0
  0
LINE
  5
3D011
  8
0
 10
4915.868892779430098
 20
25.3191006413708983
 30
0.0
 11
4915.8395992771311285
 21
25.2724030868708986
 31
0.0
  0
LINE
  5
3D012
  8
0
 10
4915.8395992771311285
 20
25.2724030868708986
 30
0.0
 11
4915.8422476874648055
 21
25.0974235739055587
 31
0.0
  0
LINE
  5
3D013
  8
0
 10
4911.7589437876313241
 20
25.2352187515709012
 30
0.0
 11
4910.3494949687301414
 21
25.2352187515709012
 31
0.0
  0
LINE
  5
3D014
  8
0
 10
4910.3494949687301414
 20
25.2352187515709012
 30
0.0
 11
4910.1841406380308399
 21
25.0698644208708998
 31
0.0
  0
LINE
  5
3D015
  8
0
 10
4910.1841406380308399
 20
25.0698644208708998
 30
0.0
 11
4910.1841406380308399
 21
23.9438801688709013
 31
0.0
  0
LINE
  5
3D016
  8
0
 10
4910.1841406380308399
 20
23.9438801688709013
 30
0.0
 11
4910.3494949687301414
 21
23.7785258381708893
 31
0.0
  0
LINE
  5
3D017
  8
0
 10
4910.3494949687301414
 20
23.7785258381708893
 30
0.0
 11
4911.7589437876313241
 21
23.7785258381708893
 31
0.0
  0
LINE
  5
3D018
  8
0
 10
4911.7589437876313241
 20
23.7785258381708893
 30
0.0
 11
4911.7589437876313241
 21
25.2352187515709012
 31
0.0
  0
LINE
  5
3D019
  8
0
 10
4911.7589437876313241
 20
24.6631174510708995
 30
0.0
 11
4911.8160304017301314
 21
24.6631174510708995
 31
0.0
  0
LINE
  5
3D01A
  8
0
 10
4911.8160304017301314
 20
24.6631174510708995
 30
0.0
 11
4911.8160304017301314
 21
24.3506271387708999
 31
0.0
  0
LINE
  5
3D01B
  8
0
 10
4911.8160304017301314
 20
24.3506271387708999
 30
0.0
 11
4911.7589437876313241
 21
24.3506271387708999
 31
0.0
  0
LINE
  5
3D01C
  8
0
 10
4911.7589437876313241
 20
25.1171085153709015
 30
0.0
 11
4911.8160304017301314
 21
25.1171085153709015
 31
0.0
  0
LINE
  5
3D01D
  8
0
 10
4911.8160304017301314
 20
25.1171085153709015
 30
0.0
 11
4911.8160304017301314
 21
25.1367935547709003
 31
0.0
  0
LINE
  5
3D01E
  8
0
 10
4911.8160304017301314
 20
25.1367935547709003
 30
0.0
 11
4911.9341406380308399
 21
25.1367935547709003
 31
0.0
  0
LINE
  5
3D01F
  8
0
 10
4911.9341406380308399
 20
25.1367935547709003
 30
0.0
 11
4911.9341406380308399
 21
23.8769510350708885
 31
0.0
  0
LINE
  5
3D020
  8
0
 10
4911.9341406380308399
 20
23.8769510350708885
 30
0.0
 11
4911.8160304017301314
 21
23.8769510350708885
 31
0.0
  0
LINE
  5
3D021
  8
0
 10
4911.8160304017301314
 20
23.8769510350708885
 30
0.0
 11
4911.8160304017301314
 21
23.8966360744709014
 31
0.0
  0
LINE
  5
3D022
  8
0
 10
4911.8160304017301314
 20
23.8966360744709014
 30
0.0
 11
4911.7589437876313241
 21
23.8966360744709014
 31
0.0
  0
LINE
  5
3D023
  8
0
 10
4911.9341406380308399
 20
23.9163211137708984
 30
0.0
 11
4911.9534008339351203
 21
23.9163211137708984
 31
0.0
  0
LINE
  5
3D024
  8
0
 10
4911.9531385849259095
 20
25.0974234759708992
 30
0.0
 11
4911.9341406380308399
 21
25.0974234759708992
 31
0.0
  0
LINE
  5
3D025
  8
0
 10
4910.1841406380308399
 20
24.9440159479709003
 30
0.0
 11
4910.3494949687301414
 21
25.0125079543708999
 31
0.0
  0
LINE
  5
3D026
  8
0
 10
4910.3494949687301414
 20
25.0125079543708999
 30
0.0
 11
4911.7589437876313241
 21
25.0125079543708999
 31
0.0
  0
LINE
  5
3D027
  8
0
 10
4910.1841406380308399
 20
24.0697286417708902
 30
0.0
 11
4910.3494949687301414
 21
24.0012366354708995
 31
0.0
  0
LINE
  5
3D028
  8
0
 10
4910.3494949687301414
 20
24.0012366354708995
 30
0.0
 11
4911.7589437876313241
 21
24.0012366354708995
 31
0.0
  0
ARC
  5
3D029
  8
0
 10
4910.6191800080296161
 20
23.7765573342709011
 30
0.0
 40
0.0019685038999988
 50
90.0
 51
247.006873966734986
  0
ARC
  5
3D02A
  8
0
 10
4910.7353217403306189
 20
24.0502614025764103
 30
0.0
 40
0.2992946194509771
 50
247.006873966734986
 51
292.9931260132760826
  0
ARC
  5
3D02B
  8
0
 10
4910.8514634725261203
 20
23.7765573342497589
 30
0.0
 40
0.0019685039211358
 50
292.9931260132764237
 51
89.9999969754192932
  0
LINE
  5
3D02C
  8
0
 10
4911.9511961939306275
 20
33.8454549720708968
 30
0.0
 11
4912.1165505246308385
 21
34.0108093027708875
 31
0.0
  0
LINE
  5
3D02D
  8
0
 10
4913.5181253278296936
 20
34.0108093027708875
 30
0.0
 11
4913.6861091419314107
 21
33.8459720143555032
 31
0.0
  0
ARC
  5
3D02E
  8
0
 10
4916.2949674096307717
 20
2.3179116510956108
 30
0.0
 40
30.1468582564808898
 50
89.1020629719107262
 51
90.8979370280892738
  0
CIRCLE
  5
3D02F
  8
0
 10
4916.0567784332297379
 20
31.7147699326708903
 30
0.0
 40
0.0196850393999997
  0
CIRCLE
  5
3D030
  8
0
 10
4916.0567784332297379
 20
31.7147699326708903
 30
0.0
 40
0.0606730810000018
  0
ARC
  5
3D031
  8
0
 10
4916.0587469369438622
 20
31.7167384368265317
 30
0.0
 40
0.0629921260921417
 50
257.882266056212984
 51
44.9996764280783381
  0
ARC
  5
3D032
  8
0
 10
4916.0587469372303531
 20
31.7167384366708696
 30
0.0
 40
0.0629921260000296
 50
44.999676712096047
 51
90.0
  0
ARC
  5
3D033
  8
0
 10
4916.0587469372303531
 20
31.71673843667093
 30
0.0
 40
0.0629921259999655
 50
90.0
 51
138.6165733190264859
  0
ARC
  5
3D034
  8
0
 10
4916.0587469372303531
 20
31.7167384366708802
 30
0.0
 40
0.0629921260000358
 50
138.6165733190267133
 51
192.1177342277067055
  0
CIRCLE
  5
3D035
  8
0
 10
4916.0567784332297379
 20
31.4785494602709015
 30
0.0
 40
0.0196850393999997
  0
CIRCLE
  5
3D036
  8
0
 10
4916.0567784332297379
 20
31.4785494602709015
 30
0.0
 40
0.0606730810000018
  0
ARC
  5
3D037
  8
0
 10
4916.0587469369438622
 20
31.4805179644265287
 30
0.0
 40
0.0629921260921417
 50
257.882266056212984
 51
44.9996764280783381
  0
ARC
  5
3D038
  8
0
 10
4916.0587469372303531
 20
31.4805179642708701
 30
0.0
 40
0.0629921260000296
 50
44.999676712096047
 51
90.0
  0
ARC
  5
3D039
  8
0
 10
4916.0587469372303531
 20
31.4805179642709305
 30
0.0
 40
0.0629921259999655
 50
90.0
 51
138.6165733190264859
  0
ARC
  5
3D03A
  8
0
 10
4916.0587469372303531
 20
31.4805179642708914
 30
0.0
 40
0.0629921260000358
 50
138.6165733190267133
 51
192.1177342277067055
  0
CIRCLE
  5
3D03B
  8
0
 10
4916.0567784332297379
 20
31.2423289877708896
 30
0.0
 40
0.0196850393999997
  0
CIRCLE
  5
3D03C
  8
0
 10
4916.0567784332297379
 20
31.2423289877708896
 30
0.0
 40
0.0606730810000018
  0
ARC
  5
3D03D
  8
0
 10
4916.0587469369438622
 20
31.2442974919265311
 30
0.0
 40
0.0629921260921417
 50
257.882266056212984
 51
44.9996764280783381
  0
ARC
  5
3D03E
  8
0
 10
4916.0587469372303531
 20
31.2442974917708689
 30
0.0
 40
0.0629921260000296
 50
44.999676712096047
 51
90.0
  0
ARC
  5
3D03F
  8
0
 10
4916.0587469372303531
 20
31.2442974917709293
 30
0.0
 40
0.0629921259999655
 50
90.0
 51
138.6165733190264859
  0
ARC
  5
3D040
  8
0
 10
4916.0587469372303531
 20
31.2442974917708796
 30
0.0
 40
0.0629921260000358
 50
138.6165733190267133
 51
192.1177342277067055
  0
CIRCLE
  5
3D041
  8
0
 10
4916.0567784332297379
 20
31.0061085153709008
 30
0.0
 40
0.0196850393999997
  0
CIRCLE
  5
3D042
  8
0
 10
4916.0567784332297379
 20
31.0061085153709008
 30
0.0
 40
0.0606730810000018
  0
ARC
  5
3D043
  8
0
 10
4916.0587469369438622
 20
31.008077019526521
 30
0.0
 40
0.0629921260921417
 50
257.882266056212984
 51
44.9996764280783381
  0
ARC
  5
3D044
  8
0
 10
4916.0587469372303531
 20
31.0080770193708695
 30
0.0
 40
0.0629921260000296
 50
44.999676712096047
 51
90.0
  0
ARC
  5
3D045
  8
0
 10
4916.0587469372303531
 20
31.0080770193709299
 30
0.0
 40
0.0629921259999655
 50
90.0
 51
138.6165733190264859
  0
ARC
  5
3D046
  8
0
 10
4916.0587469372303531
 20
31.0080770193708908
 30
0.0
 40
0.0629921260000358
 50
138.6165733190267133
 51
192.1177342277067055
  0
CIRCLE
  5
3D047
  8
0
 10
4916.0567784332297379
 20
30.7698880429708908
 30
0.0
 40
0.0196850393999997
  0
CIRCLE
  5
3D048
  8
0
 10
4916.0567784332297379
 20
30.7698880429708908
 30
0.0
 40
0.0606730810000018
  0
ARC
  5
3D049
  8
0
 10
4916.0587469369438622
 20
30.7718565471265286
 30
0.0
 40
0.0629921260921417
 50
257.882266056212984
 51
44.9996764280783381
  0
ARC
  5
3D04A
  8
0
 10
4916.0587469372303531
 20
30.77185654697087
 30
0.0
 40
0.0629921260000296
 50
44.999676712096047
 51
90.0
  0
ARC
  5
3D04B
  8
0
 10
4916.0587469372303531
 20
30.7718565469709304
 30
0.0
 40
0.0629921259999655
 50
90.0
 51
138.6165733190264859
  0
ARC
  5
3D04C
  8
0
 10
4916.0587469372303531
 20
30.7718565469708807
 30
0.0
 40
0.0629921260000358
 50
138.6165733190267133
 51
192.1177342277067055
  0
CIRCLE
  5
3D04D
  8
0
 10
4916.0567784332297379
 20
30.5336675704709002
 30
0.0
 40
0.0196850393999997
  0
CIRCLE
  5
3D04E
  8
0
 10
4916.0567784332297379
 20
30.5336675704709002
 30
0.0
 40
0.0606730810000018
  0
ARC
  5
3D04F
  8
0
 10
4916.0587469369438622
 20
30.535636074626531
 30
0.0
 40
0.0629921260921417
 50
257.882266056212984
 51
44.9996764280783381
  0
ARC
  5
3D050
  8
0
 10
4916.0587469372303531
 20
30.5356360744708688
 30
0.0
 40
0.0629921260000296
 50
44.999676712096047
 51
90.0
  0
ARC
  5
3D051
  8
0
 10
4916.0587469372303531
 20
30.5356360744709292
 30
0.0
 40
0.0629921259999655
 50
90.0
 51
138.6165733190264859
  0
ARC
  5
3D052
  8
0
 10
4916.0587469372303531
 20
30.5356360744708901
 30
0.0
 40
0.0629921260000358
 50
138.6165733190267133
 51
192.1177342277067055
  0
CIRCLE
  5
3D053
  8
0
 10
4916.0567784332297379
 20
30.2974470980708901
 30
0.0
 40
0.0196850393999997
  0
CIRCLE
  5
3D054
  8
0
 10
4916.0567784332297379
 20
30.2974470980708901
 30
0.0
 40
0.0606730810000018
  0
ARC
  5
3D055
  8
0
 10
4916.0587469369438622
 20
30.2994156022265315
 30
0.0
 40
0.0629921260921417
 50
257.882266056212984
 51
44.9996764280783381
  0
ARC
  5
3D056
  8
0
 10
4916.0587469372303531
 20
30.2994156020708694
 30
0.0
 40
0.0629921260000296
 50
44.999676712096047
 51
90.0
  0
ARC
  5
3D057
  8
0
 10
4916.0587469372303531
 20
30.2994156020709298
 30
0.0
 40
0.0629921259999655
 50
90.0
 51
138.6165733190264859
  0
ARC
  5
3D058
  8
0
 10
4916.0587469372303531
 20
30.29941560207088
 30
0.0
 40
0.0629921260000358
 50
138.6165733190267133
 51
192.1177342277067055
  0
CIRCLE
  5
3D059
  8
0
 10
4916.0567784332297379
 20
30.0612266255708995
 30
0.0
 40
0.0196850393999997
  0
CIRCLE
  5
3D05A
  8
0
 10
4916.0567784332297379
 20
30.0612266255708995
 30
0.0
 40
0.0606730810000018
  0
ARC
  5
3D05B
  8
0
 10
4916.0587469369438622
 20
30.0631951297265196
 30
0.0
 40
0.0629921260921417
 50
257.882266056212984
 51
44.9996764280783381
  0
ARC
  5
3D05C
  8
0
 10
4916.0587469372303531
 20
30.063195129570861
 30
0.0
 40
0.0629921260000296
 50
44.999676712096047
 51
90.0
  0
ARC
  5
3D05D
  8
0
 10
4916.0587469372303531
 20
30.0631951295709285
 30
0.0
 40
0.0629921259999655
 50
90.0
 51
138.6165733190264859
  0
ARC
  5
3D05E
  8
0
 10
4916.0587469372303531
 20
30.0631951295708895
 30
0.0
 40
0.0629921260000358
 50
138.6165733190267133
 51
192.1177342277067055
  0
CIRCLE
  5
3D05F
  8
0
 10
4916.0567784332297379
 20
29.8250061531708894
 30
0.0
 40
0.0196850393999997
  0
CIRCLE
  5
3D060
  8
0
 10
4916.0567784332297379
 20
29.8250061531708894
 30
0.0
 40
0.0606730810000018
  0
ARC
  5
3D061
  8
0
 10
4916.0587469369438622
 20
29.8269746573265309
 30
0.0
 40
0.0629921260921417
 50
257.882266056212984
 51
44.9996764280783381
  0
ARC
  5
3D062
  8
0
 10
4916.0587469372303531
 20
29.8269746571708687
 30
0.0
 40
0.0629921260000296
 50
44.999676712096047
 51
90.0
  0
ARC
  5
3D063
  8
0
 10
4916.0587469372303531
 20
29.8269746571709291
 30
0.0
 40
0.0629921259999655
 50
90.0
 51
138.6165733190264859
  0
ARC
  5
3D064
  8
0
 10
4916.0587469372303531
 20
29.8269746571708794
 30
0.0
 40
0.0629921260000358
 50
138.6165733190267133
 51
192.1177342277067055
  0
CIRCLE
  5
3D065
  8
0
 10
4916.0567784332297379
 20
29.5887856807709007
 30
0.0
 40
0.0196850393999997
  0
CIRCLE
  5
3D066
  8
0
 10
4916.0567784332297379
 20
29.5887856807709007
 30
0.0
 40
0.0606730810000018
  0
ARC
  5
3D067
  8
0
 10
4916.0587469369438622
 20
29.5907541849265314
 30
0.0
 40
0.0629921260921417
 50
257.882266056212984
 51
44.9996764280783381
  0
ARC
  5
3D068
  8
0
 10
4916.0587469372303531
 20
29.5907541847708693
 30
0.0
 40
0.0629921260000296
 50
44.999676712096047
 51
90.0
  0
ARC
  5
3D069
  8
0
 10
4916.0587469372303531
 20
29.5907541847709297
 30
0.0
 40
0.0629921259999655
 50
90.0
 51
138.6165733190264859
  0
ARC
  5
3D06A
  8
0
 10
4916.0587469372303531
 20
29.5907541847708906
 30
0.0
 40
0.0629921260000358
 50
138.6165733190267133
 51
192.1177342277067055
  0
CIRCLE
  5
3D06B
  8
0
 10
4916.2142587482303497
 20
31.7147699326708903
 30
0.0
 40
0.0196850393999997
  0
ARC
  5
3D06C
  8
0
 10
4916.216227252130011
 20
31.7167384366709015
 30
0.0
 40
0.0629921260000002
 50
0.0000029106322521
 51
89.9999999999478888
  0
ARC
  5
3D06D
  8
0
 10
4916.216227252130011
 20
31.7167384366708909
 30
0.0
 40
0.0629921260000082
 50
90.0
 51
158.0531913402799091
  0
ARC
  5
3D06E
  8
0
 10
4916.216227252130011
 20
31.7167384366709015
 30
0.0
 40
0.0629921259999916
 50
158.0531913402791986
 51
236.7468870976937865
  0
ARC
  5
3D06F
  8
0
 10
4916.216227252130011
 20
31.7167384366709086
 30
0.0
 40
0.0629921260000077
 50
236.7468870976937012
 51
314.2635960748203843
  0
ARC
  5
3D070
  8
0
 10
4916.216227252130011
 20
31.7167384366708909
 30
0.0
 40
0.0629921259999845
 50
314.2635960748219759
 51
0.0000029106387659
  0
ARC
  5
3D071
  8
0
 10
4916.2156728125701193
 20
31.7144822277339706
 30
0.0
 40
0.0573890999271757
 50
63.037241603398833
 51
158.7235583011917868
  0
ARC
  5
3D072
  8
0
 10
4916.2151033176396595
 20
31.7147039948189686
 30
0.0
 40
0.0567779492776609
 50
158.7235583011903941
 51
233.7544640575794119
  0
ARC
  5
3D073
  8
0
 10
4916.2156608515833796
 20
31.7151271142469291
 30
0.0
 40
0.0574491776369648
 50
233.5555183838708899
 51
319.3994149951616919
  0
ARC
  5
3D074
  8
0
 10
4916.2162930216727545
 20
31.7148449596675484
 30
0.0
 40
0.0567859144349985
 50
319.2004693214362874
 51
63.4290578474921674
  0
CIRCLE
  5
3D075
  8
0
 10
4916.2142587482303497
 20
31.4785494602709015
 30
0.0
 40
0.0196850393999997
  0
ARC
  5
3D076
  8
0
 10
4916.216227252130011
 20
31.4805179642708985
 30
0.0
 40
0.0629921260000002
 50
0.0000029106323539
 51
89.9999999999478888
  0
ARC
  5
3D077
  8
0
 10
4916.216227252130011
 20
31.4805179642708914
 30
0.0
 40
0.0629921260000082
 50
90.0
 51
158.0531913402799091
  0
ARC
  5
3D078
  8
0
 10
4916.216227252130011
 20
31.4805179642708914
 30
0.0
 40
0.0629921259999916
 50
158.0531913402791986
 51
236.7468870976937865
  0
ARC
  5
3D079
  8
0
 10
4916.216227252130011
 20
31.4805179642708985
 30
0.0
 40
0.0629921260000077
 50
236.7468870976935875
 51
314.2635960748203843
  0
ARC
  5
3D07A
  8
0
 10
4916.216227252130011
 20
31.4805179642708914
 30
0.0
 40
0.0629921259999845
 50
314.2635960748219759
 51
0.0000029106387659
  0
ARC
  5
3D07B
  8
0
 10
4916.2156728125701193
 20
31.4782617553339605
 30
0.0
 40
0.0573890999271757
 50
63.037241603398833
 51
158.7235583011917868
  0
ARC
  5
3D07C
  8
0
 10
4916.2151033176396595
 20
31.4784835224189692
 30
0.0
 40
0.0567779492776609
 50
158.7235583011903941
 51
233.7544640575794119
  0
ARC
  5
3D07D
  8
0
 10
4916.2156608515833796
 20
31.4789066418469297
 30
0.0
 40
0.0574491776369648
 50
233.5555183838708899
 51
319.3994149951616919
  0
ARC
  5
3D07E
  8
0
 10
4916.2162930216727545
 20
31.4786244872675489
 30
0.0
 40
0.0567859144349985
 50
319.2004693214362874
 51
63.4290578474921674
  0
CIRCLE
  5
3D07F
  8
0
 10
4916.2142587482303497
 20
31.2423289877708896
 30
0.0
 40
0.0196850393999997
  0
ARC
  5
3D080
  8
0
 10
4916.216227252130011
 20
31.2442974917708902
 30
0.0
 40
0.0629921260000002
 50
0.0000029106323539
 51
89.9999999999478888
  0
ARC
  5
3D081
  8
0
 10
4916.216227252130011
 20
31.2442974917708902
 30
0.0
 40
0.0629921260000082
 50
90.0
 51
158.0531913402799091
  0
ARC
  5
3D082
  8
0
 10
4916.216227252130011
 20
31.2442974917708902
 30
0.0
 40
0.0629921259999916
 50
158.0531913402791986
 51
236.7468870976937865
  0
ARC
  5
3D083
  8
0
 10
4916.216227252130011
 20
31.2442974917709115
 30
0.0
 40
0.0629921260000077
 50
236.7468870976935875
 51
314.2635960748203843
  0
ARC
  5
3D084
  8
0
 10
4916.216227252130011
 20
31.2442974917708902
 30
0.0
 40
0.0629921259999845
 50
314.2635960748219759
 51
0.0000029106387659
  0
ARC
  5
3D085
  8
0
 10
4916.2156728125701193
 20
31.24204128283397
 30
0.0
 40
0.0573890999271757
 50
63.037241603398833
 51
158.7235583011917868
  0
ARC
  5
3D086
  8
0
 10
4916.2151033176396595
 20
31.2422630499189715
 30
0.0
 40
0.0567779492776609
 50
158.7235583011903941
 51
233.7544640575794119
  0
ARC
  5
3D087
  8
0
 10
4916.2156608515833796
 20
31.2426861693469213
 30
0.0
 40
0.0574491776369648
 50
233.5555183838708899
 51
319.3994149951616919
  0
ARC
  5
3D088
  8
0
 10
4916.2162930216727545
 20
31.2424040147675512
 30
0.0
 40
0.0567859144349985
 50
319.2004693214362874
 51
63.4290578474921674
  0
CIRCLE
  5
3D089
  8
0
 10
4916.2142587482303497
 20
31.0061085153709008
 30
0.0
 40
0.0196850393999997
  0
ARC
  5
3D08A
  8
0
 10
4916.216227252130011
 20
31.0080770193708908
 30
0.0
 40
0.0629921260000002
 50
0.0000029106323539
 51
89.9999999999478888
  0
ARC
  5
3D08B
  8
0
 10
4916.216227252130011
 20
31.0080770193708908
 30
0.0
 40
0.0629921260000082
 50
90.0
 51
158.0531913402799091
  0
ARC
  5
3D08C
  8
0
 10
4916.216227252130011
 20
31.0080770193708908
 30
0.0
 40
0.0629921259999916
 50
158.0531913402791986
 51
236.7468870976937865
  0
ARC
  5
3D08D
  8
0
 10
4916.216227252130011
 20
31.0080770193709014
 30
0.0
 40
0.0629921260000077
 50
236.7468870976935875
 51
314.2635960748203843
  0
ARC
  5
3D08E
  8
0
 10
4916.216227252130011
 20
31.0080770193708908
 30
0.0
 40
0.0629921259999845
 50
314.2635960748219759
 51
0.0000029106387659
  0
ARC
  5
3D08F
  8
0
 10
4916.2156728125701193
 20
31.0058208104339599
 30
0.0
 40
0.0573890999271757
 50
63.037241603398833
 51
158.7235583011917868
  0
ARC
  5
3D090
  8
0
 10
4916.2151033176396595
 20
31.0060425775189685
 30
0.0
 40
0.0567779492776609
 50
158.7235583011903941
 51
233.7544640575794119
  0
ARC
  5
3D091
  8
0
 10
4916.2156608515833796
 20
31.006465696946929
 30
0.0
 40
0.0574491776369648
 50
233.5555183838708899
 51
319.3994149951616919
  0
ARC
  5
3D092
  8
0
 10
4916.2162930216727545
 20
31.0061835423675483
 30
0.0
 40
0.0567859144349985
 50
319.2004693214362874
 51
63.4290578474921674
  0
CIRCLE
  5
3D093
  8
0
 10
4916.2142587482303497
 20
30.7698880429708908
 30
0.0
 40
0.0196850393999997
  0
ARC
  5
3D094
  8
0
 10
4916.216227252130011
 20
30.7718565469708913
 30
0.0
 40
0.0629921260000002
 50
0.0000029106323539
 51
89.9999999999478888
  0
ARC
  5
3D095
  8
0
 10
4916.216227252130011
 20
30.7718565469708913
 30
0.0
 40
0.0629921260000082
 50
90.0
 51
158.0531913402799091
  0
ARC
  5
3D096
  8
0
 10
4916.216227252130011
 20
30.7718565469708913
 30
0.0
 40
0.0629921259999916
 50
158.0531913402791986
 51
236.7468870976937865
  0
ARC
  5
3D097
  8
0
 10
4916.216227252130011
 20
30.7718565469709091
 30
0.0
 40
0.0629921260000077
 50
236.7468870976935875
 51
314.2635960748203843
  0
ARC
  5
3D098
  8
0
 10
4916.216227252130011
 20
30.7718565469708913
 30
0.0
 40
0.0629921259999845
 50
314.2635960748219759
 51
0.0000029106387659
  0
ARC
  5
3D099
  8
0
 10
4916.2156728125701193
 20
30.7696003380339711
 30
0.0
 40
0.0573890999271757
 50
63.037241603398833
 51
158.7235583011917868
  0
ARC
  5
3D09A
  8
0
 10
4916.2151033176396595
 20
30.7698221051189691
 30
0.0
 40
0.0567779492776609
 50
158.7235583011903941
 51
233.7544640575794119
  0
ARC
  5
3D09B
  8
0
 10
4916.2156608515833796
 20
30.7702452245469296
 30
0.0
 40
0.0574491776369648
 50
233.5555183838708899
 51
319.3994149951616919
  0
ARC
  5
3D09C
  8
0
 10
4916.2162930216727545
 20
30.7699630699675488
 30
0.0
 40
0.0567859144349985
 50
319.2004693214362874
 51
63.4290578474921674
  0
CIRCLE
  5
3D09D
  8
0
 10
4916.2142587482303497
 20
30.5336675704709002
 30
0.0
 40
0.0196850393999997
  0
ARC
  5
3D09E
  8
0
 10
4916.216227252130011
 20
30.5356360744708901
 30
0.0
 40
0.0629921260000002
 50
0.0000029106323539
 51
89.9999999999478888
  0
ARC
  5
3D09F
  8
0
 10
4916.216227252130011
 20
30.5356360744708901
 30
0.0
 40
0.0629921260000082
 50
90.0
 51
158.0531913402799091
  0
ARC
  5
3D0A0
  8
0
 10
4916.216227252130011
 20
30.5356360744708901
 30
0.0
 40
0.0629921259999916
 50
158.0531913402791986
 51
236.7468870976937865
  0
ARC
  5
3D0A1
  8
0
 10
4916.216227252130011
 20
30.5356360744709008
 30
0.0
 40
0.0629921260000077
 50
236.7468870976937012
 51
314.2635960748203843
  0
ARC
  5
3D0A2
  8
0
 10
4916.216227252130011
 20
30.5356360744708901
 30
0.0
 40
0.0629921259999845
 50
314.2635960748219759
 51
0.0000029106387659
  0
ARC
  5
3D0A3
  8
0
 10
4916.2156728125701193
 20
30.5333798655339592
 30
0.0
 40
0.0573890999271757
 50
63.037241603398833
 51
158.7235583011917868
  0
ARC
  5
3D0A4
  8
0
 10
4916.2151033176396595
 20
30.5336016326189714
 30
0.0
 40
0.0567779492776609
 50
158.7235583011903941
 51
233.7544640575794119
  0
ARC
  5
3D0A5
  8
0
 10
4916.2156608515833796
 20
30.5340247520469283
 30
0.0
 40
0.0574491776369648
 50
233.5555183838708899
 51
319.3994149951616919
  0
ARC
  5
3D0A6
  8
0
 10
4916.2162930216727545
 20
30.5337425974675511
 30
0.0
 40
0.0567859144349985
 50
319.2004693214362874
 51
63.4290578474921674
  0
CIRCLE
  5
3D0A7
  8
0
 10
4916.2142587482303497
 20
30.2974470980708901
 30
0.0
 40
0.0196850393999997
  0
ARC
  5
3D0A8
  8
0
 10
4916.216227252130011
 20
30.2994156020709013
 30
0.0
 40
0.0629921260000002
 50
0.0000029106323539
 51
89.9999999999478888
  0
ARC
  5
3D0A9
  8
0
 10
4916.216227252130011
 20
30.2994156020708907
 30
0.0
 40
0.0629921260000082
 50
90.0
 51
158.0531913402799091
  0
ARC
  5
3D0AA
  8
0
 10
4916.216227252130011
 20
30.2994156020709013
 30
0.0
 40
0.0629921259999916
 50
158.0531913402791986
 51
236.7468870976937865
  0
ARC
  5
3D0AB
  8
0
 10
4916.216227252130011
 20
30.2994156020709084
 30
0.0
 40
0.0629921260000077
 50
236.7468870976937012
 51
314.2635960748203843
  0
ARC
  5
3D0AC
  8
0
 10
4916.216227252130011
 20
30.2994156020708907
 30
0.0
 40
0.0629921259999845
 50
314.2635960748219759
 51
0.0000029106387659
  0
ARC
  5
3D0AD
  8
0
 10
4916.2156728125701193
 20
30.2971593931339704
 30
0.0
 40
0.0573890999271757
 50
63.037241603398833
 51
158.7235583011917868
  0
ARC
  5
3D0AE
  8
0
 10
4916.2151033176396595
 20
30.2973811602189684
 30
0.0
 40
0.0567779492776609
 50
158.7235583011903941
 51
233.7544640575794119
  0
ARC
  5
3D0AF
  8
0
 10
4916.2156608515833796
 20
30.2978042796469289
 30
0.0
 40
0.0574491776369648
 50
233.5555183838708899
 51
319.3994149951616919
  0
ARC
  5
3D0B0
  8
0
 10
4916.2162930216727545
 20
30.2975221250675517
 30
0.0
 40
0.0567859144349985
 50
319.2004693214362874
 51
63.4290578474921674
  0
CIRCLE
  5
3D0B1
  8
0
 10
4916.2142587482303497
 20
30.0612266255708995
 30
0.0
 40
0.0196850393999997
  0
ARC
  5
3D0B2
  8
0
 10
4916.216227252130011
 20
30.0631951295709001
 30
0.0
 40
0.0629921260000002
 50
0.0000029106323539
 51
89.9999999999478888
  0
ARC
  5
3D0B3
  8
0
 10
4916.216227252130011
 20
30.0631951295708895
 30
0.0
 40
0.0629921260000082
 50
90.0
 51
158.0531913402799091
  0
ARC
  5
3D0B4
  8
0
 10
4916.216227252130011
 20
30.0631951295708895
 30
0.0
 40
0.0629921259999916
 50
158.0531913402791986
 51
236.7468870976937865
  0
ARC
  5
3D0B5
  8
0
 10
4916.216227252130011
 20
30.0631951295709001
 30
0.0
 40
0.0629921260000077
 50
236.7468870976937012
 51
314.2635960748203843
  0
ARC
  5
3D0B6
  8
0
 10
4916.216227252130011
 20
30.0631951295708895
 30
0.0
 40
0.0629921259999845
 50
314.2635960748219759
 51
0.0000029106387659
  0
ARC
  5
3D0B7
  8
0
 10
4916.2156728125701193
 20
30.0609389206339586
 30
0.0
 40
0.0573890999271757
 50
63.037241603398833
 51
158.7235583011917868
  0
ARC
  5
3D0B8
  8
0
 10
4916.2151033176396595
 20
30.0611606877189708
 30
0.0
 40
0.0567779492776609
 50
158.7235583011903941
 51
233.7544640575794119
  0
ARC
  5
3D0B9
  8
0
 10
4916.2156608515833796
 20
30.0615838071469312
 30
0.0
 40
0.0574491776369648
 50
233.5555183838708899
 51
319.3994149951616919
  0
ARC
  5
3D0BA
  8
0
 10
4916.2162930216727545
 20
30.0613016525675505
 30
0.0
 40
0.0567859144349985
 50
319.2004693214362874
 51
63.4290578474921674
  0
CIRCLE
  5
3D0BB
  8
0
 10
4916.2142587482303497
 20
29.8250061531708894
 30
0.0
 40
0.0196850393999997
  0
ARC
  5
3D0BC
  8
0
 10
4916.216227252130011
 20
29.8269746571709007
 30
0.0
 40
0.0629921260000002
 50
0.0000029106323539
 51
89.9999999999478888
  0
ARC
  5
3D0BD
  8
0
 10
4916.216227252130011
 20
29.82697465717089
 30
0.0
 40
0.0629921260000082
 50
90.0
 51
158.0531913402799091
  0
ARC
  5
3D0BE
  8
0
 10
4916.216227252130011
 20
29.8269746571709007
 30
0.0
 40
0.0629921259999916
 50
158.0531913402791986
 51
236.7468870976937865
  0
ARC
  5
3D0BF
  8
0
 10
4916.216227252130011
 20
29.8269746571709113
 30
0.0
 40
0.0629921260000077
 50
236.7468870976937012
 51
314.2635960748203843
  0
ARC
  5
3D0C0
  8
0
 10
4916.216227252130011
 20
29.82697465717089
 30
0.0
 40
0.0629921259999845
 50
314.2635960748219759
 51
0.0000029106387659
  0
ARC
  5
3D0C1
  8
0
 10
4916.2156728125701193
 20
29.8247184482339698
 30
0.0
 40
0.0573890999271757
 50
63.037241603398833
 51
158.7235583011917868
  0
ARC
  5
3D0C2
  8
0
 10
4916.2151033176396595
 20
29.8249402153189713
 30
0.0
 40
0.0567779492776609
 50
158.7235583011903941
 51
233.7544640575794119
  0
ARC
  5
3D0C3
  8
0
 10
4916.2156608515833796
 20
29.8253633347469282
 30
0.0
 40
0.0574491776369648
 50
233.5555183838708899
 51
319.3994149951616919
  0
ARC
  5
3D0C4
  8
0
 10
4916.2162930216727545
 20
29.8250811801675511
 30
0.0
 40
0.0567859144349985
 50
319.2004693214362874
 51
63.4290578474921674
  0
CIRCLE
  5
3D0C5
  8
0
 10
4916.2142587482303497
 20
29.5887856807709007
 30
0.0
 40
0.0196850393999997
  0
ARC
  5
3D0C6
  8
0
 10
4916.216227252130011
 20
29.5907541847709012
 30
0.0
 40
0.0629921260000002
 50
0.0000029106323539
 51
89.9999999999478888
  0
ARC
  5
3D0C7
  8
0
 10
4916.216227252130011
 20
29.5907541847708906
 30
0.0
 40
0.0629921260000082
 50
90.0
 51
158.0531913402799091
  0
ARC
  5
3D0C8
  8
0
 10
4916.216227252130011
 20
29.5907541847709012
 30
0.0
 40
0.0629921259999916
 50
158.0531913402791986
 51
236.7468870976937865
  0
ARC
  5
3D0C9
  8
0
 10
4916.216227252130011
 20
29.5907541847709084
 30
0.0
 40
0.0629921260000077
 50
236.7468870976937012
 51
314.2635960748203843
  0
ARC
  5
3D0CA
  8
0
 10
4916.216227252130011
 20
29.5907541847708906
 30
0.0
 40
0.0629921259999845
 50
314.2635960748219759
 51
0.0000029106387659
  0
ARC
  5
3D0CB
  8
0
 10
4916.2156728125701193
 20
29.5884979758339703
 30
0.0
 40
0.0573890999271757
 50
63.037241603398833
 51
158.7235583011917868
  0
ARC
  5
3D0CC
  8
0
 10
4916.2151033176396595
 20
29.5887197429189683
 30
0.0
 40
0.0567779492776609
 50
158.7235583011903941
 51
233.7544640575794119
  0
ARC
  5
3D0CD
  8
0
 10
4916.2156608515833796
 20
29.5891428623469288
 30
0.0
 40
0.0574491776369648
 50
233.5555183838708899
 51
319.3994149951616919
  0
ARC
  5
3D0CE
  8
0
 10
4916.2162930216727545
 20
29.5888607077675516
 30
0.0
 40
0.0567859144349985
 50
319.2004693214362874
 51
63.4290578474921674
  0
CIRCLE
  5
3D0CF
  8
0
 10
4916.3717390632291426
 20
31.7147699326708903
 30
0.0
 40
0.0196850393999997
  0
ARC
  5
3D0D0
  8
0
 10
4916.3737075671306229
 20
31.7167384366709015
 30
0.0
 40
0.0629921260000002
 50
0.0000029106322521
 51
89.9999999999478888
  0
ARC
  5
3D0D1
  8
0
 10
4916.3737075671306229
 20
31.7167384366708909
 30
0.0
 40
0.0629921260000082
 50
90.0
 51
158.0531913402799091
  0
ARC
  5
3D0D2
  8
0
 10
4916.3737075671306229
 20
31.7167384366709015
 30
0.0
 40
0.0629921259999916
 50
158.0531913402791986
 51
236.7468870976937865
  0
ARC
  5
3D0D3
  8
0
 10
4916.3737075671306229
 20
31.7167384366709086
 30
0.0
 40
0.0629921260000077
 50
236.7468870976935875
 51
314.2635960748203843
  0
ARC
  5
3D0D4
  8
0
 10
4916.3737075671306229
 20
31.7167384366708909
 30
0.0
 40
0.0629921259999845
 50
314.2635960748219759
 51
0.0000029106387659
  0
ARC
  5
3D0D5
  8
0
 10
4916.3742708795452927
 20
31.7144989031588409
 30
0.0
 40
0.057373345684128
 50
64.0337265861383429
 51
158.9745836237775904
  0
ARC
  5
3D0D6
  8
0
 10
4916.3739373019725463
 20
31.7147670309307195
 30
0.0
 40
0.0569659275153313
 50
159.105934470685412
 51
232.7069166881678086
  0
ARC
  5
3D0D7
  8
0
 10
4916.3742630724618721
 20
31.7151343356143691
 30
0.0
 40
0.0574555290402841
 50
232.6703999896134007
 51
319.1588154196048208
  0
ARC
  5
3D0D8
  8
0
 10
4916.3745951951041206
 20
31.7147840585380898
 30
0.0
 40
0.0569752211526228
 50
319.2068813323584209
 51
64.2013883845404223
  0
CIRCLE
  5
3D0D9
  8
0
 10
4916.3717390632291426
 20
31.4785494602709015
 30
0.0
 40
0.0196850393999997
  0
ARC
  5
3D0DA
  8
0
 10
4916.3737075671306229
 20
31.4805179642708985
 30
0.0
 40
0.0629921260000002
 50
0.0000029106323539
 51
89.9999999999478888
  0
ARC
  5
3D0DB
  8
0
 10
4916.3737075671306229
 20
31.4805179642708914
 30
0.0
 40
0.0629921260000082
 50
90.0
 51
158.0531913402799091
  0
ARC
  5
3D0DC
  8
0
 10
4916.3737075671306229
 20
31.4805179642708914
 30
0.0
 40
0.0629921259999916
 50
158.0531913402791986
 51
236.7468870976937865
  0
ARC
  5
3D0DD
  8
0
 10
4916.3737075671306229
 20
31.4805179642708985
 30
0.0
 40
0.0629921260000077
 50
236.7468870976935875
 51
314.2635960748203843
  0
ARC
  5
3D0DE
  8
0
 10
4916.3737075671306229
 20
31.4805179642708914
 30
0.0
 40
0.0629921259999845
 50
314.2635960748219759
 51
0.0000029106387659
  0
ARC
  5
3D0DF
  8
0
 10
4916.3742708795452927
 20
31.4782784307588415
 30
0.0
 40
0.057373345684128
 50
64.0337265861383429
 51
158.9745836237775904
  0
ARC
  5
3D0E0
  8
0
 10
4916.3739373019725463
 20
31.4785465585307094
 30
0.0
 40
0.0569659275153313
 50
159.105934470685412
 51
232.7069166881678086
  0
ARC
  5
3D0E1
  8
0
 10
4916.3742630724618721
 20
31.4789138632143697
 30
0.0
 40
0.0574555290402841
 50
232.6703999896134007
 51
319.1588154196048208
  0
ARC
  5
3D0E2
  8
0
 10
4916.3745951951041206
 20
31.4785635861380904
 30
0.0
 40
0.0569752211526228
 50
319.2068813323584209
 51
64.2013883845404223
  0
CIRCLE
  5
3D0E3
  8
0
 10
4916.3717390632291426
 20
31.2423289877708896
 30
0.0
 40
0.0196850393999997
  0
ARC
  5
3D0E4
  8
0
 10
4916.3737075671306229
 20
31.2442974917708902
 30
0.0
 40
0.0629921260000002
 50
0.0000029106323539
 51
89.9999999999478888
  0
ARC
  5
3D0E5
  8
0
 10
4916.3737075671306229
 20
31.2442974917708902
 30
0.0
 40
0.0629921260000082
 50
90.0
 51
158.0531913402799091
  0
ARC
  5
3D0E6
  8
0
 10
4916.3737075671306229
 20
31.2442974917708902
 30
0.0
 40
0.0629921259999916
 50
158.0531913402791986
 51
236.7468870976937865
  0
ARC
  5
3D0E7
  8
0
 10
4916.3737075671306229
 20
31.2442974917709115
 30
0.0
 40
0.0629921260000077
 50
236.7468870976935875
 51
314.2635960748203843
  0
ARC
  5
3D0E8
  8
0
 10
4916.3737075671306229
 20
31.2442974917708902
 30
0.0
 40
0.0629921259999845
 50
314.2635960748219759
 51
0.0000029106387659
  0
ARC
  5
3D0E9
  8
0
 10
4916.3742708795452927
 20
31.2420579582588402
 30
0.0
 40
0.057373345684128
 50
64.0337265861383429
 51
158.9745836237775904
  0
ARC
  5
3D0EA
  8
0
 10
4916.3739373019725463
 20
31.2423260860307188
 30
0.0
 40
0.0569659275153313
 50
159.105934470685412
 51
232.7069166881678086
  0
ARC
  5
3D0EB
  8
0
 10
4916.3742630724618721
 20
31.2426933907143791
 30
0.0
 40
0.0574555290402841
 50
232.6703999896134007
 51
319.1588154196048208
  0
ARC
  5
3D0EC
  8
0
 10
4916.3745951951041206
 20
31.2423431136380891
 30
0.0
 40
0.0569752211526228
 50
319.2068813323584209
 51
64.2013883845404223
  0
CIRCLE
  5
3D0ED
  8
0
 10
4916.3717390632291426
 20
31.0061085153709008
 30
0.0
 40
0.0196850393999997
  0
ARC
  5
3D0EE
  8
0
 10
4916.3737075671306229
 20
31.0080770193708908
 30
0.0
 40
0.0629921260000002
 50
0.0000029106323539
 51
89.9999999999478888
  0
ARC
  5
3D0EF
  8
0
 10
4916.3737075671306229
 20
31.0080770193708908
 30
0.0
 40
0.0629921260000082
 50
90.0
 51
158.0531913402799091
  0
ARC
  5
3D0F0
  8
0
 10
4916.3737075671306229
 20
31.0080770193708908
 30
0.0
 40
0.0629921259999916
 50
158.0531913402791986
 51
236.7468870976937865
  0
ARC
  5
3D0F1
  8
0
 10
4916.3737075671306229
 20
31.0080770193709014
 30
0.0
 40
0.0629921260000077
 50
236.7468870976935875
 51
314.2635960748203843
  0
ARC
  5
3D0F2
  8
0
 10
4916.3737075671306229
 20
31.0080770193708908
 30
0.0
 40
0.0629921259999845
 50
314.2635960748219759
 51
0.0000029106387659
  0
ARC
  5
3D0F3
  8
0
 10
4916.3742708795452927
 20
31.0058374858588301
 30
0.0
 40
0.057373345684128
 50
64.0337265861383429
 51
158.9745836237775904
  0
ARC
  5
3D0F4
  8
0
 10
4916.3739373019725463
 20
31.0061056136307087
 30
0.0
 40
0.0569659275153313
 50
159.105934470685412
 51
232.7069166881678086
  0
ARC
  5
3D0F5
  8
0
 10
4916.3742630724618721
 20
31.0064729183143797
 30
0.0
 40
0.0574555290402841
 50
232.6703999896134007
 51
319.1588154196048208
  0
ARC
  5
3D0F6
  8
0
 10
4916.3745951951041206
 20
31.0061226412380897
 30
0.0
 40
0.0569752211526228
 50
319.2068813323584209
 51
64.2013883845404223
  0
CIRCLE
  5
3D0F7
  8
0
 10
4916.3717390632291426
 20
30.7698880429708908
 30
0.0
 40
0.0196850393999997
  0
ARC
  5
3D0F8
  8
0
 10
4916.3737075671306229
 20
30.7718565469708913
 30
0.0
 40
0.0629921260000002
 50
0.0000029106323539
 51
89.9999999999478888
  0
ARC
  5
3D0F9
  8
0
 10
4916.3737075671306229
 20
30.7718565469708913
 30
0.0
 40
0.0629921260000082
 50
90.0
 51
158.0531913402799091
  0
ARC
  5
3D0FA
  8
0
 10
4916.3737075671306229
 20
30.7718565469708913
 30
0.0
 40
0.0629921259999916
 50
158.0531913402791986
 51
236.7468870976937865
  0
ARC
  5
3D0FB
  8
0
 10
4916.3737075671306229
 20
30.7718565469709091
 30
0.0
 40
0.0629921260000077
 50
236.7468870976935875
 51
314.2635960748203843
  0
ARC
  5
3D0FC
  8
0
 10
4916.3737075671306229
 20
30.7718565469708913
 30
0.0
 40
0.0629921259999845
 50
314.2635960748219759
 51
0.0000029106387659
  0
ARC
  5
3D0FD
  8
0
 10
4916.3742708795452927
 20
30.7696170134588414
 30
0.0
 40
0.057373345684128
 50
64.0337265861383429
 51
158.9745836237775904
  0
ARC
  5
3D0FE
  8
0
 10
4916.3739373019725463
 20
30.7698851412307199
 30
0.0
 40
0.0569659275153313
 50
159.105934470685412
 51
232.7069166881678086
  0
ARC
  5
3D0FF
  8
0
 10
4916.3742630724618721
 20
30.7702524459143802
 30
0.0
 40
0.0574555290402841
 50
232.6703999896134007
 51
319.1588154196048208
  0
ARC
  5
3D100
  8
0
 10
4916.3745951951041206
 20
30.7699021688380903
 30
0.0
 40
0.0569752211526228
 50
319.2068813323584209
 51
64.2013883845404223
  0
CIRCLE
  5
3D101
  8
0
 10
4916.3717390632291426
 20
30.5336675704709002
 30
0.0
 40
0.0196850393999997
  0
ARC
  5
3D102
  8
0
 10
4916.3737075671306229
 20
30.5356360744708901
 30
0.0
 40
0.0629921260000002
 50
0.0000029106323539
 51
89.9999999999478888
  0
ARC
  5
3D103
  8
0
 10
4916.3737075671306229
 20
30.5356360744708901
 30
0.0
 40
0.0629921260000082
 50
90.0
 51
158.0531913402799091
  0
ARC
  5
3D104
  8
0
 10
4916.3737075671306229
 20
30.5356360744708901
 30
0.0
 40
0.0629921259999916
 50
158.0531913402791986
 51
236.7468870976937865
  0
ARC
  5
3D105
  8
0
 10
4916.3737075671306229
 20
30.5356360744709008
 30
0.0
 40
0.0629921260000077
 50
236.7468870976935875
 51
314.2635960748203843
  0
ARC
  5
3D106
  8
0
 10
4916.3737075671306229
 20
30.5356360744708901
 30
0.0
 40
0.0629921259999845
 50
314.2635960748219759
 51
0.0000029106387659
  0
ARC
  5
3D107
  8
0
 10
4916.3742708795452927
 20
30.5333965409588295
 30
0.0
 40
0.057373345684128
 50
64.0337265861383429
 51
158.9745836237775904
  0
ARC
  5
3D108
  8
0
 10
4916.3739373019725463
 20
30.5336646687307116
 30
0.0
 40
0.0569659275153313
 50
159.105934470685412
 51
232.7069166881678086
  0
ARC
  5
3D109
  8
0
 10
4916.3742630724618721
 20
30.5340319734143684
 30
0.0
 40
0.0574555290402841
 50
232.6703999896134007
 51
319.1588154196048208
  0
ARC
  5
3D10A
  8
0
 10
4916.3745951951041206
 20
30.533681696338089
 30
0.0
 40
0.0569752211526228
 50
319.2068813323584209
 51
64.2013883845404223
  0
CIRCLE
  5
3D10B
  8
0
 10
4916.3717390632291426
 20
30.2974470980708901
 30
0.0
 40
0.0196850393999997
  0
ARC
  5
3D10C
  8
0
 10
4916.3737075671306229
 20
30.2994156020709013
 30
0.0
 40
0.0629921260000002
 50
0.0000029106323539
 51
89.9999999999478888
  0
ARC
  5
3D10D
  8
0
 10
4916.3737075671306229
 20
30.2994156020708907
 30
0.0
 40
0.0629921260000082
 50
90.0
 51
158.0531913402799091
  0
ARC
  5
3D10E
  8
0
 10
4916.3737075671306229
 20
30.2994156020709013
 30
0.0
 40
0.0629921259999916
 50
158.0531913402791986
 51
236.7468870976937865
  0
ARC
  5
3D10F
  8
0
 10
4916.3737075671306229
 20
30.2994156020709084
 30
0.0
 40
0.0629921260000077
 50
236.7468870976935875
 51
314.2635960748203843
  0
ARC
  5
3D110
  8
0
 10
4916.3737075671306229
 20
30.2994156020708907
 30
0.0
 40
0.0629921259999845
 50
314.2635960748219759
 51
0.0000029106387659
  0
ARC
  5
3D111
  8
0
 10
4916.3742708795452927
 20
30.2971760685588407
 30
0.0
 40
0.057373345684128
 50
64.0337265861383429
 51
158.9745836237775904
  0
ARC
  5
3D112
  8
0
 10
4916.3739373019725463
 20
30.2974441963307193
 30
0.0
 40
0.0569659275153313
 50
159.105934470685412
 51
232.7069166881678086
  0
ARC
  5
3D113
  8
0
 10
4916.3742630724618721
 20
30.2978115010143689
 30
0.0
 40
0.0574555290402841
 50
232.6703999896134007
 51
319.1588154196048208
  0
ARC
  5
3D114
  8
0
 10
4916.3745951951041206
 20
30.2974612239380896
 30
0.0
 40
0.0569752211526228
 50
319.2068813323584209
 51
64.2013883845404223
  0
CIRCLE
  5
3D115
  8
0
 10
4916.3717390632291426
 20
30.0612266255708995
 30
0.0
 40
0.0196850393999997
  0
ARC
  5
3D116
  8
0
 10
4916.3737075671306229
 20
30.0631951295709001
 30
0.0
 40
0.0629921260000002
 50
0.0000029106323539
 51
89.9999999999478888
  0
ARC
  5
3D117
  8
0
 10
4916.3737075671306229
 20
30.0631951295708895
 30
0.0
 40
0.0629921260000082
 50
90.0
 51
158.0531913402799091
  0
ARC
  5
3D118
  8
0
 10
4916.3737075671306229
 20
30.0631951295708895
 30
0.0
 40
0.0629921259999916
 50
158.0531913402791986
 51
236.7468870976937865
  0
ARC
  5
3D119
  8
0
 10
4916.3737075671306229
 20
30.0631951295709001
 30
0.0
 40
0.0629921260000077
 50
236.7468870976935875
 51
314.2635960748203843
  0
ARC
  5
3D11A
  8
0
 10
4916.3737075671306229
 20
30.0631951295708895
 30
0.0
 40
0.0629921259999845
 50
314.2635960748219759
 51
0.0000029106387659
  0
ARC
  5
3D11B
  8
0
 10
4916.3742708795452927
 20
30.0609555960588395
 30
0.0
 40
0.057373345684128
 50
64.0337265861383429
 51
158.9745836237775904
  0
ARC
  5
3D11C
  8
0
 10
4916.3739373019725463
 20
30.061223723830711
 30
0.0
 40
0.0569659275153313
 50
159.105934470685412
 51
232.7069166881678086
  0
ARC
  5
3D11D
  8
0
 10
4916.3742630724618721
 20
30.0615910285143713
 30
0.0
 40
0.0574555290402841
 50
232.6703999896134007
 51
319.1588154196048208
  0
ARC
  5
3D11E
  8
0
 10
4916.3745951951041206
 20
30.0612407514380884
 30
0.0
 40
0.0569752211526228
 50
319.2068813323584209
 51
64.2013883845404223
  0
CIRCLE
  5
3D11F
  8
0
 10
4916.3717390632291426
 20
29.8250061531708894
 30
0.0
 40
0.0196850393999997
  0
ARC
  5
3D120
  8
0
 10
4916.3737075671306229
 20
29.8269746571709007
 30
0.0
 40
0.0629921260000002
 50
0.0000029106323539
 51
89.9999999999478888
  0
ARC
  5
3D121
  8
0
 10
4916.3737075671306229
 20
29.82697465717089
 30
0.0
 40
0.0629921260000082
 50
90.0
 51
158.0531913402799091
  0
ARC
  5
3D122
  8
0
 10
4916.3737075671306229
 20
29.8269746571709007
 30
0.0
 40
0.0629921259999916
 50
158.0531913402791986
 51
236.7468870976937865
  0
ARC
  5
3D123
  8
0
 10
4916.3737075671306229
 20
29.8269746571709113
 30
0.0
 40
0.0629921260000077
 50
236.7468870976935875
 51
314.2635960748203843
  0
ARC
  5
3D124
  8
0
 10
4916.3737075671306229
 20
29.82697465717089
 30
0.0
 40
0.0629921259999845
 50
314.2635960748219759
 51
0.0000029106387659
  0
ARC
  5
3D125
  8
0
 10
4916.3742708795452927
 20
29.8247351236588401
 30
0.0
 40
0.057373345684128
 50
64.0337265861383429
 51
158.9745836237775904
  0
ARC
  5
3D126
  8
0
 10
4916.3739373019725463
 20
29.8250032514307115
 30
0.0
 40
0.0569659275153313
 50
159.105934470685412
 51
232.7069166881678086
  0
ARC
  5
3D127
  8
0
 10
4916.3742630724618721
 20
29.8253705561143683
 30
0.0
 40
0.0574555290402841
 50
232.6703999896134007
 51
319.1588154196048208
  0
ARC
  5
3D128
  8
0
 10
4916.3745951951041206
 20
29.8250202790380889
 30
0.0
 40
0.0569752211526228
 50
319.2068813323584209
 51
64.2013883845404223
  0
CIRCLE
  5
3D129
  8
0
 10
4916.3717390632291426
 20
29.5887856807709007
 30
0.0
 40
0.0196850393999997
  0
ARC
  5
3D12A
  8
0
 10
4916.3737075671306229
 20
29.5907541847709012
 30
0.0
 40
0.0629921260000002
 50
0.0000029106323539
 51
89.9999999999478888
  0
ARC
  5
3D12B
  8
0
 10
4916.3737075671306229
 20
29.5907541847708906
 30
0.0
 40
0.0629921260000082
 50
90.0
 51
158.0531913402799091
  0
ARC
  5
3D12C
  8
0
 10
4916.3737075671306229
 20
29.5907541847709012
 30
0.0
 40
0.0629921259999916
 50
158.0531913402791986
 51
236.7468870976937865
  0
ARC
  5
3D12D
  8
0
 10
4916.3737075671306229
 20
29.5907541847709084
 30
0.0
 40
0.0629921260000077
 50
236.7468870976935875
 51
314.2635960748203843
  0
ARC
  5
3D12E
  8
0
 10
4916.3737075671306229
 20
29.5907541847708906
 30
0.0
 40
0.0629921259999845
 50
314.2635960748219759
 51
0.0000029106387659
  0
ARC
  5
3D12F
  8
0
 10
4916.3742708795452927
 20
29.5885146512588406
 30
0.0
 40
0.057373345684128
 50
64.0337265861383429
 51
158.9745836237775904
  0
ARC
  5
3D130
  8
0
 10
4916.3739373019725463
 20
29.5887827790307085
 30
0.0
 40
0.0569659275153313
 50
159.105934470685412
 51
232.7069166881678086
  0
ARC
  5
3D131
  8
0
 10
4916.3742630724618721
 20
29.5891500837143688
 30
0.0
 40
0.0574555290402841
 50
232.6703999896134007
 51
319.1588154196048208
  0
ARC
  5
3D132
  8
0
 10
4916.3745951951041206
 20
29.5887998066380895
 30
0.0
 40
0.0569752211526228
 50
319.2068813323584209
 51
64.2013883845404223
  0
CIRCLE
  5
3D133
  8
0
 10
4916.5292193781297101
 20
29.5887856807709007
 30
0.0
 40
0.0196850393999997
  0
ARC
  5
3D134
  8
0
 10
4916.5311878820302809
 20
29.5907541847709012
 30
0.0
 40
0.0629921260000002
 50
0.0000029106323539
 51
89.9999999999478888
  0
ARC
  5
3D135
  8
0
 10
4916.5311878820302809
 20
29.5907541847708906
 30
0.0
 40
0.0629921260000082
 50
90.0
 51
158.0531913402799091
  0
ARC
  5
3D136
  8
0
 10
4916.5311878820302809
 20
29.5907541847709012
 30
0.0
 40
0.0629921259999916
 50
158.0531913402791986
 51
236.7468870976937865
  0
ARC
  5
3D137
  8
0
 10
4916.5311878820302809
 20
29.5907541847709084
 30
0.0
 40
0.0629921260000077
 50
236.7468870976935875
 51
314.2635960748203843
  0
ARC
  5
3D138
  8
0
 10
4916.5311878820302809
 20
29.5907541847708906
 30
0.0
 40
0.0629921259999845
 50
314.2635960748219759
 51
0.0000029106387659
  0
ARC
  5
3D139
  8
0
 10
4916.533298705132438
 20
29.5882868989147489
 30
0.0
 40
0.0609453675898787
 50
63.2443815128440079
 51
159.3152689075751027
  0
ARC
  5
3D13A
  8
0
 10
4916.53270429875829
 20
29.5887847363425003
 30
0.0
 40
0.0602139721140065
 50
159.5586596953947094
 51
231.6892919045019994
  0
ARC
  5
3D13B
  8
0
 10
4916.5326308030571454
 20
29.5873457686784711
 30
0.0
 40
0.0590452048647425
 50
230.8796027145747018
 51
320.0288389232375152
  0
ARC
  5
3D13C
  8
0
 10
4916.5294141142039734
 20
29.5887291217420412
 30
0.0
 40
0.0624071534867408
 50
320.9527132562399743
 51
59.8750746816186066
  0
CIRCLE
  5
3D13D
  8
0
 10
4916.5292193781297101
 20
29.8250061531708894
 30
0.0
 40
0.0196850393999997
  0
ARC
  5
3D13E
  8
0
 10
4916.5311878820302809
 20
29.8269746571709007
 30
0.0
 40
0.0629921260000002
 50
0.0000029106323539
 51
89.9999999999478888
  0
ARC
  5
3D13F
  8
0
 10
4916.5311878820302809
 20
29.82697465717089
 30
0.0
 40
0.0629921260000082
 50
90.0
 51
158.0531913402799091
  0
ARC
  5
3D140
  8
0
 10
4916.5311878820302809
 20
29.8269746571709007
 30
0.0
 40
0.0629921259999916
 50
158.0531913402791986
 51
236.7468870976937865
  0
ARC
  5
3D141
  8
0
 10
4916.5311878820302809
 20
29.8269746571709113
 30
0.0
 40
0.0629921260000077
 50
236.7468870976935875
 51
314.2635960748203843
  0
ARC
  5
3D142
  8
0
 10
4916.5311878820302809
 20
29.82697465717089
 30
0.0
 40
0.0629921259999845
 50
314.2635960748219759
 51
0.0000029106387659
  0
ARC
  5
3D143
  8
0
 10
4916.533298705132438
 20
29.8245073713147484
 30
0.0
 40
0.0609453675898787
 50
63.2443815128440079
 51
159.3152689075751027
  0
ARC
  5
3D144
  8
0
 10
4916.53270429875829
 20
29.8250052087424997
 30
0.0
 40
0.0602139721140065
 50
159.5586596953947094
 51
231.6892919045019994
  0
ARC
  5
3D145
  8
0
 10
4916.5326308030571454
 20
29.8235662410784705
 30
0.0
 40
0.0590452048647425
 50
230.8796027145747018
 51
320.0288389232375152
  0
ARC
  5
3D146
  8
0
 10
4916.5294141142039734
 20
29.82494959414203
 30
0.0
 40
0.0624071534867408
 50
320.9527132562399743
 51
59.8750746816186066
  0
CIRCLE
  5
3D147
  8
0
 10
4916.5292193781297101
 20
30.0612266255708995
 30
0.0
 40
0.0196850393999997
  0
ARC
  5
3D148
  8
0
 10
4916.5311878820302809
 20
30.0631951295709001
 30
0.0
 40
0.0629921260000002
 50
0.0000029106323539
 51
89.9999999999478888
  0
ARC
  5
3D149
  8
0
 10
4916.5311878820302809
 20
30.0631951295708895
 30
0.0
 40
0.0629921260000082
 50
90.0
 51
158.0531913402799091
  0
ARC
  5
3D14A
  8
0
 10
4916.5311878820302809
 20
30.0631951295708895
 30
0.0
 40
0.0629921259999916
 50
158.0531913402791986
 51
236.7468870976937865
  0
ARC
  5
3D14B
  8
0
 10
4916.5311878820302809
 20
30.0631951295709001
 30
0.0
 40
0.0629921260000077
 50
236.7468870976935875
 51
314.2635960748203843
  0
ARC
  5
3D14C
  8
0
 10
4916.5311878820302809
 20
30.0631951295708895
 30
0.0
 40
0.0629921259999845
 50
314.2635960748219759
 51
0.0000029106387659
  0
ARC
  5
3D14D
  8
0
 10
4916.533298705132438
 20
30.0607278437147407
 30
0.0
 40
0.0609453675898787
 50
63.2443815128440079
 51
159.3152689075751027
  0
ARC
  5
3D14E
  8
0
 10
4916.53270429875829
 20
30.0612256811424992
 30
0.0
 40
0.0602139721140065
 50
159.5586596953947094
 51
231.6892919045019994
  0
ARC
  5
3D14F
  8
0
 10
4916.5326308030571454
 20
30.05978671347847
 30
0.0
 40
0.0590452048647425
 50
230.8796027145747018
 51
320.0288389232375152
  0
ARC
  5
3D150
  8
0
 10
4916.5294141142039734
 20
30.06117006654204
 30
0.0
 40
0.0624071534867408
 50
320.9527132562399743
 51
59.8750746816186066
  0
CIRCLE
  5
3D151
  8
0
 10
4916.5292193781297101
 20
30.2974470980708901
 30
0.0
 40
0.0196850393999997
  0
ARC
  5
3D152
  8
0
 10
4916.5311878820302809
 20
30.2994156020709013
 30
0.0
 40
0.0629921260000002
 50
0.0000029106323539
 51
89.9999999999478888
  0
ARC
  5
3D153
  8
0
 10
4916.5311878820302809
 20
30.2994156020708907
 30
0.0
 40
0.0629921260000082
 50
90.0
 51
158.0531913402799091
  0
ARC
  5
3D154
  8
0
 10
4916.5311878820302809
 20
30.2994156020709013
 30
0.0
 40
0.0629921259999916
 50
158.0531913402791986
 51
236.7468870976937865
  0
ARC
  5
3D155
  8
0
 10
4916.5311878820302809
 20
30.2994156020709084
 30
0.0
 40
0.0629921260000077
 50
236.7468870976935875
 51
314.2635960748203843
  0
ARC
  5
3D156
  8
0
 10
4916.5311878820302809
 20
30.2994156020708907
 30
0.0
 40
0.0629921259999845
 50
314.2635960748219759
 51
0.0000029106387659
  0
ARC
  5
3D157
  8
0
 10
4916.533298705132438
 20
30.296948316214749
 30
0.0
 40
0.0609453675898787
 50
63.2443815128440079
 51
159.3152689075751027
  0
ARC
  5
3D158
  8
0
 10
4916.53270429875829
 20
30.297446153642511
 30
0.0
 40
0.0602139721140065
 50
159.5586596953947094
 51
231.6892919045019994
  0
ARC
  5
3D159
  8
0
 10
4916.5326308030571454
 20
30.2960071859784712
 30
0.0
 40
0.0590452048647425
 50
230.8796027145747018
 51
320.0288389232375152
  0
ARC
  5
3D15A
  8
0
 10
4916.5294141142039734
 20
30.2973905390420306
 30
0.0
 40
0.0624071534867408
 50
320.9527132562399743
 51
59.8750746816186066
  0
CIRCLE
  5
3D15B
  8
0
 10
4916.5292193781297101
 20
30.5336675704709002
 30
0.0
 40
0.0196850393999997
  0
ARC
  5
3D15C
  8
0
 10
4916.5311878820302809
 20
30.5356360744708901
 30
0.0
 40
0.0629921260000002
 50
0.0000029106323539
 51
89.9999999999478888
  0
ARC
  5
3D15D
  8
0
 10
4916.5311878820302809
 20
30.5356360744708901
 30
0.0
 40
0.0629921260000082
 50
90.0
 51
158.0531913402799091
  0
ARC
  5
3D15E
  8
0
 10
4916.5311878820302809
 20
30.5356360744708901
 30
0.0
 40
0.0629921259999916
 50
158.0531913402791986
 51
236.7468870976937865
  0
ARC
  5
3D15F
  8
0
 10
4916.5311878820302809
 20
30.5356360744709008
 30
0.0
 40
0.0629921260000077
 50
236.7468870976935875
 51
314.2635960748203843
  0
ARC
  5
3D160
  8
0
 10
4916.5311878820302809
 20
30.5356360744708901
 30
0.0
 40
0.0629921259999845
 50
314.2635960748219759
 51
0.0000029106387659
  0
ARC
  5
3D161
  8
0
 10
4916.533298705132438
 20
30.5331687886147485
 30
0.0
 40
0.0609453675898787
 50
63.2443815128440079
 51
159.3152689075751027
  0
ARC
  5
3D162
  8
0
 10
4916.53270429875829
 20
30.5336666260425105
 30
0.0
 40
0.0602139721140065
 50
159.5586596953947094
 51
231.6892919045019994
  0
ARC
  5
3D163
  8
0
 10
4916.5326308030571454
 20
30.5322276583784706
 30
0.0
 40
0.0590452048647425
 50
230.8796027145747018
 51
320.0288389232375152
  0
ARC
  5
3D164
  8
0
 10
4916.5294141142039734
 20
30.53361101144203
 30
0.0
 40
0.0624071534867408
 50
320.9527132562399743
 51
59.8750746816186066
  0
CIRCLE
  5
3D165
  8
0
 10
4916.5292193781297101
 20
30.7698880429708908
 30
0.0
 40
0.0196850393999997
  0
ARC
  5
3D166
  8
0
 10
4916.5311878820302809
 20
30.7718565469708913
 30
0.0
 40
0.0629921260000002
 50
0.0000029106323539
 51
89.9999999999478888
  0
ARC
  5
3D167
  8
0
 10
4916.5311878820302809
 20
30.7718565469708913
 30
0.0
 40
0.0629921260000082
 50
90.0
 51
158.0531913402799091
  0
ARC
  5
3D168
  8
0
 10
4916.5311878820302809
 20
30.7718565469708913
 30
0.0
 40
0.0629921259999916
 50
158.0531913402791986
 51
236.7468870976937865
  0
ARC
  5
3D169
  8
0
 10
4916.5311878820302809
 20
30.7718565469709091
 30
0.0
 40
0.0629921260000077
 50
236.7468870976935875
 51
314.2635960748203843
  0
ARC
  5
3D16A
  8
0
 10
4916.5311878820302809
 20
30.7718565469708913
 30
0.0
 40
0.0629921259999845
 50
314.2635960748219759
 51
0.0000029106387659
  0
ARC
  5
3D16B
  8
0
 10
4916.533298705132438
 20
30.7693892611147604
 30
0.0
 40
0.0609453675898787
 50
63.2443815128440079
 51
159.3152689075751027
  0
ARC
  5
3D16C
  8
0
 10
4916.53270429875829
 20
30.769887098542501
 30
0.0
 40
0.0602139721140065
 50
159.5586596953947094
 51
231.6892919045019994
  0
ARC
  5
3D16D
  8
0
 10
4916.5326308030571454
 20
30.7684481308784683
 30
0.0
 40
0.0590452048647425
 50
230.8796027145747018
 51
320.0288389232375152
  0
ARC
  5
3D16E
  8
0
 10
4916.5294141142039734
 20
30.7698314839420313
 30
0.0
 40
0.0624071534867408
 50
320.9527132562399743
 51
59.8750746816186066
  0
CIRCLE
  5
3D16F
  8
0
 10
4916.5292193781297101
 20
31.0061085153709008
 30
0.0
 40
0.0196850393999997
  0
ARC
  5
3D170
  8
0
 10
4916.5311878820302809
 20
31.0080770193708908
 30
0.0
 40
0.0629921260000002
 50
0.0000029106323539
 51
89.9999999999478888
  0
ARC
  5
3D171
  8
0
 10
4916.5311878820302809
 20
31.0080770193708908
 30
0.0
 40
0.0629921260000082
 50
90.0
 51
158.0531913402799091
  0
ARC
  5
3D172
  8
0
 10
4916.5311878820302809
 20
31.0080770193708908
 30
0.0
 40
0.0629921259999916
 50
158.0531913402791986
 51
236.7468870976937865
  0
ARC
  5
3D173
  8
0
 10
4916.5311878820302809
 20
31.0080770193709014
 30
0.0
 40
0.0629921260000077
 50
236.7468870976935875
 51
314.2635960748203843
  0
ARC
  5
3D174
  8
0
 10
4916.5311878820302809
 20
31.0080770193708908
 30
0.0
 40
0.0629921259999845
 50
314.2635960748219759
 51
0.0000029106387659
  0
ARC
  5
3D175
  8
0
 10
4916.533298705132438
 20
31.0056097335147491
 30
0.0
 40
0.0609453675898787
 50
63.2443815128440079
 51
159.3152689075751027
  0
ARC
  5
3D176
  8
0
 10
4916.53270429875829
 20
31.0061075709425005
 30
0.0
 40
0.0602139721140065
 50
159.5586596953947094
 51
231.6892919045019994
  0
ARC
  5
3D177
  8
0
 10
4916.5326308030571454
 20
31.0046686032784713
 30
0.0
 40
0.0590452048647425
 50
230.8796027145747018
 51
320.0288389232375152
  0
ARC
  5
3D178
  8
0
 10
4916.5294141142039734
 20
31.0060519563420414
 30
0.0
 40
0.0624071534867408
 50
320.9527132562399743
 51
59.8750746816186066
  0
CIRCLE
  5
3D179
  8
0
 10
4916.5292193781297101
 20
31.2423289877708896
 30
0.0
 40
0.0196850393999997
  0
ARC
  5
3D17A
  8
0
 10
4916.5311878820302809
 20
31.2442974917708902
 30
0.0
 40
0.0629921260000002
 50
0.0000029106323539
 51
89.9999999999478888
  0
ARC
  5
3D17B
  8
0
 10
4916.5311878820302809
 20
31.2442974917708902
 30
0.0
 40
0.0629921260000082
 50
90.0
 51
158.0531913402799091
  0
ARC
  5
3D17C
  8
0
 10
4916.5311878820302809
 20
31.2442974917708902
 30
0.0
 40
0.0629921259999916
 50
158.0531913402791986
 51
236.7468870976937865
  0
ARC
  5
3D17D
  8
0
 10
4916.5311878820302809
 20
31.2442974917709115
 30
0.0
 40
0.0629921260000077
 50
236.7468870976935875
 51
314.2635960748203843
  0
ARC
  5
3D17E
  8
0
 10
4916.5311878820302809
 20
31.2442974917708902
 30
0.0
 40
0.0629921259999845
 50
314.2635960748219759
 51
0.0000029106387659
  0
ARC
  5
3D17F
  8
0
 10
4916.533298705132438
 20
31.2418302059147592
 30
0.0
 40
0.0609453675898787
 50
63.2443815128440079
 51
159.3152689075751027
  0
ARC
  5
3D180
  8
0
 10
4916.53270429875829
 20
31.2423280433424999
 30
0.0
 40
0.0602139721140065
 50
159.5586596953947094
 51
231.6892919045019994
  0
ARC
  5
3D181
  8
0
 10
4916.5326308030571454
 20
31.2408890756784707
 30
0.0
 40
0.0590452048647425
 50
230.8796027145747018
 51
320.0288389232375152
  0
ARC
  5
3D182
  8
0
 10
4916.5294141142039734
 20
31.2422724287420301
 30
0.0
 40
0.0624071534867408
 50
320.9527132562399743
 51
59.8750746816186066
  0
CIRCLE
  5
3D183
  8
0
 10
4916.5292193781297101
 20
31.4785494602709015
 30
0.0
 40
0.0196850393999997
  0
ARC
  5
3D184
  8
0
 10
4916.5311878820302809
 20
31.4805179642708985
 30
0.0
 40
0.0629921260000002
 50
0.0000029106323539
 51
89.9999999999478888
  0
ARC
  5
3D185
  8
0
 10
4916.5311878820302809
 20
31.4805179642708914
 30
0.0
 40
0.0629921260000082
 50
90.0
 51
158.0531913402799091
  0
ARC
  5
3D186
  8
0
 10
4916.5311878820302809
 20
31.4805179642708914
 30
0.0
 40
0.0629921259999916
 50
158.0531913402791986
 51
236.7468870976937865
  0
ARC
  5
3D187
  8
0
 10
4916.5311878820302809
 20
31.4805179642708985
 30
0.0
 40
0.0629921260000077
 50
236.7468870976935875
 51
314.2635960748203843
  0
ARC
  5
3D188
  8
0
 10
4916.5311878820302809
 20
31.4805179642708914
 30
0.0
 40
0.0629921259999845
 50
314.2635960748219759
 51
0.0000029106387659
  0
ARC
  5
3D189
  8
0
 10
4916.533298705132438
 20
31.4780506784147498
 30
0.0
 40
0.0609453675898787
 50
63.2443815128440079
 51
159.3152689075751027
  0
ARC
  5
3D18A
  8
0
 10
4916.53270429875829
 20
31.4785485158425082
 30
0.0
 40
0.0602139721140065
 50
159.5586596953947094
 51
231.6892919045019994
  0
ARC
  5
3D18B
  8
0
 10
4916.5326308030571454
 20
31.4771095481784684
 30
0.0
 40
0.0590452048647425
 50
230.8796027145747018
 51
320.0288389232375152
  0
ARC
  5
3D18C
  8
0
 10
4916.5294141142039734
 20
31.4784929012420385
 30
0.0
 40
0.0624071534867408
 50
320.9527132562399743
 51
59.8750746816186066
  0
CIRCLE
  5
3D18D
  8
0
 10
4916.5292193781297101
 20
31.7147699326708903
 30
0.0
 40
0.0196850393999997
  0
ARC
  5
3D18E
  8
0
 10
4916.5311878820302809
 20
31.7167384366709015
 30
0.0
 40
0.0629921260000002
 50
0.0000029106323539
 51
89.9999999999478888
  0
ARC
  5
3D18F
  8
0
 10
4916.5311878820302809
 20
31.7167384366708909
 30
0.0
 40
0.0629921260000082
 50
90.0
 51
158.0531913402799091
  0
ARC
  5
3D190
  8
0
 10
4916.5311878820302809
 20
31.7167384366709015
 30
0.0
 40
0.0629921259999916
 50
158.0531913402791986
 51
236.7468870976937865
  0
ARC
  5
3D191
  8
0
 10
4916.5311878820302809
 20
31.7167384366709086
 30
0.0
 40
0.0629921260000077
 50
236.7468870976935875
 51
314.2635960748203843
  0
ARC
  5
3D192
  8
0
 10
4916.5311878820302809
 20
31.7167384366708909
 30
0.0
 40
0.0629921259999845
 50
314.2635960748219759
 51
0.0000029106387659
  0
ARC
  5
3D193
  8
0
 10
4916.533298705132438
 20
31.7142711508147492
 30
0.0
 40
0.0609453675898787
 50
63.2443815128440079
 51
159.3152689075751027
  0
ARC
  5
3D194
  8
0
 10
4916.53270429875829
 20
31.7147689882425112
 30
0.0
 40
0.0602139721140065
 50
159.5586596953947094
 51
231.6892919045019994
  0
ARC
  5
3D195
  8
0
 10
4916.5326308030571454
 20
31.7133300205784714
 30
0.0
 40
0.0590452048647425
 50
230.8796027145747018
 51
320.0288389232375152
  0
ARC
  5
3D196
  8
0
 10
4916.5294141142039734
 20
31.7147133736420308
 30
0.0
 40
0.0624071534867408
 50
320.9527132562399743
 51
59.8750746816186066
  0
LINE
  5
3D197
  8
0
 10
4916.7302083793929341
 20
25.0974234759708992
 30
0.0
 11
4916.8672113901302509
 21
25.0974234759708992
 31
0.0
  0
ARC
  5
3D198
  8
0
 10
4916.8672113901302509
 20
25.0895493462700685
 30
0.0
 40
0.0078741297008254
 50
0.0008295222924959
 51
90.0
  0
LINE
  5
3D199
  8
0
 10
4916.875085519829554
 20
25.0895494602708986
 30
0.0
 11
4916.875102391708424
 21
23.9241951296930289
 31
0.0
  0
ARC
  5
3D19A
  8
0
 10
4916.8672284712665714
 20
23.9241950156952292
 30
0.0
 40
0.0078739204423509
 50
269.875737705776487
 51
0.0008295222907657
  0
ARC
  5
3D19B
  8
0
 10
4915.9138241897044281
 20
23.9185496074873889
 30
0.0
 40
0.0541143426701617
 50
182.3607451442393881
 51
247.4450812332055136
  0
LINE
  5
3D19C
  8
0
 10
4915.8930676157378912
 20
23.8685743463380788
 30
0.0
 11
4916.6968670141231996
 21
23.8685743463380788
 31
0.0
  0
ARC
  5
3D19D
  8
0
 10
4916.6761104399301985
 20
23.9185496075708883
 30
0.0
 40
0.054114342899998
 50
292.5549190316046975
 51
357.6398233880632915
  0
LINE
  5
3D19E
  8
0
 10
4916.7226647094303189
 20
23.9163283289613311
 30
0.0
 11
4916.8672113944294324
 21
23.9163211137708984
 31
0.0
  0
LINE
  5
3D19F
  8
0
 10
4913.6861091419314107
 20
25.0580533972708999
 30
0.0
 11
4913.6979201655312863
 21
25.0580533972708999
 31
0.0
  0
LINE
  5
3D1A0
  8
0
 10
4915.8938923857313057
 20
25.0974234759708992
 30
0.0
 11
4913.6979201655312863
 21
25.0974234759708992
 31
0.0
  0
LINE
  5
3D1A1
  8
0
 10
4913.6979201655312863
 20
25.0974234759708992
 30
0.0
 11
4913.6979201655312863
 21
23.9163211137708984
 31
0.0
  0
LINE
  5
3D1A2
  8
0
 10
4913.6979201655312863
 20
23.9163211137708984
 30
0.0
 11
4915.9017724867308061
 21
23.9163211137708984
 31
0.0
  0
ARC
  5
3D1A3
  8
0
 10
4915.9017229399059943
 20
23.9241482454985217
 30
0.0
 40
0.0078272885451737
 50
270.3626853522843021
 51
0.343195089928062
  0
ARC
  5
3D1A4
  8
0
 10
4915.8940360406641048
 20
25.089548741261769
 30
0.0
 40
0.0078760449134691
 50
0.3706770616867257
 51
91.0451029561584448
  0
LINE
  5
3D1A5
  8
0
 10
4915.9095500880339387
 20
23.9241951297708901
 30
0.0
 11
4915.9019119207523545
 21
25.0895996952560409
 31
0.0
  0
LINE
  5
3D1A6
  8
0
 10
4913.6979201655312863
 20
23.9556911925708995
 30
0.0
 11
4913.6861091419314107
 21
23.9556911925708889
 31
0.0
  0
LINE
  5
3D1A7
  8
0
 10
4914.8967390632296883
 20
23.9163211137708984
 30
0.0
 11
4914.8967390632296883
 21
23.8987596784708884
 31
0.0
  0
LINE
  5
3D1A8
  8
0
 10
4915.6250855198313729
 20
23.9163211137708984
 30
0.0
 11
4915.6250855198313729
 21
23.8987596784708884
 31
0.0
  0
LINE
  5
3D1A9
  8
0
 10
4914.8244799536296341
 20
23.8987590653708999
 30
0.0
 11
4915.6973446294314272
 21
23.8987596784708884
 31
0.0
  0
LINE
  5
3D1AA
  8
0
 10
4915.6973446294314272
 20
23.8987596784708884
 30
0.0
 11
4915.7139459742302279
 21
23.8701914486708908
 31
0.0
  0
LINE
  5
3D1AB
  8
0
 10
4914.8244799536296341
 20
23.8987596784708884
 30
0.0
 11
4914.8078786088308334
 21
23.8701914486708908
 31
0.0
  0
LINE
  5
3D1AC
  8
0
 10
4914.8078786088308334
 20
23.8701914486708908
 30
0.0
 11
4914.8367847723766317
 21
22.6358096089350198
 31
0.0
  0
ARC
  5
3D1AD
  8
0
 10
4914.8760803371396833
 20
22.6367298136764887
 30
0.0
 40
0.0393063377439323
 50
181.3414799835061899
 51
270.0025303592947807
  0
LINE
  5
3D1AE
  8
0
 10
4914.8760820730303749
 20
22.5974234759708885
 30
0.0
 11
4915.6457425092803533
 21
22.5974574665624885
 31
0.0
  0
ARC
  5
3D1AF
  8
0
 10
4915.6457407731968487
 20
22.6367681931373212
 30
0.0
 40
0.0393107266131664
 50
270.0025303592947807
 51
358.6027154353458855
  0
LINE
  5
3D1B0
  8
0
 10
4915.6850398106307694
 20
22.6358096089708987
 30
0.0
 11
4915.7139459742302279
 21
23.8701914486708908
 31
0.0
  0
LINE
  5
3D1B1
  8
0
 10
4914.8078786088308334
 20
23.8701914486708908
 30
0.0
 11
4915.7139459742302279
 21
23.8701914486708908
 31
0.0
  0
LINE
  5
3D1B2
  8
0
 10
4914.8994341474308385
 20
22.5974234759708885
 30
0.0
 11
4914.8994681100302842
 21
8.2403337718708922
 31
0.0
  0
ARC
  5
3D1B3
  8
0
 10
4917.393008156277574
 20
8.2535189666059967
 30
0.0
 40
2.4935749059528991
 50
180.3029624371712885
 51
255.433860212760095
  0
ARC
  5
3D1B4
  8
0
 10
4917.392896033762554
 20
8.2533809271251446
 30
0.0
 40
2.4934131059099802
 50
255.4355561004583137
 51
270.0
  0
ARC
  5
3D1B5
  8
0
 10
4917.392833522235378
 20
8.2534276636149464
 30
0.0
 40
2.4934843624799332
 50
299.1326456832262011
 51
340.1152115359363961
  0
ARC
  5
3D1B6
  8
0
 10
4917.3843375925944201
 20
8.2548354832951283
 30
0.0
 40
2.501953083278774
 50
340.1510698512418003
 51
359.9640738002296985
  0
ARC
  5
3D1B7
  8
0
 10
-65710.7255906043137657
 20
10.5681771370700002
 30
0.0
 40
70630.6119187238073209
 50
359.9981221371950255
 51
0.0018778628049947
  0
ARC
  5
3D1B8
  8
0
 10
4916.5102708813456047
 20
12.8811519840361406
 30
0.0
 40
3.3760198575644451
 50
0.0328499692802844
 51
30.1447578479877301
  0
ARC
  5
3D1B9
  8
0
 10
131855.2411591738928109
 20
69624.0047066467959667
 30
0.0
 40
144769.3776875053008553
 50
208.7390063518959948
 51
208.7396103479185001
  0
ARC
  5
3D1BA
  8
0
 10
5161.4785605733986813
 20
150.1726157414225042
 30
0.0
 40
277.4321664540789811
 50
208.1518263012503951
 51
208.9424395482297996
  0
ARC
  5
3D1BB
  8
0
 10
4919.7861923884956923
 20
20.44111331652066
 30
0.0
 40
3.1430475524494201
 50
174.7270771451734959
 51
201.7299700950395049
  0
ARC
  5
3D1BC
  8
0
 10
1859.4243035453960147
 20
22.2992668857571488
 30
0.0
 40
3057.2325446841191479
 50
359.9705895129378064
 51
0.0294104870610656
  0
LINE
  5
3D1BD
  8
0
 10
4915.6223877697302669
 20
22.5974234759708885
 30
0.0
 11
4915.622387766529755
 21
8.4215142469708955
 31
0.0
  0
ARC
  5
3D1BE
  8
0
 10
4917.4057326419342644
 20
8.2692749266946386
 30
0.0
 40
1.789831208595968
 50
175.120644480110002
 51
250.3982166905308873
  0
ARC
  5
3D1BF
  8
0
 10
4917.3927396121680431
 20
8.2538945858939652
 30
0.0
 40
1.770997444327717
 50
250.6272789247692003
 51
312.0830143247696924
  0
ARC
  5
3D1C0
  8
0
 10
4917.3929290020396365
 20
8.2532671459096552
 30
0.0
 40
1.7704048661209191
 50
312.0920745054285135
 51
359.9090352715043082
  0
ARC
  5
3D1C1
  8
0
 10
-2310629.48040682496503
 20
11.6811731795209006
 30
0.0
 40
2315548.6437410027720034
 50
359.9999151105749888
 51
0.0000283012086133
  0
ARC
  5
3D1C2
  8
0
 10
4916.1222028206548202
 20
12.8180530077245098
 30
0.0
 40
3.0411388660991521
 50
0.129691431110339
 51
35.0413329181469919
  0
ARC
  5
3D1C3
  8
0
 10
7341.0477954397556459
 20
1345.4457762239160274
 30
0.0
 40
2763.9537875042278756
 50
208.7052778518234959
 51
208.7843105654905003
  0
ARC
  5
3D1C4
  8
0
 10
4924.0337944460079598
 20
22.3509953145318683
 30
0.0
 40
8.5080930155382237
 50
200.7162794734373961
 51
211.4891537843396918
  0
ARC
  5
3D1C5
  8
0
 10
4919.2975959715531644
 20
20.3094783753435202
 30
0.0
 40
3.364110279016836
 50
180.5924389611753043
 51
196.7254053517806085
  0
ARC
  5
3D1C6
  8
0
 10
14070.5693588097292377
 20
22.0716342029755808
 30
0.0
 40
9154.6358696388997487
 50
179.9887535573911066
 51
180.0112464426088934
  0
LINE
  5
3D2B8
  8
0
 10
4914.9385753731376099
 20
-2.1781670752291289
 30
0.0
 11
4910.7013551714926507
 21
-2.1781670752291289
 31
0.0
  0
LINE
  5
3D2BA
  8
0
 10
4910.7013551714926507
 20
-2.178167075229128
 30
0.0
 11
4910.4577555602299981
 21
-2.4239629067791082
 31
0.0
  0
LINE
  5
3D2BB
  8
0
 10
4914.9385753731376099
 20
-2.1781670752291289
 30
0.0
 11
4915.1821939460942303
 21
-2.4239629067791091
 31
0.0
  0
LINE
  5
3D2F1
  8
0
 10
4912.1900461498307777
 20
-2.1781670752291289
 30
0.0
 11
4912.1900461498307777
 21
21.9635652082709001
 31
0.0
  0
LINE
  5
3D2F2
  8
0
 10
4912.2563184223299686
 20
34.0108093027708875
 30
0.0
 11
4912.1878264160313847
 21
33.8454549720708968
 31
0.0
  0
LINE
  5
3D2F3
  8
0
 10
4912.1878264160313847
 20
33.8454549720708968
 30
0.0
 11
4912.1878264160313847
 21
31.8454549720709004
 31
0.0
  0
LINE
  5
3D2F4
  8
0
 10
4912.1875730921301511
 20
31.7962423736708892
 30
0.0
 11
4912.1875730921301511
 21
30.1005689365709017
 31
0.0
  0
LINE
  5
3D2F5
  8
0
 10
4912.1875730921301511
 20
29.7057063973703315
 30
0.0
 11
4912.1875730921301511
 21
22.0029352865887091
 31
0.0
  0
LINE
  5
3D2F6
  8
0
 10
4913.4468494364300568
 20
33.8454549720708968
 30
0.0
 11
4913.4468494364300568
 21
31.8454549720709004
 31
0.0
  0
LINE
  5
3D2F7
  8
0
 10
4913.4523617271306648
 20
31.7962423736708999
 30
0.0
 11
4913.4523617271306648
 21
30.1005689365709017
 31
0.0
  0
LINE
  5
3D2F8
  8
0
 10
4913.4523617271306648
 20
29.7057063973703315
 30
0.0
 11
4913.4523617271306648
 21
22.0029352833286502
 31
0.0
  0
LINE
  5
3D2F9
  8
0
 10
4913.4498886694300381
 20
21.9635652082708894
 30
0.0
 11
4913.4498886694300381
 21
-2.1790069507383598
 31
0.0
  0
LINE
  5
3D2FA
  8
0
 10
4913.3783574301296539
 20
34.0108093027708875
 30
0.0
 11
4913.4468494364300568
 21
33.8454549720708968
 31
0.0
  0
ARC
  5
3D2FB
  8
0
 10
4913.4445642401178702
 20
31.7987842644837393
 30
0.0
 40
0.0073485405661038
 50
11.0516209708944597
 51
83.4537283612980616
  0
ARC
  5
3D2FC
  8
0
 10
4913.4089889453525757
 20
31.79183585904795
 30
0.0
 40
0.0435960499379171
 50
5.8011350673653812
 51
11.0516209708946604
  0
LINE
  5
3D2FD
  8
0
 10
4911.9538256773303146
 20
22.0029352870708905
 30
0.0
 11
4913.6861091419314107
 21
22.0029352870708905
 31
0.0
  0
ARC
  5
3D2FE
  8
0
 10
4912.1950017567160103
 20
31.7995775589596086
 30
0.0
 40
0.0065242100895597
 50
94.1219046148629133
 51
152.3911654685649069
  0
ARC
  5
3D2FF
  8
0
 10
4912.2020759618872034
 20
31.7958778648564184
 30
0.0
 40
0.0145074497363361
 50
152.3911654685610131
 51
178.5602559312673066
  0
ARC
  5
3D300
  8
0
 10
4911.9614936516445596
 20
31.7962419549808217
 30
0.0
 40
0.0098424555739129
 50
89.9996267085778072
 51
180.0004280227601043
  0
LINE
  5
3D301
  8
0
 10
4911.961493715769393
 20
31.8060844105545186
 30
0.0
 11
4913.6763641108245793
 21
31.8060844105545293
 31
0.0
  0
ARC
  5
3D302
  8
0
 10
4913.6768162970656704
 20
31.7967866307628384
 30
0.0
 40
0.0093087690620717
 50
356.6481682052188944
 51
92.7843169143857551
  0
LINE
  5
3D303
  8
0
 10
4911.9516402689196184
 20
31.8454549720709004
 30
0.0
 11
4913.6861091419314107
 21
31.8454549720708897
 31
0.0
  0
LINE
  5
3D304
  8
0
 10
4913.549814310171314
 20
31.8454549720708791
 30
0.0
 11
4913.5605158148146074
 21
31.8060987989212016
 31
0.0
  0
LINE
  5
3D305
  8
0
 10
4912.0901205091913653
 20
31.8454549720709004
 30
0.0
 11
4912.0794190041833645
 21
31.8060987975160003
 31
0.0
  0
LINE
  5
3D306
  8
0
 10
4911.9538256773303146
 20
21.9635652082708894
 30
0.0
 11
4913.6861091419314107
 21
21.9635652082708894
 31
0.0
  0
LINE
  5
3D307
  8
0
 10
4911.9931957561311719
 20
22.0029352870708905
 30
0.0
 11
4911.9931957561311719
 21
21.9635652082709001
 31
0.0
  0
LINE
  5
3D308
  8
0
 10
4913.6467390632305978
 20
22.0029352870708905
 30
0.0
 11
4913.6467390632305978
 21
21.9635652082709001
 31
0.0
  0
LINE
  5
3D309
  8
0
 10
4911.9538256773303146
 20
21.9635652082708894
 30
0.0
 11
4911.9538256773303146
 21
-2.1781670752291311
 31
0.0
  0
ARC
  5
3D30A
  8
0
 10
4916.730499686341318
 20
25.0895937908782294
 30
0.0
 40
0.0078351023214855
 50
92.1307323627422363
 51
180.3241783133082947
  0
LINE
  5
3D30B
  8
0
 10
4916.7226647094303189
 20
25.0895494602708986
 30
0.0
 11
4916.7226647094303189
 21
23.9163283289613311
 31
0.0
  0
LINE
  5
3D314
  8
0
 10
4911.9567085098306052
 20
29.9851366454708987
 30
0.0
 11
4912.1875730920937713
 21
30.1005689365532092
 31
0.0
  0
ARC
  5
3D315
  8
0
 10
4912.1937683847390872
 20
30.0881783512608401
 30
0.0
 40
0.0138530954961805
 50
86.8367874894096445
 51
116.5650511671358061
  0
LINE
  5
3D316
  8
0
 10
4912.194532804530354
 20
30.1020103401708887
 30
0.0
 11
4913.4454020147295523
 21
30.1020103401708887
 31
0.0
  0
ARC
  5
3D317
  8
0
 10
4911.971252262283997
 20
29.8369618055136101
 30
0.0
 40
0.0208839847360659
 50
203.4150807531574117
 51
234.9758406634832113
  0
LINE
  5
3D318
  8
0
 10
4911.959266488403955
 20
29.8198596991246809
 30
0.0
 11
4912.1901311560295653
 21
29.7044275155708988
 31
0.0
  0
ARC
  5
3D319
  8
0
 10
4912.1945333788053176
 20
29.713231972579301
 30
0.0
 40
0.0098436796251599
 50
243.4349786559596964
 51
269.9966574020201051
  0
LINE
  5
3D31A
  8
0
 10
4912.194532804530354
 20
29.7033882929708888
 30
0.0
 11
4913.4454020147295523
 21
29.7033882929708888
 31
0.0
  0
ARC
  5
3D31B
  8
0
 10
4912.0008067713342825
 20
29.9213084524334789
 30
0.0
 40
0.0775802520507955
 50
124.6402284500521063
 51
128.9333520322267077
  0
LINE
  5
3D31C
  8
0
 10
4913.6832263094302107
 20
29.9851366454708987
 30
0.0
 11
4913.4523617271661351
 21
30.1005689365532092
 31
0.0
  0
ARC
  5
3D31D
  8
0
 10
4913.6762666222302869
 20
29.8286631163709117
 30
0.0
 40
0.0098425197000047
 50
296.5650511955053048
 51
359.9999999965668849
  0
LINE
  5
3D31E
  8
0
 10
4913.6806683308568608
 20
29.8198596991246809
 30
0.0
 11
4913.449803663230341
 21
29.7044275155708988
 31
0.0
  0
ARC
  5
3D31F
  8
0
 10
4913.6816191189336678
 20
29.9808711458041692
 30
0.0
 40
0.0045582367438466
 50
9.9247193836854741
 51
69.3538241307671939
  0
ARC
  5
3D320
  8
0
 10
4913.4453383431982729
 20
29.7134992223086911
 30
0.0
 40
0.010111129815106
 50
270.3608038195004042
 51
296.2075601226670187
  0
ARC
  5
3D321
  8
0
 10
4913.4456866417613128
 20
30.0858617067773793
 30
0.0
 40
0.0161511415338108
 50
65.5884017339608221
 51
91.0097585800726563
  0
LINE
  5
3D322
  8
0
 10
4912.3081563860296228
 20
29.9970297751709012
 30
0.0
 11
4913.331778433231193
 21
29.9970297751709012
 31
0.0
  0
ARC
  5
3D323
  8
0
 10
4913.331778433231193
 20
29.7584900751333699
 30
0.0
 40
0.2385397000375313
 50
60.9796223919328568
 51
90.0
  0
ARC
  5
3D324
  8
0
 10
4913.4204682096333272
 20
29.92116985078205
 30
0.0
 40
0.0532770628381365
 50
5.378361506542312
 51
59.5117248580162794
  0
LINE
  5
3D325
  8
0
 10
4913.4735107167298338
 20
29.9261636334708889
 30
0.0
 11
4913.4735107167298338
 21
29.8867935547708896
 31
0.0
  0
ARC
  5
3D326
  8
0
 10
4913.4044767240729925
 20
29.900602100621299
 30
0.0
 40
0.070401477830626
 50
285.9846590952370207
 51
348.6886730971102111
  0
ARC
  5
3D327
  8
0
 10
4913.3348554300509932
 20
30.0572264455765392
 30
0.0
 40
0.2413186504310316
 50
269.269415320342091
 51
291.6442174081295207
  0
LINE
  5
3D328
  8
0
 10
4913.331778433231193
 20
29.8159274129709004
 30
0.0
 11
4912.3081563860296228
 21
29.8159274129709004
 31
0.0
  0
ARC
  5
3D329
  8
0
 10
4912.2354580951878233
 20
29.9006021006212208
 30
0.0
 40
0.070401477830626
 50
191.3113269028976902
 51
254.0153409047636046
  0
ARC
  5
3D32A
  8
0
 10
4912.3050793892089132
 20
30.0572264455764611
 30
0.0
 40
0.2413186504310316
 50
248.3557825918715878
 51
270.730584679657909
  0
LINE
  5
3D32B
  8
0
 10
4912.1664241025300726
 20
29.9261636334708889
 30
0.0
 11
4912.1664241025300726
 21
29.8867935547705308
 31
0.0
  0
ARC
  5
3D32C
  8
0
 10
4912.299107229971014
 20
29.8177190619723014
 30
0.0
 40
0.1730514102317981
 50
87.0025379689695768
 51
124.0954453099987944
  0
ARC
  5
3D32D
  8
0
 10
4912.2261127665233289
 20
29.9255498973019094
 30
0.0
 40
0.0428374296387329
 50
124.095445309999306
 51
176.5441154433455893
  0
LINE
  5
3D32E
  8
0
 10
4912.1833532364298662
 20
29.9281321374709002
 30
0.0
 11
4912.1833532364298662
 21
29.8887620586708884
 31
0.0
  0
ARC
  5
3D32F
  8
0
 10
4912.2566770749172065
 20
29.9107265312978008
 30
0.0
 40
0.0765429510021409
 50
196.6758142563274987
 51
260.4475684453666986
  0
ARC
  5
3D330
  8
0
 10
4912.3119365838856538
 20
30.077240423074759
 30
0.0
 40
0.2513575851432177
 50
254.3131777706419996
 51
269.138289190204091
  0
LINE
  5
3D331
  8
0
 10
4912.3081563860296228
 20
29.9905337122708993
 30
0.0
 11
4913.331778433231193
 21
29.9905337122708993
 31
0.0
  0
LINE
  5
3D332
  8
0
 10
4912.3081563860296228
 20
29.8259112649709017
 30
0.0
 11
4913.331778433231193
 21
29.8259112649709017
 31
0.0
  0
ARC
  5
3D333
  8
0
 10
4913.3408275892898018
 20
29.8177190619724009
 30
0.0
 40
0.1730514102317981
 50
55.904554690004602
 51
92.9974620310304942
  0
ARC
  5
3D334
  8
0
 10
4913.4138220527383965
 20
29.9255498973020195
 30
0.0
 40
0.0428374296387329
 50
3.4558845566653851
 51
55.9045546900041401
  0
LINE
  5
3D335
  8
0
 10
4913.4565815828300401
 20
29.928132137471021
 30
0.0
 11
4913.4565815828300401
 21
29.8887620586710199
 31
0.0
  0
ARC
  5
3D336
  8
0
 10
4913.3832577443454284
 20
29.9107265312979109
 30
0.0
 40
0.0765429510021409
 50
279.5524315546849721
 51
343.3241857436823921
  0
ARC
  5
3D337
  8
0
 10
4913.3279982353742525
 20
30.0772404230748585
 30
0.0
 40
0.2513575851432177
 50
270.8617108098479775
 51
285.686822229358711
  0
ARC
  5
3D338
  8
0
 10
4912.3068847597751301
 20
29.7932742820221783
 30
0.0
 40
0.1704370023007453
 50
89.5725136411786167
 51
112.8112969188974972
  0
ARC
  5
3D339
  8
0
 10
4912.262119250919568
 20
29.8997084706015492
 30
0.0
 40
0.0549719111186478
 50
112.8112969188976962
 51
162.0339350844760133
  0
LINE
  5
3D33A
  8
0
 10
4912.2098278046132691
 20
29.9166647572031508
 30
0.0
 11
4912.2097311891302525
 21
29.8751238633708986
 31
0.0
  0
ARC
  5
3D33B
  8
0
 10
4912.2587479923849969
 20
29.885879341428101
 30
0.0
 40
0.0501829384313207
 50
192.3759526800535866
 51
251.7933562472956055
  0
ARC
  5
3D33C
  8
0
 10
4912.3042446957961147
 20
29.9836035893384008
 30
0.0
 40
0.15774083328331
 50
247.1806589678548107
 51
259.1868754246546018
  0
ARC
  5
3D33D
  8
0
 10
4912.3073948318642579
 20
29.7975474456328193
 30
0.0
 40
0.1612396335040239
 50
89.7293841417829867
 51
107.1811794617846942
  0
ARC
  5
3D33E
  8
0
 10
4912.2736091068427413
 20
29.8928423360243301
 30
0.0
 40
0.0603584853515526
 50
103.2591147331088024
 51
150.3720976936440081
  0
ARC
  5
3D33F
  8
0
 10
4912.2416994324921689
 20
29.9144992177485101
 30
0.0
 40
0.0221257242910019
 50
158.2962635716505986
 51
180.0136616573877859
  0
LINE
  5
3D340
  8
0
 10
4912.2195737088295573
 20
29.9144939420708909
 30
0.0
 11
4912.2195737088295573
 21
29.8751238633708986
 31
0.0
  0
ARC
  5
3D341
  8
0
 10
4912.2510079960047733
 20
29.877346431538701
 30
0.0
 40
0.0315127628016698
 50
184.044380023374714
 51
238.6704402691341897
  0
ARC
  5
3D342
  8
0
 10
4912.304663946594701
 20
29.9654924904884012
 30
0.0
 40
0.1347052467435998
 50
238.6704402691341897
 51
271.4856471377073035
  0
LINE
  5
3D343
  8
0
 10
4912.3081563860296228
 20
29.9637065404708984
 30
0.0
 11
4913.331778433231193
 21
29.9637065404708984
 31
0.0
  0
LINE
  5
3D344
  8
0
 10
4912.3081563860296228
 20
29.9587852806708987
 30
0.0
 11
4913.331778433231193
 21
29.9587852806708987
 31
0.0
  0
LINE
  5
3D345
  8
0
 10
4912.3081563860296228
 20
29.8308325247709014
 30
0.0
 11
4913.331778433231193
 21
29.8308325247709014
 31
0.0
  0
ARC
  5
3D346
  8
0
 10
4913.3330500594856858
 20
29.7932742820221783
 30
0.0
 40
0.1704370023007453
 50
67.1887030811024317
 51
90.4274863588213833
  0
ARC
  5
3D347
  8
0
 10
4913.3778155683421573
 20
29.8997084706015492
 30
0.0
 40
0.0549719111186478
 50
17.9660649155239405
 51
67.188703081102318
  0
LINE
  5
3D348
  8
0
 10
4913.4301070146466373
 20
29.9166647572031508
 30
0.0
 11
4913.4302036301305634
 21
29.8751238633708986
 31
0.0
  0
ARC
  5
3D349
  8
0
 10
4913.3811868268749095
 20
29.885879341428101
 30
0.0
 40
0.0501829384313207
 50
288.2066437527043945
 51
347.6240473199463281
  0
ARC
  5
3D34A
  8
0
 10
4913.3356901234647012
 20
29.9836035893384008
 30
0.0
 40
0.15774083328331
 50
280.8131245753453982
 51
292.8193410321451893
  0
ARC
  5
3D34B
  8
0
 10
4913.332539987396558
 20
29.7975474456328193
 30
0.0
 40
0.1612396335040239
 50
72.8188205382152489
 51
90.2706158582170133
  0
ARC
  5
3D34C
  8
0
 10
4913.3663257124180745
 20
29.8928423360243301
 30
0.0
 40
0.0603584853515526
 50
29.6279023063560309
 51
76.740885266891155
  0
ARC
  5
3D34D
  8
0
 10
4913.3982353867677375
 20
29.9144992177485101
 30
0.0
 40
0.0221257242910019
 50
359.9863383426121004
 51
21.7037364283494192
  0
LINE
  5
3D34E
  8
0
 10
4913.4203611104303491
 20
29.9144939420708909
 30
0.0
 11
4913.4203611104303491
 21
29.8751238633708986
 31
0.0
  0
ARC
  5
3D34F
  8
0
 10
4913.3889268232560426
 20
29.877346431538701
 30
0.0
 40
0.0315127628016698
 50
301.3295597308656966
 51
355.9556199766253144
  0
ARC
  5
3D350
  8
0
 10
4913.3352708726661149
 20
29.9654924904884012
 30
0.0
 40
0.1347052467435998
 50
268.5143528622926965
 51
301.3295597308656966
  0
ARC
  5
3D351
  8
0
 10
4912.2637333258417129
 20
29.9203237208832995
 30
0.0
 40
0.0591615319012054
 50
102.7810055531624016
 51
157.829397118530693
  0
ARC
  5
3D352
  8
0
 10
4912.5370755593694412
 20
29.9353490265212585
 30
0.0
 40
0.328210815253778
 50
178.7254938892673977
 51
184.3570236243533884
  0
ARC
  5
3D353
  8
0
 10
4912.3067956404038341
 20
29.7770276627810198
 30
0.0
 40
0.2086876512007814
 50
89.6264008271713664
 51
105.608577736024202
  0
LINE
  5
3D354
  8
0
 10
4912.3081563860296228
 20
29.9857108775708987
 30
0.0
 11
4913.331778433231193
 21
29.9857108775708987
 31
0.0
  0
ARC
  5
3D355
  8
0
 10
4913.3762014934191029
 20
29.9203237208832995
 30
0.0
 40
0.0591615319012054
 50
22.1706028814693212
 51
77.2189944468375558
  0
ARC
  5
3D356
  8
0
 10
4913.1028592599222975
 20
29.9353490265211803
 30
0.0
 40
0.328210815222266
 50
355.6429763752427107
 51
1.2745061108691
  0
ARC
  5
3D357
  8
0
 10
4913.3331391788569817
 20
29.7770276627810198
 30
0.0
 40
0.2086876512007814
 50
74.3914222639758265
 51
90.3735991728286336
  0
LINE
  5
3D358
  8
0
 10
4912.3001810882296923
 20
29.9585944073708994
 30
0.0
 11
4912.3001810882296923
 21
29.920869361770901
 31
0.0
  0
ARC
  5
3D359
  8
0
 10
4912.3107692442799816
 20
29.9225325033789105
 30
0.0
 40
0.0107179796853427
 50
188.9268327762613922
 51
244.0886427085007142
  0
LINE
  5
3D35A
  8
0
 10
4912.3161319918308436
 20
29.9587852806708987
 30
0.0
 11
4912.3161319918308436
 21
29.920869361770901
 31
0.0
  0
ARC
  5
3D35B
  8
0
 10
4912.3055499328029327
 20
29.9225281711646289
 30
0.0
 40
0.01071128479096
 50
295.8906664724092934
 51
351.0909992443670831
  0
LINE
  5
3D35C
  8
0
 10
4912.3060857005311846
 20
29.9587852806708987
 30
0.0
 11
4912.3060857005311846
 21
29.8478923715709001
 31
0.0
  0
LINE
  5
3D35D
  8
0
 10
4912.3102270714298356
 20
29.8478802689709006
 30
0.0
 11
4912.3102270714298356
 21
29.9587852806708987
 31
0.0
  0
LINE
  5
3D35E
  8
0
 10
4912.3161317071308076
 20
29.9100300450498509
 30
0.0
 11
4912.316132171229583
 21
29.8529295184708907
 31
0.0
  0
LINE
  5
3D35F
  8
0
 10
4912.3102270714298356
 20
29.8478802689709006
 30
0.0
 11
4912.3060857005311846
 21
29.8478802689709006
 31
0.0
  0
LINE
  5
3D360
  8
0
 10
4912.3001810882296923
 20
29.9100301155708905
 30
0.0
 11
4912.3001810882296923
 21
29.8530853916708914
 31
0.0
  0
ARC
  5
3D361
  8
0
 10
4912.3058894075438729
 20
29.8536092098823787
 30
0.0
 40
0.0057323027575087
 50
185.2430063170683923
 51
271.9623804444927941
  0
ARC
  5
3D362
  8
0
 10
4912.3105717164553425
 20
29.8534563265792308
 30
0.0
 40
0.0055866983670319
 50
266.4631611550574917
 51
354.6524296565490886
  0
LINE
  5
3D363
  8
0
 10
4912.3854829254805736
 20
29.9585944073708994
 30
0.0
 11
4912.3854829254805736
 21
29.920869361770901
 31
0.0
  0
ARC
  5
3D364
  8
0
 10
4912.396071081530863
 20
29.9225325033789105
 30
0.0
 40
0.0107179796853427
 50
188.9268327762613922
 51
244.0886427085007142
  0
LINE
  5
3D365
  8
0
 10
4912.4014338290808155
 20
29.9587852806708987
 30
0.0
 11
4912.4014338290808155
 21
29.920869361770901
 31
0.0
  0
ARC
  5
3D366
  8
0
 10
4912.3908517700519951
 20
29.9225281711646289
 30
0.0
 40
0.01071128479096
 50
295.8906664724092934
 51
351.0909992443670831
  0
LINE
  5
3D367
  8
0
 10
4912.3913875377802469
 20
29.9587852806708987
 30
0.0
 11
4912.3913875377802469
 21
29.8478923715709001
 31
0.0
  0
LINE
  5
3D368
  8
0
 10
4912.395528908680717
 20
29.8478802689709006
 30
0.0
 11
4912.395528908680717
 21
29.9587852806708987
 31
0.0
  0
LINE
  5
3D369
  8
0
 10
4912.4014335443807795
 20
29.9100301075454489
 30
0.0
 11
4912.4014340084795549
 21
29.8529295184708907
 31
0.0
  0
LINE
  5
3D36A
  8
0
 10
4912.395528908680717
 20
29.8478802689709006
 30
0.0
 11
4912.3913875377802469
 21
29.8478802689709006
 31
0.0
  0
LINE
  5
3D36B
  8
0
 10
4912.3854829254805736
 20
29.9100301155708905
 30
0.0
 11
4912.3854829254805736
 21
29.8530853916708914
 31
0.0
  0
ARC
  5
3D36C
  8
0
 10
4912.3911912447929353
 20
29.8536092098823787
 30
0.0
 40
0.0057323027575087
 50
185.2430063170683923
 51
271.9623804444927941
  0
ARC
  5
3D36D
  8
0
 10
4912.3958735537044049
 20
29.8534563265792308
 30
0.0
 40
0.0055866983670319
 50
266.4631611550574917
 51
354.6524296565490886
  0
LINE
  5
3D36E
  8
0
 10
4912.4707847627796582
 20
29.9585944073708994
 30
0.0
 11
4912.4707847627796582
 21
29.920869361770901
 31
0.0
  0
ARC
  5
3D36F
  8
0
 10
4912.4813729188299476
 20
29.9225325033789105
 30
0.0
 40
0.0107179796853427
 50
188.9268327762613922
 51
244.0886427085007142
  0
LINE
  5
3D370
  8
0
 10
4912.4867356663799001
 20
29.9587852806708987
 30
0.0
 11
4912.4867356663799001
 21
29.920869361770901
 31
0.0
  0
ARC
  5
3D371
  8
0
 10
4912.4761536073528987
 20
29.9225281711646289
 30
0.0
 40
0.01071128479096
 50
295.8906664724092934
 51
351.0909992443670831
  0
LINE
  5
3D372
  8
0
 10
4912.476689375080241
 20
29.9587852806708987
 30
0.0
 11
4912.476689375080241
 21
29.8478923715709001
 31
0.0
  0
LINE
  5
3D373
  8
0
 10
4912.4808307459798016
 20
29.8478802689709006
 30
0.0
 11
4912.4808307459798016
 21
29.9587852806708987
 31
0.0
  0
LINE
  5
3D374
  8
0
 10
4912.4867353816807736
 20
29.9100301155708905
 30
0.0
 11
4912.486735845781368
 21
29.8529295184708907
 31
0.0
  0
LINE
  5
3D375
  8
0
 10
4912.4808307459798016
 20
29.8478802689709006
 30
0.0
 11
4912.476689375080241
 21
29.8478802689709006
 31
0.0
  0
LINE
  5
3D376
  8
0
 10
4912.4707847627796582
 20
29.9100301155708905
 30
0.0
 11
4912.4707847627796582
 21
29.8530853916708914
 31
0.0
  0
ARC
  5
3D377
  8
0
 10
4912.4764930820938389
 20
29.8536092098823787
 30
0.0
 40
0.0057323027575087
 50
185.2430063170683923
 51
271.9623804444927941
  0
ARC
  5
3D378
  8
0
 10
4912.481175391004399
 20
29.8534563265792308
 30
0.0
 40
0.0055866983670319
 50
266.4631611550574917
 51
354.6524296565490886
  0
LINE
  5
3D379
  8
0
 10
4912.5560866000296301
 20
29.9585944073708994
 30
0.0
 11
4912.5560866000296301
 21
29.920869361770901
 31
0.0
  0
ARC
  5
3D37A
  8
0
 10
4912.5666747560799195
 20
29.9225325033789105
 30
0.0
 40
0.0107179796853427
 50
188.9268327762613922
 51
244.0886427085007142
  0
LINE
  5
3D37B
  8
0
 10
4912.5720375036307814
 20
29.9587852806708987
 30
0.0
 11
4912.5720375036307814
 21
29.920869361770901
 31
0.0
  0
ARC
  5
3D37C
  8
0
 10
4912.5614554446028706
 20
29.9225281711646289
 30
0.0
 40
0.01071128479096
 50
295.8906664724092934
 51
351.0909992443670831
  0
LINE
  5
3D37D
  8
0
 10
4912.5619912123311224
 20
29.9587852806708987
 30
0.0
 11
4912.5619912123311224
 21
29.8478923715709001
 31
0.0
  0
LINE
  5
3D37E
  8
0
 10
4912.5661325832306829
 20
29.8478802689709006
 30
0.0
 11
4912.5661325832306829
 21
29.9587852806708987
 31
0.0
  0
LINE
  5
3D37F
  8
0
 10
4912.5720372774339921
 20
29.9028321421267584
 30
0.0
 11
4912.5720376830304303
 21
29.8529295184708907
 31
0.0
  0
LINE
  5
3D380
  8
0
 10
4912.5661325832306829
 20
29.8478802689709006
 30
0.0
 11
4912.5619912123311224
 21
29.8478802689709006
 31
0.0
  0
LINE
  5
3D381
  8
0
 10
4912.5560866000296301
 20
29.9028646154997801
 30
0.0
 11
4912.5560866000296301
 21
29.8530853916708914
 31
0.0
  0
ARC
  5
3D382
  8
0
 10
4912.5617949193438108
 20
29.8536092098823787
 30
0.0
 40
0.0057323027575087
 50
185.2430063170683923
 51
271.9623804444927941
  0
ARC
  5
3D383
  8
0
 10
4912.5664772282552804
 20
29.8534563265792308
 30
0.0
 40
0.0055866983670319
 50
266.4631611550574917
 51
354.6524296565490886
  0
LINE
  5
3D384
  8
0
 10
4912.6413884372814209
 20
29.9585944073708994
 30
0.0
 11
4912.6413884372814209
 21
29.920869361770901
 31
0.0
  0
ARC
  5
3D385
  8
0
 10
4912.6519765933298913
 20
29.9225325033789105
 30
0.0
 40
0.0107179796853427
 50
188.9268327762613922
 51
244.0886427085007142
  0
LINE
  5
3D386
  8
0
 10
4912.6573393408807533
 20
29.9587852806708987
 30
0.0
 11
4912.6573393408807533
 21
29.920869361770901
 31
0.0
  0
ARC
  5
3D387
  8
0
 10
4912.6467572818519329
 20
29.9225281711646289
 30
0.0
 40
0.01071128479096
 50
295.8906664724092934
 51
351.0909992443670831
  0
LINE
  5
3D388
  8
0
 10
4912.6472930495801847
 20
29.9587852806708987
 30
0.0
 11
4912.6472930495801847
 21
29.8478923715709001
 31
0.0
  0
LINE
  5
3D389
  8
0
 10
4912.6514344204806548
 20
29.8478802689709006
 30
0.0
 11
4912.6514344204806548
 21
29.9587852806708987
 31
0.0
  0
LINE
  5
3D38A
  8
0
 10
4912.6573390561807173
 20
29.9100301155708905
 30
0.0
 11
4912.6573395202804022
 21
29.8529295184708907
 31
0.0
  0
LINE
  5
3D38B
  8
0
 10
4912.6514344204806548
 20
29.8478802689709006
 30
0.0
 11
4912.6472930495801847
 21
29.8478802689709006
 31
0.0
  0
LINE
  5
3D38C
  8
0
 10
4912.6413884372814209
 20
29.9100301155708905
 30
0.0
 11
4912.6413884372814209
 21
29.8530853916708914
 31
0.0
  0
ARC
  5
3D38D
  8
0
 10
4912.6470967565928731
 20
29.8536092098823787
 30
0.0
 40
0.0057323027575087
 50
185.2430063170683923
 51
271.9623804444927941
  0
ARC
  5
3D38E
  8
0
 10
4912.6517790655043427
 20
29.8534563265792308
 30
0.0
 40
0.0055866983670319
 50
266.4631611550574917
 51
354.6524296565490886
  0
LINE
  5
3D38F
  8
0
 10
4912.726690274581415
 20
29.9585944073708994
 30
0.0
 11
4912.726690274581415
 21
29.920869361770901
 31
0.0
  0
ARC
  5
3D390
  8
0
 10
4912.7372784306298854
 20
29.9225325033789105
 30
0.0
 40
0.0107179796853427
 50
188.9268327762613922
 51
244.0886427085007142
  0
LINE
  5
3D391
  8
0
 10
4912.7426411781807474
 20
29.9587852806708987
 30
0.0
 11
4912.7426411781807474
 21
29.920869361770901
 31
0.0
  0
ARC
  5
3D392
  8
0
 10
4912.7320591191528365
 20
29.9225281711646289
 30
0.0
 40
0.01071128479096
 50
295.8906664724092934
 51
351.0909992443670831
  0
LINE
  5
3D393
  8
0
 10
4912.7325948868801788
 20
29.9587852806708987
 30
0.0
 11
4912.7325948868801788
 21
29.8478923715709001
 31
0.0
  0
LINE
  5
3D394
  8
0
 10
4912.7367362577797394
 20
29.8478802689709006
 30
0.0
 11
4912.7367362577797394
 21
29.9587852806708987
 31
0.0
  0
LINE
  5
3D395
  8
0
 10
4912.7426408934807114
 20
29.9100301155708905
 30
0.0
 11
4912.7426413575803963
 21
29.8529295184708907
 31
0.0
  0
LINE
  5
3D396
  8
0
 10
4912.7367362577797394
 20
29.8478802689709006
 30
0.0
 11
4912.7325948868801788
 21
29.8478802689709006
 31
0.0
  0
LINE
  5
3D397
  8
0
 10
4912.726690274581415
 20
29.9100301155708905
 30
0.0
 11
4912.726690274581415
 21
29.8530853916708914
 31
0.0
  0
ARC
  5
3D398
  8
0
 10
4912.7323985938928672
 20
29.8536092098823787
 30
0.0
 40
0.0057323027575087
 50
185.2430063170683923
 51
271.9623804444927941
  0
ARC
  5
3D399
  8
0
 10
4912.7370809028043368
 20
29.8534563265792308
 30
0.0
 40
0.0055866983670319
 50
266.4631611550574917
 51
354.6524296565490886
  0
LINE
  5
3D39A
  8
0
 10
4912.8119921118814091
 20
29.9585944073708994
 30
0.0
 11
4912.8119921118814091
 21
29.920869361770901
 31
0.0
  0
ARC
  5
3D39B
  8
0
 10
4912.8225802679298795
 20
29.9225325033789105
 30
0.0
 40
0.0107179796853427
 50
188.9268327762613922
 51
244.0886427085007142
  0
LINE
  5
3D39C
  8
0
 10
4912.827943015479832
 20
29.9587852806708987
 30
0.0
 11
4912.827943015479832
 21
29.920869361770901
 31
0.0
  0
ARC
  5
3D39D
  8
0
 10
4912.8173609564519211
 20
29.9225281711646289
 30
0.0
 40
0.01071128479096
 50
295.8906664724092934
 51
351.0909992443670831
  0
LINE
  5
3D39E
  8
0
 10
4912.8178967241801729
 20
29.9587852806708987
 30
0.0
 11
4912.8178967241801729
 21
29.8478923715709001
 31
0.0
  0
LINE
  5
3D39F
  8
0
 10
4912.822038095080643
 20
29.8478802689709006
 30
0.0
 11
4912.822038095080643
 21
29.9587852806708987
 31
0.0
  0
LINE
  5
3D3A0
  8
0
 10
4912.8279427307807055
 20
29.9100301155708905
 30
0.0
 11
4912.8279431948803904
 21
29.8529295184708907
 31
0.0
  0
LINE
  5
3D3A1
  8
0
 10
4912.822038095080643
 20
29.8478802689709006
 30
0.0
 11
4912.8178967241801729
 21
29.8478802689709006
 31
0.0
  0
LINE
  5
3D3A2
  8
0
 10
4912.8119921118814091
 20
29.9100301155708905
 30
0.0
 11
4912.8119921118814091
 21
29.8530853916708914
 31
0.0
  0
ARC
  5
3D3A3
  8
0
 10
4912.8177004311937708
 20
29.8536092098823787
 30
0.0
 40
0.0057323027575087
 50
185.2430063170683923
 51
271.9623804444927941
  0
ARC
  5
3D3A4
  8
0
 10
4912.8223827401043309
 20
29.8534563265792308
 30
0.0
 40
0.0055866983670319
 50
266.4631611550574917
 51
354.6524296565490886
  0
LINE
  5
3D3A5
  8
0
 10
4912.8972939490813587
 20
29.9585944073708994
 30
0.0
 11
4912.8972939490813587
 21
29.920869361770901
 31
0.0
  0
ARC
  5
3D3A6
  8
0
 10
4912.9078821051298291
 20
29.9225325033789105
 30
0.0
 40
0.0107179796853427
 50
188.9268327762613922
 51
244.0886427085007142
  0
LINE
  5
3D3A7
  8
0
 10
4912.9132448526806911
 20
29.9587852806708987
 30
0.0
 11
4912.9132448526806911
 21
29.920869361770901
 31
0.0
  0
ARC
  5
3D3A8
  8
0
 10
4912.9026627936518707
 20
29.9225281711646289
 30
0.0
 40
0.01071128479096
 50
295.8906664724092934
 51
351.0909992443670831
  0
LINE
  5
3D3A9
  8
0
 10
4912.9031985613801226
 20
29.9587852806708987
 30
0.0
 11
4912.9031985613801226
 21
29.8478802689709006
 31
0.0
  0
LINE
  5
3D3AA
  8
0
 10
4912.9073399322805926
 20
29.8478802689709006
 30
0.0
 11
4912.9073399322805926
 21
29.9587852806708987
 31
0.0
  0
LINE
  5
3D3AB
  8
0
 10
4912.9132445679806551
 20
29.9100301155708905
 30
0.0
 11
4912.91324503208034
 21
29.8529295184708907
 31
0.0
  0
LINE
  5
3D3AC
  8
0
 10
4912.9073399322805926
 20
29.8478802689709006
 30
0.0
 11
4912.9031985613801226
 21
29.8478802689709006
 31
0.0
  0
LINE
  5
3D3AD
  8
0
 10
4912.8972939490813587
 20
29.9100301155708905
 30
0.0
 11
4912.8972939490813587
 21
29.8530853916708914
 31
0.0
  0
ARC
  5
3D3AE
  8
0
 10
4912.9030022683928109
 20
29.8536092098823787
 30
0.0
 40
0.0057323027575087
 50
185.2430063170683923
 51
271.9623804444927941
  0
ARC
  5
3D3AF
  8
0
 10
4912.9078601648070617
 20
29.8532494900985412
 30
0.0
 40
0.0053943653379089
 50
264.4657943822406878
 51
356.5994532912239947
  0
LINE
  5
3D3B0
  8
0
 10
4912.9825957863813528
 20
29.9585944073708994
 30
0.0
 11
4912.9825957863813528
 21
29.920869361770901
 31
0.0
  0
ARC
  5
3D3B1
  8
0
 10
4912.9931839424298232
 20
29.9225325033789105
 30
0.0
 40
0.0107179796853427
 50
188.9268327762613922
 51
244.0886427085007142
  0
LINE
  5
3D3B2
  8
0
 10
4912.9985466899806852
 20
29.9587852806708987
 30
0.0
 11
4912.9985466899806852
 21
29.920869361770901
 31
0.0
  0
ARC
  5
3D3B3
  8
0
 10
4912.9879646309527743
 20
29.9225281711646289
 30
0.0
 40
0.01071128479096
 50
295.8906664724092934
 51
351.0909992443670831
  0
LINE
  5
3D3B4
  8
0
 10
4912.9885003986801166
 20
29.9587852806708987
 30
0.0
 11
4912.9885003986801166
 21
29.8478802689709006
 31
0.0
  0
LINE
  5
3D3B5
  8
0
 10
4912.9926417695796772
 20
29.8478802689709006
 30
0.0
 11
4912.9926417695796772
 21
29.9587852806708987
 31
0.0
  0
LINE
  5
3D3B6
  8
0
 10
4912.9985464052815587
 20
29.9100299183163401
 30
0.0
 11
4912.9985487977801313
 21
29.8529356615708892
 31
0.0
  0
LINE
  5
3D3B7
  8
0
 10
4912.9926417695796772
 20
29.8478802689709006
 30
0.0
 11
4912.9885003986801166
 21
29.8478802689709006
 31
0.0
  0
LINE
  5
3D3B8
  8
0
 10
4912.9825957863813528
 20
29.9100301155708905
 30
0.0
 11
4912.9825957863813528
 21
29.8530853916708914
 31
0.0
  0
ARC
  5
3D3B9
  8
0
 10
4912.988304105692805
 20
29.8536092098823787
 30
0.0
 40
0.0057323027575087
 50
185.2430063170683923
 51
271.9623804444927941
  0
ARC
  5
3D3BA
  8
0
 10
4912.9929864146042746
 20
29.8534563265792308
 30
0.0
 40
0.0055866983670319
 50
266.4631611550574917
 51
354.6524296565490886
  0
LINE
  5
3D3BB
  8
0
 10
4913.0678976236813469
 20
29.9585944073708994
 30
0.0
 11
4913.0678976236813469
 21
29.9258655246518614
 31
0.0
  0
LINE
  5
3D3BC
  8
0
 10
4913.0838485272806793
 20
29.9587852806708987
 30
0.0
 11
4913.0838485272806793
 21
29.9258513057626914
 31
0.0
  0
LINE
  5
3D3BD
  8
0
 10
4913.0738022359801107
 20
29.9587852806708987
 30
0.0
 11
4913.0738022359801107
 21
29.8478802689709006
 31
0.0
  0
LINE
  5
3D3BE
  8
0
 10
4913.0779436068796713
 20
29.8478802689709006
 30
0.0
 11
4913.0779436068796713
 21
29.9587852806708987
 31
0.0
  0
LINE
  5
3D3BF
  8
0
 10
4913.0838483008501498
 20
29.9028608834484295
 30
0.0
 11
4913.0838487066803282
 21
29.8529295184708907
 31
0.0
  0
LINE
  5
3D3C0
  8
0
 10
4913.0779436068796713
 20
29.8478802689709006
 30
0.0
 11
4913.0738022359801107
 21
29.8478802689709006
 31
0.0
  0
LINE
  5
3D3C1
  8
0
 10
4913.0678976236813469
 20
29.9028583249411497
 30
0.0
 11
4913.0678976236813469
 21
29.8530853916708914
 31
0.0
  0
ARC
  5
3D3C2
  8
0
 10
4913.0736059429937086
 20
29.8536092098823787
 30
0.0
 40
0.0057323027575087
 50
185.2430063170683923
 51
271.9623804444927941
  0
ARC
  5
3D3C3
  8
0
 10
4913.078609624110868
 20
29.8530789948134192
 30
0.0
 40
0.0052412144907637
 50
262.6995110650732954
 51
358.3657366084505043
  0
LINE
  5
3D3C4
  8
0
 10
4913.1531994608812965
 20
29.9585944073708994
 30
0.0
 11
4913.1531994608812965
 21
29.920869361770901
 31
0.0
  0
ARC
  5
3D3C5
  8
0
 10
4913.163787616929767
 20
29.9225325033789105
 30
0.0
 40
0.0107179796853427
 50
188.9268327762613922
 51
244.0886427085007142
  0
LINE
  5
3D3C6
  8
0
 10
4913.1691503644806289
 20
29.9587852806708987
 30
0.0
 11
4913.1691503644806289
 21
29.920869361770901
 31
0.0
  0
ARC
  5
3D3C7
  8
0
 10
4913.1585683054527181
 20
29.9225281711646289
 30
0.0
 40
0.01071128479096
 50
295.8906664724092934
 51
351.0909992443670831
  0
LINE
  5
3D3C8
  8
0
 10
4913.1591040731800604
 20
29.9587852806708987
 30
0.0
 11
4913.1591040731800604
 21
29.8478802689709006
 31
0.0
  0
LINE
  5
3D3C9
  8
0
 10
4913.1632454440814399
 20
29.8478802689709006
 30
0.0
 11
4913.1632454440814399
 21
29.9587852806708987
 31
0.0
  0
LINE
  5
3D3CA
  8
0
 10
4913.1691500797805929
 20
29.9100301155708905
 30
0.0
 11
4913.1691505438802778
 21
29.8529295184708907
 31
0.0
  0
LINE
  5
3D3CB
  8
0
 10
4913.1632454440814399
 20
29.8478802689709006
 30
0.0
 11
4913.1591040731800604
 21
29.8478802689709006
 31
0.0
  0
LINE
  5
3D3CC
  8
0
 10
4913.1531994608812965
 20
29.9100301155708905
 30
0.0
 11
4913.1531994608812965
 21
29.8530853916708914
 31
0.0
  0
ARC
  5
3D3CD
  8
0
 10
4913.1589077801936583
 20
29.8536092098823787
 30
0.0
 40
0.0057323027575087
 50
185.2430063170683923
 51
271.9623804444927941
  0
ARC
  5
3D3CE
  8
0
 10
4913.1635909627439105
 20
29.853453818048191
 30
0.0
 40
0.0055842486033206
 50
266.4526266817964029
 51
354.6126209917027836
  0
LINE
  5
3D3CF
  8
0
 10
4913.2385012981812906
 20
29.9585944073708994
 30
0.0
 11
4913.2385012981812906
 21
29.920869361770901
 31
0.0
  0
ARC
  5
3D3D0
  8
0
 10
4913.249089454229761
 20
29.9225325033789105
 30
0.0
 40
0.0107179796853427
 50
188.9268327762613922
 51
244.0886427085007142
  0
LINE
  5
3D3D1
  8
0
 10
4913.254452201780623
 20
29.9587852806708987
 30
0.0
 11
4913.254452201780623
 21
29.920869361770901
 31
0.0
  0
ARC
  5
3D3D2
  8
0
 10
4913.2438701427527121
 20
29.9225281711646289
 30
0.0
 40
0.01071128479096
 50
295.8906664724092934
 51
351.0909992443670831
  0
LINE
  5
3D3D3
  8
0
 10
4913.2444059104800544
 20
29.9587852806708987
 30
0.0
 11
4913.2444059104800544
 21
29.8478802689709006
 31
0.0
  0
LINE
  5
3D3D4
  8
0
 10
4913.248547281379615
 20
29.8478802689709006
 30
0.0
 11
4913.248547281379615
 21
29.9587852806708987
 31
0.0
  0
LINE
  5
3D3D5
  8
0
 10
4913.2544519170796775
 20
29.9100301155708905
 30
0.0
 11
4913.2544523811802719
 21
29.8529295184708907
 31
0.0
  0
LINE
  5
3D3D6
  8
0
 10
4913.248547281379615
 20
29.8478802689709006
 30
0.0
 11
4913.2444059104800544
 21
29.8478802689709006
 31
0.0
  0
LINE
  5
3D3D7
  8
0
 10
4913.2385012981812906
 20
29.9100301155708905
 30
0.0
 11
4913.2385012981812906
 21
29.8530853916708914
 31
0.0
  0
ARC
  5
3D3D8
  8
0
 10
4913.2442096174936523
 20
29.8536092098823787
 30
0.0
 40
0.0057323027575087
 50
185.2430063170683923
 51
271.9623804444927941
  0
ARC
  5
3D3D9
  8
0
 10
4913.2489278101784294
 20
29.8534128736787103
 30
0.0
 40
0.0055456755240969
 50
266.0654316406220801
 51
354.9998160329076882
  0
LINE
  5
3D3DA
  8
0
 10
4913.323803135430353
 20
29.9585944073708994
 30
0.0
 11
4913.323803135430353
 21
29.920869361770901
 31
0.0
  0
ARC
  5
3D3DB
  8
0
 10
4913.3343912914788234
 20
29.9225325033789105
 30
0.0
 40
0.0107179796853427
 50
188.9268327762613922
 51
244.0886427085007142
  0
LINE
  5
3D3DC
  8
0
 10
4913.3397540390296854
 20
29.9587852806708987
 30
0.0
 11
4913.3397540390296854
 21
29.920869361770901
 31
0.0
  0
ARC
  5
3D3DD
  8
0
 10
4913.3291719800017745
 20
29.9225281711646289
 30
0.0
 40
0.01071128479096
 50
295.8906664724092934
 51
351.0909992443670831
  0
LINE
  5
3D3DE
  8
0
 10
4913.3297077477300263
 20
29.9587852806708987
 30
0.0
 11
4913.3297077477300263
 21
29.8478802689709006
 31
0.0
  0
LINE
  5
3D3DF
  8
0
 10
4913.3338491186314059
 20
29.8478802689709006
 30
0.0
 11
4913.3338491186314059
 21
29.9587852806708987
 31
0.0
  0
LINE
  5
3D3E0
  8
0
 10
4913.3397537543305589
 20
29.9100301155708905
 30
0.0
 11
4913.3397542184302438
 21
29.8529295184708907
 31
0.0
  0
LINE
  5
3D3E1
  8
0
 10
4913.3338491186314059
 20
29.8478802689709006
 30
0.0
 11
4913.3297077477300263
 21
29.8478802689709006
 31
0.0
  0
LINE
  5
3D3E2
  8
0
 10
4913.323803135430353
 20
29.9100301155708905
 30
0.0
 11
4913.323803135430353
 21
29.8530853916708914
 31
0.0
  0
ARC
  5
3D3E3
  8
0
 10
4913.3295114547436242
 20
29.8536092098823787
 30
0.0
 40
0.0057323027575087
 50
185.2430063170683923
 51
271.9623804444927941
  0
ARC
  5
3D3E4
  8
0
 10
4913.3343004410171488
 20
29.8533300805405588
 30
0.0
 40
0.0054684676136759
 50
265.2658923094664942
 51
355.7993553640322943
  0
ARC
  5
3D3E5
  8
0
 10
4913.0728301335657306
 20
29.9265251055731909
 30
0.0
 40
0.0049764144489413
 50
187.6164746978402036
 51
266.5412820983818847
  0
ARC
  5
3D3E6
  8
0
 10
4913.0711258226356222
 20
29.9086757586590615
 30
0.0
 40
0.0192690656772656
 50
99.7524739581127591
 51
133.3770610631233922
  0
ARC
  5
3D3E7
  8
0
 10
4913.0805431877952287
 20
29.9085238924426697
 30
0.0
 40
0.0194322782530655
 50
46.7658095940522713
 51
80.0993516474075449
  0
ARC
  5
3D3E8
  8
0
 10
4913.0282146448853382
 20
29.9224915364635891
 30
0.0
 40
0.0296778574434394
 50
341.1278072470814777
 51
0.3666924411816011
  0
ARC
  5
3D3E9
  8
0
 10
4913.1228745562575568
 20
29.9223845632143792
 30
0.0
 40
0.0290221267304814
 50
179.4138271008451966
 51
199.091673210829498
  0
LINE
  5
3D3EA
  8
0
 10
4912.2195737088295573
 20
29.9100301155708905
 30
0.0
 11
4912.3031329446303062
 21
29.9100301155708905
 31
0.0
  0
ARC
  5
3D3EB
  8
0
 10
4912.3028892930096845
 20
29.9168431593906412
 30
0.0
 40
0.0068176067153903
 50
272.0488168632232941
 51
297.9594128250691938
  0
LINE
  5
3D3EC
  8
0
 10
4912.2195737088295573
 20
29.9128919895708982
 30
0.0
 11
4912.3060857005311846
 21
29.9128919895708982
 31
0.0
  0
LINE
  5
3D3ED
  8
0
 10
4912.3102270714298356
 20
29.9128919895708982
 30
0.0
 11
4912.3913875378302691
 21
29.9128919895708982
 31
0.0
  0
LINE
  5
3D3EE
  8
0
 10
4912.3955289087307392
 20
29.9128919895708982
 30
0.0
 11
4912.4766893751311727
 21
29.9128919895708982
 31
0.0
  0
LINE
  5
3D3EF
  8
0
 10
4912.4808307460298238
 20
29.9128919895708982
 30
0.0
 11
4912.5444860699308265
 21
29.9128919895708982
 31
0.0
  0
LINE
  5
3D3F0
  8
0
 10
4912.2195737088295573
 20
29.9108213041708986
 30
0.0
 11
4912.3060857005311846
 21
29.9108213041708986
 31
0.0
  0
LINE
  5
3D3F1
  8
0
 10
4912.3102270714298356
 20
29.9108213041708986
 30
0.0
 11
4912.3913875378302691
 21
29.9108213041708986
 31
0.0
  0
LINE
  5
3D3F2
  8
0
 10
4912.3955289087307392
 20
29.9108213041708986
 30
0.0
 11
4912.4766893751311727
 21
29.9108213041708986
 31
0.0
  0
LINE
  5
3D3F3
  8
0
 10
4912.4808307460298238
 20
29.9108213041708986
 30
0.0
 11
4912.5444860699308265
 21
29.9108213041708986
 31
0.0
  0
LINE
  5
3D3F4
  8
0
 10
4912.5836377257301137
 20
29.9108213041708986
 30
0.0
 11
4912.6472930495801847
 21
29.9108213041708986
 31
0.0
  0
LINE
  5
3D3F5
  8
0
 10
4912.6514344204806548
 20
29.9108213041708986
 30
0.0
 11
4912.7325948868801788
 21
29.9108213041708986
 31
0.0
  0
LINE
  5
3D3F6
  8
0
 10
4912.7367362577797394
 20
29.9108213041708986
 30
0.0
 11
4912.8178967241801729
 21
29.9108213041708986
 31
0.0
  0
LINE
  5
3D3F7
  8
0
 10
4912.822038095080643
 20
29.9108213041708986
 30
0.0
 11
4912.9031985613801226
 21
29.9108213041708986
 31
0.0
  0
LINE
  5
3D3F8
  8
0
 10
4912.9073399322805926
 20
29.9108213041708986
 30
0.0
 11
4912.9885003986801166
 21
29.9108213041708986
 31
0.0
  0
LINE
  5
3D3F9
  8
0
 10
4912.9926417695796772
 20
29.9108213041708986
 30
0.0
 11
4913.0562970935307021
 21
29.9108213041708986
 31
0.0
  0
LINE
  5
3D3FA
  8
0
 10
4912.2211422349300847
 20
29.9226814731709005
 30
0.0
 11
4912.3001810882296923
 21
29.9226814731709005
 31
0.0
  0
LINE
  5
3D3FB
  8
0
 10
4912.3161319918308436
 20
29.9226814731709005
 30
0.0
 11
4912.3854829254805736
 21
29.9226814731708899
 31
0.0
  0
LINE
  5
3D3FC
  8
0
 10
4912.4014338290808155
 20
29.9226814731709005
 30
0.0
 11
4912.4707847627796582
 21
29.9226814731709005
 31
0.0
  0
LINE
  5
3D3FD
  8
0
 10
4912.4867356663799001
 20
29.9226814731709005
 30
0.0
 11
4912.5460808709312914
 21
29.9226814731709005
 31
0.0
  0
LINE
  5
3D3FE
  8
0
 10
4912.2205859833302384
 20
29.920869361770901
 30
0.0
 11
4912.3001810882296923
 21
29.920869361770901
 31
0.0
  0
LINE
  5
3D3FF
  8
0
 10
4912.3161319918308436
 20
29.920869361770901
 30
0.0
 11
4912.3854829254296419
 21
29.920869361770901
 31
0.0
  0
LINE
  5
3D400
  8
0
 10
4912.4014338290808155
 20
29.920869361770901
 30
0.0
 11
4912.4707847627305455
 21
29.920869361770901
 31
0.0
  0
LINE
  5
3D401
  8
0
 10
4912.4867356663799001
 20
29.9208693617708903
 30
0.0
 11
4912.546037111993428
 21
29.9208693617708903
 31
0.0
  0
ARC
  5
3D402
  8
0
 10
4912.3134541700919726
 20
29.9169589070824813
 30
0.0
 40
0.0069342869337568
 50
242.2649935795942895
 51
267.7340742573477996
  0
LINE
  5
3D403
  8
0
 10
4912.3131800053297411
 20
29.9100300421708987
 30
0.0
 11
4912.3884347819312097
 21
29.9100301155708905
 31
0.0
  0
ARC
  5
3D404
  8
0
 10
4912.3884347761695608
 20
29.9159356485786994
 30
0.0
 40
0.0059055330078045
 50
270.0000558836122764
 51
299.9999451736185279
  0
ARC
  5
3D405
  8
0
 10
4912.3986795497876301
 20
29.9166735728851982
 30
0.0
 40
0.0066464718815252
 50
241.7036508235977976
 51
268.2954179168945075
  0
LINE
  5
3D406
  8
0
 10
4912.3984816646307081
 20
29.9100301155708905
 30
0.0
 11
4912.4737367037314471
 21
29.9100299109708914
 31
0.0
  0
ARC
  5
3D407
  8
0
 10
4912.4737367197822095
 20
29.9159337251622404
 30
0.0
 40
0.0059038141913673
 50
269.9998442267992118
 51
300.0083854487280064
  0
ARC
  5
3D408
  8
0
 10
4912.4840539267370332
 20
29.9169431216469306
 30
0.0
 40
0.0069184928329912
 50
242.2328740166022101
 51
267.7591842209637889
  0
LINE
  5
3D409
  8
0
 10
4912.483783416130791
 20
29.9100299192709009
 30
0.0
 11
4912.5448242577622295
 21
29.9100299192709009
 31
0.0
  0
ARC
  5
3D40A
  8
0
 10
4912.5593147990321086
 20
29.9086757586543612
 30
0.0
 40
0.0192690656772656
 50
99.7524739581127591
 51
133.3770610631233922
  0
ARC
  5
3D40B
  8
0
 10
4912.5687321641908056
 20
29.9085238924379802
 30
0.0
 40
0.0194322782530655
 50
46.7658095940522713
 51
80.0993516474075449
  0
ARC
  5
3D40C
  8
0
 10
4912.5164036212818246
 20
29.9224915364588888
 30
0.0
 40
0.0296778574434394
 50
341.1278072470814777
 51
0.3666924411816011
  0
ARC
  5
3D40D
  8
0
 10
4912.6114706097032467
 20
29.9224508799619393
 30
0.0
 40
0.0294285884134498
 50
179.5510436254982096
 51
198.9544566450576042
  0
ARC
  5
3D40E
  8
0
 10
4912.5653697381421807
 20
29.9311861076288785
 30
0.0
 40
0.029127365825137
 50
271.5007468391972907
 51
297.8063670228343085
  0
ARC
  5
3D40F
  8
0
 10
4912.574363328911204
 20
29.9141328385990199
 30
0.0
 40
0.0098478777739682
 50
297.8063670228316937
 51
340.3502861171946279
  0
ARC
  5
3D410
  8
0
 10
4912.5551820896298523
 20
29.9149241537190598
 30
0.0
 40
0.0114559247486275
 50
200.98614300610231
 51
260.275121066594977
  0
ARC
  5
3D411
  8
0
 10
4912.5635901442983595
 20
29.9362320800486792
 30
0.0
 40
0.0342007436614087
 50
252.3966882549161141
 51
267.3203664854503927
  0
ARC
  5
3D412
  8
0
 10
4912.654585019337901
 20
29.9166736751852014
 30
0.0
 40
0.0066464718815252
 50
241.7036508235977976
 51
268.2954179168945075
  0
LINE
  5
3D413
  8
0
 10
4912.6543871341800696
 20
29.9100302178709008
 30
0.0
 11
4912.7296421732808085
 21
29.9100300132709016
 31
0.0
  0
ARC
  5
3D414
  8
0
 10
4912.729642189331571
 20
29.9159338274622399
 30
0.0
 40
0.0059038141913673
 50
269.9998442267992118
 51
300.0083854487280064
  0
LINE
  5
3D415
  8
0
 10
4912.5833158725354224
 20
29.9100300762013411
 30
0.0
 11
4912.6440901786218092
 21
29.9100299109708914
 31
0.0
  0
ARC
  5
3D416
  8
0
 10
4912.6441365055661663
 20
29.9167193337833197
 30
0.0
 40
0.0066895832268653
 50
269.6032100232145012
 51
298.1550750494228055
  0
ARC
  5
3D417
  8
0
 10
4912.7398868565878729
 20
29.9166736751852014
 30
0.0
 40
0.0066464718815252
 50
241.7036508235977976
 51
268.2954179168945075
  0
LINE
  5
3D418
  8
0
 10
4912.7396889714309509
 20
29.9100302178709008
 30
0.0
 11
4912.8149440105307804
 21
29.9100300132709016
 31
0.0
  0
ARC
  5
3D419
  8
0
 10
4912.8149440265824524
 20
29.9159338274622399
 30
0.0
 40
0.0059038141913673
 50
269.9998442267992118
 51
300.0083854487280064
  0
LINE
  5
3D41A
  8
0
 10
4912.5836377257301137
 20
29.9128919895708982
 30
0.0
 11
4912.647293049630207
 21
29.9128919895708982
 31
0.0
  0
LINE
  5
3D41B
  8
0
 10
4912.6514344205297675
 20
29.9128919895708982
 30
0.0
 11
4912.732594886930201
 21
29.9128919895708982
 31
0.0
  0
LINE
  5
3D41C
  8
0
 10
4912.7367362577797394
 20
29.9128919895459013
 30
0.0
 11
4912.8178967241801729
 21
29.9128919895958916
 31
0.0
  0
LINE
  5
3D41D
  8
0
 10
4912.5820429247296488
 20
29.9226814731709005
 30
0.0
 11
4912.6413884225148649
 21
29.9226814731709005
 31
0.0
  0
LINE
  5
3D41E
  8
0
 10
4912.6573393408807533
 20
29.9226814731709005
 30
0.0
 11
4912.726690274581415
 21
29.9226814731708899
 31
0.0
  0
LINE
  5
3D41F
  8
0
 10
4912.7426411781807474
 20
29.9226814731708899
 30
0.0
 11
4912.8119921118814091
 21
29.9226814731709005
 31
0.0
  0
LINE
  5
3D420
  8
0
 10
4912.582084548255807
 20
29.920869361770901
 30
0.0
 11
4912.6413884372295797
 21
29.9208693617708903
 31
0.0
  0
LINE
  5
3D421
  8
0
 10
4912.6573393408807533
 20
29.920869361770901
 30
0.0
 11
4912.726690274581415
 21
29.920869361770901
 31
0.0
  0
LINE
  5
3D422
  8
0
 10
4912.7426411781807474
 20
29.920869361770901
 30
0.0
 11
4912.8119921118295679
 21
29.920869361770901
 31
0.0
  0
LINE
  5
3D423
  8
0
 10
4913.4203611104303491
 20
29.9100301155708905
 30
0.0
 11
4913.3368018746296002
 21
29.9100301155708905
 31
0.0
  0
LINE
  5
3D424
  8
0
 10
4913.4203611104303491
 20
29.9128919895708982
 30
0.0
 11
4913.3338491187314503
 21
29.9128919895708982
 31
0.0
  0
LINE
  5
3D425
  8
0
 10
4913.3297077478309802
 20
29.9128919895708982
 30
0.0
 11
4913.2485472814305467
 21
29.9128919895708982
 31
0.0
  0
LINE
  5
3D426
  8
0
 10
4913.2444059105300767
 20
29.9128919895708982
 30
0.0
 11
4913.1632454441305526
 21
29.9128919895708982
 31
0.0
  0
LINE
  5
3D427
  8
0
 10
4913.1591040732300826
 20
29.9128919895708982
 30
0.0
 11
4913.0954487493308989
 21
29.9128919895708982
 31
0.0
  0
LINE
  5
3D428
  8
0
 10
4913.4203611104303491
 20
29.9108213041708986
 30
0.0
 11
4913.3338491187314503
 21
29.9108213041708986
 31
0.0
  0
LINE
  5
3D429
  8
0
 10
4913.3297077478309802
 20
29.9108213041708986
 30
0.0
 11
4913.2485472814305467
 21
29.9108213041708986
 31
0.0
  0
LINE
  5
3D42A
  8
0
 10
4913.2444059105300767
 20
29.9108213041708986
 30
0.0
 11
4913.1632454441305526
 21
29.9108213041708986
 31
0.0
  0
LINE
  5
3D42B
  8
0
 10
4913.1591040732300826
 20
29.9108213041708986
 30
0.0
 11
4913.0954487493308989
 21
29.9108213041708986
 31
0.0
  0
LINE
  5
3D42C
  8
0
 10
4913.4187925843298217
 20
29.9226814731709005
 30
0.0
 11
4913.3397540390296854
 21
29.9226814731709005
 31
0.0
  0
LINE
  5
3D42D
  8
0
 10
4913.3238031207101812
 20
29.9226814731709005
 30
0.0
 11
4913.254452201780623
 21
29.9226814731709005
 31
0.0
  0
LINE
  5
3D42E
  8
0
 10
4913.2385012834147346
 20
29.9226814731709005
 30
0.0
 11
4913.1691500564802482
 21
29.9226814731709005
 31
0.0
  0
LINE
  5
3D42F
  8
0
 10
4913.1531994461147406
 20
29.9226814731709005
 30
0.0
 11
4913.0938539483304339
 21
29.9226814731709005
 31
0.0
  0
LINE
  5
3D430
  8
0
 10
4913.4193488359305775
 20
29.920869361770901
 30
0.0
 11
4913.3397540390296854
 21
29.920869361770901
 31
0.0
  0
LINE
  5
3D431
  8
0
 10
4913.323803135430353
 20
29.920869361770901
 30
0.0
 11
4913.254452201780623
 21
29.920869361770901
 31
0.0
  0
LINE
  5
3D432
  8
0
 10
4913.2385012981303589
 20
29.920869361770901
 30
0.0
 11
4913.1691503644806289
 21
29.920869361770901
 31
0.0
  0
LINE
  5
3D433
  8
0
 10
4913.1531994608303648
 20
29.9208693617708903
 30
0.0
 11
4913.0938920097069058
 21
29.9208693617708903
 31
0.0
  0
LINE
  5
3D434
  8
0
 10
4913.3267548139301653
 20
29.9100300421708987
 30
0.0
 11
4913.2515000373296061
 21
29.9100301155708905
 31
0.0
  0
LINE
  5
3D435
  8
0
 10
4913.2414531546301077
 20
29.9100301155708905
 30
0.0
 11
4913.1661981155302783
 21
29.9100299109708914
 31
0.0
  0
LINE
  5
3D436
  8
0
 10
4913.1561514031309343
 20
29.9100299192709009
 30
0.0
 11
4913.0951185562189494
 21
29.9100299192709009
 31
0.0
  0
LINE
  5
3D437
  8
0
 10
4912.9855476850807463
 20
29.9100302178709008
 30
0.0
 11
4912.9102926459809169
 21
29.9100300132709016
 31
0.0
  0
LINE
  5
3D438
  8
0
 10
4913.0565549083703445
 20
29.9100300760272297
 30
0.0
 11
4912.9958446406399162
 21
29.9100299109708914
 31
0.0
  0
LINE
  5
3D439
  8
0
 10
4912.9002458478307744
 20
29.9100302178709008
 30
0.0
 11
4912.824990808729126
 21
29.9100300132709016
 31
0.0
  0
LINE
  5
3D43A
  8
0
 10
4913.0562970935307021
 20
29.9128919895708982
 30
0.0
 11
4912.9926417696306089
 21
29.9128919895708982
 31
0.0
  0
LINE
  5
3D43B
  8
0
 10
4912.9885003987301388
 20
29.9128919895708982
 30
0.0
 11
4912.9073399323306148
 21
29.9128919895708982
 31
0.0
  0
LINE
  5
3D43C
  8
0
 10
4912.903198561480167
 20
29.9128919895459013
 30
0.0
 11
4912.822038095080643
 21
29.9128919895958916
 31
0.0
  0
LINE
  5
3D43D
  8
0
 10
4913.0578918945302576
 20
29.9226814731709005
 30
0.0
 11
4912.9985466899806852
 21
29.9226814731708899
 31
0.0
  0
LINE
  5
3D43E
  8
0
 10
4912.9825957716147968
 20
29.9226814731709005
 30
0.0
 11
4912.9132448526806911
 21
29.9226814731709005
 31
0.0
  0
LINE
  5
3D43F
  8
0
 10
4912.8972939490813587
 20
29.9226814731708899
 30
0.0
 11
4912.827943015479832
 21
29.9226814731709005
 31
0.0
  0
LINE
  5
3D440
  8
0
 10
4913.0578481355960321
 20
29.920869361770901
 30
0.0
 11
4912.9985466899806852
 21
29.9208693617708903
 31
0.0
  0
LINE
  5
3D441
  8
0
 10
4912.9825957863304211
 20
29.920869361770901
 30
0.0
 11
4912.9132448526806911
 21
29.920869361770901
 31
0.0
  0
LINE
  5
3D442
  8
0
 10
4912.897293949030427
 20
29.920869361770901
 30
0.0
 11
4912.827943015479832
 21
29.920869361770901
 31
0.0
  0
LINE
  5
3D44B
  8
0
 10
4910.3494949687301414
 20
25.2352187515709012
 30
0.0
 11
4910.3494949687301414
 21
23.7785258381708893
 31
0.0
  0
LINE
  5
3D44C
  8
0
 10
4913.6861091419314107
 20
33.8454549720708968
 30
0.0
 11
4911.9511961939306275
 21
33.8454549720708968
 31
0.0
  0
LINE
  5
3D44F
  8
0
 10
4916.7674083545298345
 20
32.4573652016741789
 30
0.0
 11
4915.82252646472989
 21
32.4573652016741789
 31
0.0
  0
LINE
  5
3D450
  8
0
 10
4916.7503353527299623
 20
25.2724030868708986
 30
0.0
 11
4915.8395992771311285
 21
25.2724030868708986
 31
0.0
  0
LINE
  5
3D452
  8
0
 10
4910.6939831576310098
 20
-2.5639938468291059
 30
0.0
 11
4910.6939831576310098
 21
-2.4239640079291038
 31
0.0
  0
LINE
  5
3D453
  8
0
 10
4910.6939831576310098
 20
-2.4239640079291038
 30
0.0
 11
4910.793323264609171
 21
-2.1781670752291289
 31
0.0
  0
LINE
  5
3D454
  8
0
 10
4914.9459516616307155
 20
-2.5639938468291081
 30
0.0
 11
4914.9459516617589543
 21
-2.4239640079298002
 31
0.0
  0
LINE
  5
3D455
  8
0
 10
4914.9459516617589543
 20
-2.4239640079298002
 30
0.0
 11
4914.8466057766945596
 21
-2.1781670752291311
 31
0.0
  0
LINE
  5
3D45A
  8
0
 10
4915.1821939460942303
 20
-2.423962906779106
 30
0.0
 11
4910.4577555602299981
 21
-2.4239629067791082
 31
0.0
  0
ARC
  5
3D45C
  8
0
 10
4912.2164008396357531
 20
29.9226488168175493
 30
0.0
 40
0.0501001815155989
 50
122.5511525512037991
 51
175.9770660036408003
  0
ARC
  5
3D45D
  8
0
 10
4912.2786038108870343
 20
29.8392523315219904
 30
0.0
 40
0.1540500977625478
 50
102.7899071826832937
 51
125.364039536294996
  0
ARC
  5
3D45E
  8
0
 10
4912.3072063356066792
 20
29.7329032093153103
 30
0.0
 40
0.2641282744926591
 50
89.7939107538775687
 51
103.7334891796845966
  0
ARC
  5
3D45F
  8
0
 10
4912.5531407655198564
 20
29.9101437292571113
 30
0.0
 40
0.0090805666424303
 50
114.7354285768799969
 51
162.3829842922235116
  0
ARC
  5
3D460
  8
0
 10
4912.5671052075176704
 20
29.8798322398307796
 30
0.0
 40
0.0424540895542642
 50
105.0348130742461024
 51
114.7354285768798974
  0
ARC
  5
3D461
  8
0
 10
4912.5610230316806337
 20
29.9265294935476085
 30
0.0
 40
0.004979954015988
 50
187.4934892116210108
 51
271.2110814629676838
  0
ARC
  5
3D462
  8
0
 10
4912.5712798209133325
 20
29.8322801250180412
 30
0.0
 40
0.0898458715068998
 50
95.9340589658340122
 51
96.4876079323803424
  0
ARC
  5
3D463
  8
0
 10
4912.5644701174251168
 20
29.8869925268033612
 30
0.0
 40
0.0346918864983667
 50
73.4563806337972949
 51
77.4059472426787778
  0
ARC
  5
3D464
  8
0
 10
4912.5644701174251168
 20
29.8869925268033612
 30
0.0
 40
0.0346918864983667
 50
86.8678446285094026
 51
87.2519947340459936
  0
ARC
  5
3D465
  8
0
 10
4912.568147143438182
 20
29.8993713443160409
 30
0.0
 40
0.0217784964204186
 50
57.819010968545598
 51
73.4563806337972522
  0
ARC
  5
3D466
  8
0
 10
4912.5747300609009471
 20
29.9098325360444584
 30
0.0
 40
0.0094184262461906
 50
18.9557131980309208
 51
57.8190109684993772
  0
ARC
  5
3D467
  8
0
 10
4912.5680645224638283
 20
29.9259551473824601
 30
0.0
 40
0.0039743379378301
 50
297.6334423308002783
 51
358.5028300669312102
  0
ARC
  5
3D468
  8
0
 10
4912.5666151385457852
 20
29.9287576604548917
 30
0.0
 40
0.0071294376758518
 50
267.994609039176396
 51
297.5065816526935123
  0
ARC
  5
3D469
  8
0
 10
4913.0766140327432367
 20
29.8894152903693886
 30
0.0
 40
0.0322460056242447
 50
67.2162676274638216
 51
87.6368983723813386
  0
ARC
  5
3D46A
  8
0
 10
4913.0856431806078035
 20
29.9092863695368507
 30
0.0
 40
0.0104478125918421
 50
20.2812584051279217
 51
70.670427758838116
  0
ARC
  5
3D46B
  8
0
 10
4913.0798230052760118
 20
29.9259786266112613
 30
0.0
 40
0.0040275349801131
 50
294.2009717910289055
 51
358.1884296743521077
  0
ARC
  5
3D46C
  8
0
 10
4913.0783588408703508
 20
29.9291906433577601
 30
0.0
 40
0.0075574983713238
 50
266.8503944862886783
 51
294.3431540976649217
  0
ARC
  5
3D46D
  8
0
 10
4913.0755076280966023
 20
29.8872803881995104
 30
0.0
 40
0.0344064633262366
 50
92.841088920639919
 51
109.6640833310822956
  0
ARC
  5
3D46E
  8
0
 10
4913.0670506110227507
 20
29.9084378989149684
 30
0.0
 40
0.0116675760987448
 50
105.514811623857895
 51
155.8475798972189068
  0
ARC
  5
3D46F
  8
0
 10
4913.1559195938189077
 20
29.9167987264651316
 30
0.0
 40
0.0067727753830717
 50
271.9614248186913983
 51
298.0465165228591786
  0
ARC
  5
3D470
  8
0
 10
4913.1664416272797098
 20
29.9168423222845412
 30
0.0
 40
0.0068167621257283
 50
242.0389536558082
 51
267.9528162495624883
  0
ARC
  5
3D471
  8
0
 10
4913.2412145743446672
 20
29.9168260208066101
 30
0.0
 40
0.0068000918027346
 50
272.0106271847752737
 51
297.9893743051816841
  0
ARC
  5
3D472
  8
0
 10
4913.2517419629011783
 20
29.9168385055821595
 30
0.0
 40
0.0068126868801653
 50
242.0350588918545043
 51
267.9649396316979733
  0
ARC
  5
3D473
  8
0
 10
4913.3265159967077125
 20
29.9168269925332808
 30
0.0
 40
0.0068011446017495
 50
272.0123130967508018
 51
297.9886182267059098
  0
ARC
  5
3D474
  8
0
 10
4913.3370399833893316
 20
29.9168242610474699
 30
0.0
 40
0.0067983165958765
 50
242.0071745058679085
 51
267.9928240193589204
  0
ARC
  5
3D475
  8
0
 10
4912.8252288192306878
 20
29.9168228454669709
 30
0.0
 40
0.0067970006799156
 50
242.0026194957758037
 51
267.9932640426313242
  0
ARC
  5
3D476
  8
0
 10
4912.9000080279120084
 20
29.9168238909195914
 30
0.0
 40
0.0067978343467654
 50
272.0048824358416937
 51
297.9918252331341932
  0
ARC
  5
3D477
  8
0
 10
4912.9105315550559681
 20
29.9168261987129718
 30
0.0
 40
0.0068003833796018
 50
242.0091968544263921
 51
267.9866871708297253
  0
ARC
  5
3D478
  8
0
 10
4912.985303799430767
 20
29.9168438749020389
 30
0.0
 40
0.0068183286276567
 50
272.0502124277423945
 51
297.958016827907386
  0
ARC
  5
3D479
  8
0
 10
4912.9958172469114288
 20
29.9167959589635188
 30
0.0
 40
0.0067661034469557
 50
242.0097425197342886
 51
270.2319724098665006
  0
ARC
  5
3D47A
  8
0
 10
4913.0637386773942126
 20
29.9128084624063995
 30
0.0
 40
0.0077023352468952
 50
194.9510814879197085
 51
238.0134764341378002
  0
ARC
  5
3D47B
  8
0
 10
4913.0723053331312258
 20
29.9251263067726114
 30
0.0
 40
0.0227000191784851
 50
236.1428352329492952
 51
258.8035231775905913
  0
ARC
  5
3D47C
  8
0
 10
4913.0756718316970364
 20
29.9385219702966907
 30
0.0
 40
0.0365011492899526
 50
257.7025723434578026
 51
267.0640147808455822
  0
ARC
  5
3D47D
  8
0
 10
4913.0766761262648288
 20
29.9339194260257102
 30
0.0
 40
0.0318759024234548
 50
272.2788513485788258
 51
292.735606194589991
  0
ARC
  5
3D47E
  8
0
 10
4913.0855786303000059
 20
29.9144748822653384
 30
0.0
 40
0.0105246321823356
 50
288.9446583697886126
 51
339.6871833191211749
  0
ARC
  5
3D480
  8
0
 10
4917.3928707335517174
 20
8.2534782932590396
 30
0.0
 40
2.4935104721722281
 50
270.0005813472114937
 51
299.1313324440037036
  0
ENDSEC
  0
EOF
