  0
SECTION
  2
HEADER
  9
$ACADVER
  1
AC1009
  9
$INSBASE
 10
4912.8199674096313174
 20
50.3474781325208909
 30
0.0
  9
$EXTMIN
 10
4910.0252863468786018
 20
40.9512000443935378
 30
-0.0015258207003583
  9
$EXTMAX
 10
4920.160188989038943
 20
52.7106041205697906
 30
0.0000000349246037
  9
$LIMMIN
 10
0.0
 20
0.0
  9
$LIMMAX
 10
11.6929133858000007
 20
8.2677165353999982
  9
$ORTHOMODE
 70
     1
  9
$REGENMODE
 70
     1
  9
$FILLMODE
 70
     1
  9
$QTEXTMODE
 70
     0
  9
$MIRRTEXT
 70
     0
  9
$DRAGMODE
 70
     2
  9
$LTSCALE
 40
0.6431102362
  9
$OSMODE
 70
  2047
  9
$ATTMODE
 70
     1
  9
$TEXTSIZE
 40
0.2
  9
$TRACEWID
 40
0.05
  9
$TEXTSTYLE
  7
STANDARD
  9
$CLAYER
  8
0
  9
$CELTYPE
  6
BYLAYER
  9
$CECOLOR
 62
   256
  9
$DIMSCALE
 40
1.0
  9
$DIMASZ
 40
0.1875
  9
$DIMEXO
 40
0.0625
  9
$DIMDLI
 40
0.4443307087
  9
$DIMRND
 40
0.0
  9
$DIMDLE
 40
0.0
  9
$DIMEXE
 40
0.125
  9
$DIMTP
 40
0.01
  9
$DIMTM
 40
0.01
  9
$DIMTXT
 40
2.0
  9
$DIMCEN
 40
0.1052362205
  9
$DIMTSZ
 40
0.0
  9
$DIMTOL
 70
     1
  9
$DIMLIM
 70
     0
  9
$DIMTIH
 70
     1
  9
$DIMTOH
 70
     1
  9
$DIMSE1
 70
     0
  9
$DIMSE2
 70
     0
  9
$DIMTAD
 70
     0
  9
$DIMZIN
 70
     0
  9
$DIMBLK
  1

  9
$DIMASO
 70
     1
  9
$DIMSHO
 70
     1
  9
$DIMPOST
  1
\X
  9
$DIMAPOST
  1

  9
$DIMALT
 70
     1
  9
$DIMALTD
 70
     2
  9
$DIMALTF
 40
25.3999999999999986
  9
$DIMLFAC
 40
1.0
  9
$DIMTOFL
 70
     0
  9
$DIMTVP
 40
0.0
  9
$DIMTIX
 70
     0
  9
$DIMSOXD
 70
     0
  9
$DIMSAH
 70
     0
  9
$DIMBLK1
  1

  9
$DIMBLK2
  1

  9
$DIMSTYLE
  2
STANDARD
  9
$DIMCLRD
 70
     0
  9
$DIMCLRE
 70
     0
  9
$DIMCLRT
 70
     0
  9
$DIMTFAC
 40
1.0
  9
$DIMGAP
 40
0.09
  9
$LUNITS
 70
     2
  9
$LUPREC
 70
     4
  9
$SKETCHINC
 40
0.1
  9
$FILLETRAD
 40
0.0
  9
$AUNITS
 70
     0
  9
$AUPREC
 70
     0
  9
$MENU
  1
.
  9
$ELEVATION
 40
0.0
  9
$PELEVATION
 40
0.0
  9
$THICKNESS
 40
0.0
  9
$LIMCHECK
 70
     0
  9
$BLIPMODE
 70
     0
  9
$CHAMFERA
 40
0.0
  9
$CHAMFERB
 40
0.0
  9
$SKPOLY
 70
     0
  9
$TDCREATE
 40
2458060.468368056230247
  9
$TDUPDATE
 40
2460657.4763773148879409
  9
$TDINDWG
 40
1.0056552083000001
  9
$TDUSRTIMER
 40
1.0056552083000001
  9
$USRTIMER
 70
     1
  9
$ANGBASE
 50
0.0
  9
$ANGDIR
 70
     0
  9
$PDMODE
 70
     0
  9
$PDSIZE
 40
0.3125
  9
$PLINEWID
 40
0.0
  9
$COORDS
 70
     1
  9
$SPLFRAME
 70
     0
  9
$SPLINETYPE
 70
     6
  9
$SPLINESEGS
 70
     8
  9
$ATTDIA
 70
     1
  9
$ATTREQ
 70
     1
  9
$HANDLING
 70
     1
  9
$HANDSEED
  5
3D599
  9
$SURFTAB1
 70
     6
  9
$SURFTAB2
 70
     6
  9
$SURFTYPE
 70
     6
  9
$SURFU
 70
     6
  9
$SURFV
 70
     6
  9
$UCSNAME
  2

  9
$UCSORG
 10
0.0
 20
0.0
 30
0.0
  9
$UCSXDIR
 10
1.0
 20
0.0
 30
0.0
  9
$UCSYDIR
 10
0.0
 20
1.0
 30
0.0
  9
$PUCSNAME
  2

  9
$PUCSORG
 10
0.0
 20
0.0
 30
0.0
  9
$PUCSXDIR
 10
1.0
 20
0.0
 30
0.0
  9
$PUCSYDIR
 10
0.0
 20
1.0
 30
0.0
  9
$USERI1
 70
     0
  9
$USERI2
 70
     0
  9
$USERI3
 70
     0
  9
$USERI4
 70
     0
  9
$USERI5
 70
     0
  9
$USERR1
 40
0.0
  9
$USERR2
 40
0.0
  9
$USERR3
 40
0.0
  9
$USERR4
 40
0.0
  9
$USERR5
 40
0.0
  9
$WORLDVIEW
 70
     1
  9
$SHADEDGE
 70
     3
  9
$SHADEDIF
 70
    70
  9
$TILEMODE
 70
     1
  9
$MAXACTVP
 70
    64
  9
$PLIMCHECK
 70
     0
  9
$PEXTMIN
 10
1.0000000000000000E+20
 20
1.0000000000000000E+20
 30
1.0000000000000000E+20
  9
$PEXTMAX
 10
-1.0000000000000000E+20
 20
-1.0000000000000000E+20
 30
-1.0000000000000000E+20
  9
$PLIMMIN
 10
0.0
 20
0.0
  9
$PLIMMAX
 10
12.0
 20
9.0
  9
$UNITMODE
 70
     0
  9
$VISRETAIN
 70
     1
  9
$PLINEGEN
 70
     0
  9
$PSLTSCALE
 70
     1
  0
ENDSEC
  0
SECTION
  2
TABLES
  0
TABLE
  2
VPORT
 70
     1
  0
VPORT
  2
*ACTIVE
 70
     0
 10
0.0
 20
0.0
 11
1.0
 21
1.0
 12
1122.7348275117089997
 22
-73.3497543506237832
 13
0.0
 23
0.0
 14
1.0
 24
1.0
 15
0.0
 25
0.0
 16
0.0
 26
0.0
 36
5.1040778033513332
 17
3792.35791015625
 27
120.1806564331053977
 37
0.0
 40
11.85385712096482
 41
2.558981233243967
 42
50.0
 43
0.0
 44
0.0
 50
0.0
 51
0.0
 71
     0
 72
   100
 73
     1
 74
     1
 75
     0
 76
     0
 77
     0
 78
     0
  0
ENDTAB
  0
TABLE
  2
LTYPE
 70
     2
  0
LTYPE
  2
CONTINUOUS
 70
     0
  3
Solid line
 72
    65
 73
     0
 40
0.0
  0
LTYPE
  2
PHANTOM2
 70
     0
  3
___ _ _ ___ _ _ ___ _ _ ___ _ _
 72
    65
 73
     6
 40
1.25
 49
0.625
 49
-0.125
 49
0.125
 49
-0.125
 49
0.125
 49
-0.125
  0
ENDTAB
  0
TABLE
  2
LAYER
 70
     2
  0
LAYER
  2
0
 70
     0
 62
   255
  6
CONTINUOUS
  0
LAYER
  2
DEFPOINTS
 70
     0
 62
     7
  6
CONTINUOUS
  0
ENDTAB
  0
TABLE
  2
STYLE
 70
     1
  0
STYLE
  2
STANDARD
 70
     0
 40
0.0
 41
0.8
 50
0.0
 71
     0
 42
0.2
  3
txt
  4

  0
ENDTAB
  0
TABLE
  2
VIEW
 70
     0
  0
ENDTAB
  0
TABLE
  2
UCS
 70
     0
  0
ENDTAB
  0
TABLE
  2
APPID
 70
    11
  0
APPID
  2
ACAD
 70
     0
  0
APPID
  2
ACAD_MLEADERVER
 70
     0
  0
APPID
  2
ACAD_EXEMPT_FROM_CAD_STANDARDS
 70
     0
  0
APPID
  2
ACAD_NAV_VCDISPLAY
 70
     0
  0
APPID
  2
ACAECLAYERSTANDARD
 70
     0
  0
APPID
  2
ACCMTRANSPARENCY
 70
     0
  0
APPID
  2
ACAD_DSTYLE_DIMJAG
 70
     0
  0
APPID
  2
ACAD_DSTYLE_DIMTALN
 70
     0
  0
APPID
  2
ACDBATTR
 70
     0
  0
APPID
  2
GRADIENTCOLOR1ACI
 70
     0
  0
APPID
  2
GRADIENTCOLOR2ACI
 70
     0
  0
ENDTAB
  0
TABLE
  2
DIMSTYLE
 70
     1
  0
DIMSTYLE
  2
STANDARD
 70
     0
  3

  4

  5

  6

  7

 40
1.0
 41
0.1875
 42
0.0625
 43
0.38
 44
0.125
 45
0.0
 46
0.0
 47
0.01
 48
0.01
140
0.15625
141
0.09
142
0.0
143
25.3999999999999986
144
1.0
145
0.0
146
1.0
147
0.09
 71
     1
 72
     0
 73
     1
 74
     1
 75
     0
 76
     0
 77
     0
 78
     4
170
     0
171
     2
172
     0
173
     0
174
     0
175
     0
176
     0
177
     0
178
     0
  0
ENDTAB
  0
ENDSEC
  0
SECTION
  2
BLOCKS
  0
BLOCK
  8
0
  2
$MODEL_SPACE
 70
     0
 10
0.0
 20
0.0
 30
0.0
  3
$MODEL_SPACE
  1

  0
ENDBLK
  5
21
  8
0
  0
BLOCK
 67
     1
  8
0
  2
$PAPER_SPACE
 70
     0
 10
0.0
 20
0.0
 30
0.0
  3
$PAPER_SPACE
  1

  0
ENDBLK
  5
1D
 67
     1
  8
0
  0
ENDSEC
  0
SECTION
  2
ENTITIES
  0
LINE
  5
3CFF8
  8
0
 10
4911.9538256773303146
 20
41.1640445626142721
 30
0.0
 11
4911.9538256773303146
 21
49.715337138970888
 31
0.0
  0
LINE
  5
3CFFC
  8
0
 10
4913.6861091419295917
 20
41.1640439494889989
 30
0.0
 11
4913.6861091419314107
 21
49.7569269514708807
 31
0.0
  0
LINE
  5
3CFFE
  8
0
 10
4915.182190715939214
 20
48.2214938805708968
 30
0.0
 11
4915.1821971762501562
 21
49.7569269514708807
 31
0.0
  0
LINE
  5
3CFFF
  8
0
 10
4915.1821907159401235
 20
50.9380293136709028
 30
0.0
 11
4915.1821971762501562
 21
52.4734620469026822
 31
0.0
  0
LINE
  5
3D000
  8
0
 10
4910.4577447965712054
 20
48.2214938673276876
 30
0.0
 11
4910.4577626852296817
 21
49.6191316758708894
 31
0.0
  0
LINE
  5
3D001
  8
0
 10
4910.4577626852296817
 20
51.0758245892708871
 30
0.0
 11
4910.457748435231224
 21
52.4734764662709026
 31
0.0
  0
LINE
  5
3D009
  8
0
 10
4916.7674083545298345
 20
49.8750371876708982
 30
0.0
 11
4916.7674083545298345
 21
50.9380293136709028
 31
0.0
  0
LINE
  5
3D00B
  8
0
 10
4915.82252646472989
 20
49.8750371876708982
 30
0.0
 11
4915.82252646472989
 21
50.9380293136709028
 31
0.0
  0
LINE
  5
3D1C7
  8
0
 10
4910.457748435231224
 20
52.4734764662709026
 30
0.0
 11
4910.6925517078307166
 21
52.708221143370892
 31
0.0
  0
LINE
  5
3D1C8
  8
0
 10
4910.6925517078307166
 20
52.708221143370892
 30
0.0
 11
4914.9459516616307155
 21
52.7096828569709004
 31
0.0
  0
LINE
  5
3D1C9
  8
0
 10
4911.7589437876313241
 20
49.6191316758708894
 30
0.0
 11
4910.3494949687301414
 21
49.6191316758708894
 31
0.0
  0
LINE
  5
3D1CA
  8
0
 10
4910.3494949687301414
 20
49.6191316758708894
 30
0.0
 11
4910.1841406380308399
 21
49.7844860065709014
 31
0.0
  0
LINE
  5
3D1CB
  8
0
 10
4910.1841406380308399
 20
49.7844860065709014
 30
0.0
 11
4910.1841406380308399
 21
50.9104702585709035
 31
0.0
  0
LINE
  5
3D1CC
  8
0
 10
4910.1841406380308399
 20
50.9104702585709035
 30
0.0
 11
4910.3494949687301414
 21
51.0758245892708871
 31
0.0
  0
LINE
  5
3D1CD
  8
0
 10
4910.3494949687301414
 20
51.0758245892708871
 30
0.0
 11
4911.7589437876313241
 21
51.0758245892708871
 31
0.0
  0
LINE
  5
3D1CE
  8
0
 10
4911.7589437876313241
 20
51.0758245892708871
 30
0.0
 11
4911.7589437876313241
 21
49.6191316758708894
 31
0.0
  0
LINE
  5
3D1CF
  8
0
 10
4911.7589437876313241
 20
49.7372419120708926
 30
0.0
 11
4911.8160304017301314
 21
49.7372419120708926
 31
0.0
  0
LINE
  5
3D1D0
  8
0
 10
4911.8160304017301314
 20
49.7372419120708926
 30
0.0
 11
4911.8160304017301314
 21
49.7175568726708974
 31
0.0
  0
LINE
  5
3D1D1
  8
0
 10
4911.8160304017301314
 20
49.7175568726708974
 30
0.0
 11
4911.9341406380308399
 21
49.7175568726708974
 31
0.0
  0
LINE
  5
3D1D2
  8
0
 10
4911.9341406380308399
 20
49.7175568726708974
 30
0.0
 11
4911.9341406380308399
 21
50.9773993923708986
 31
0.0
  0
LINE
  5
3D1D3
  8
0
 10
4911.9341406380308399
 20
50.9773993923708986
 30
0.0
 11
4911.8160304017301314
 21
50.9773993923708986
 31
0.0
  0
LINE
  5
3D1D4
  8
0
 10
4911.8160304017301314
 20
50.9773993923708986
 30
0.0
 11
4911.8160304017301314
 21
50.9577143530708909
 31
0.0
  0
LINE
  5
3D1D5
  8
0
 10
4911.8160304017301314
 20
50.9577143530708909
 30
0.0
 11
4911.7589437876313241
 21
50.9577143530708909
 31
0.0
  0
LINE
  5
3D1D6
  8
0
 10
4911.7589437876313241
 20
50.5037232887708996
 30
0.0
 11
4911.8160304017301314
 21
50.5037232887708996
 31
0.0
  0
LINE
  5
3D1D7
  8
0
 10
4911.8160304017301314
 20
50.5037232887708996
 30
0.0
 11
4911.8160304017301314
 21
50.1912329763708982
 31
0.0
  0
LINE
  5
3D1D8
  8
0
 10
4911.8160304017301314
 20
50.1912329763708982
 30
0.0
 11
4911.7589437876313241
 21
50.1912329763708982
 31
0.0
  0
LINE
  5
3D1D9
  8
0
 10
4910.1841406380308399
 20
50.7846217856709004
 30
0.0
 11
4910.3494949687301414
 21
50.8531137920709
 31
0.0
  0
LINE
  5
3D1DA
  8
0
 10
4910.3494949687301414
 20
50.8531137920709
 30
0.0
 11
4911.7589437876313241
 21
50.8531137920709
 31
0.0
  0
LINE
  5
3D1DB
  8
0
 10
4910.1841406380308399
 20
49.9103344794708903
 30
0.0
 11
4910.3494949687301414
 21
49.8418424730708978
 31
0.0
  0
LINE
  5
3D1DC
  8
0
 10
4910.3494949687301414
 20
49.8418424730708978
 30
0.0
 11
4911.7589437876313241
 21
49.8418424730708978
 31
0.0
  0
LINE
  5
3D1DD
  8
0
 10
4910.7898005486313195
 20
52.4734623845708867
 30
0.0
 11
4914.850137684229594
 21
52.4734623845708867
 31
0.0
  0
LINE
  5
3D1DE
  8
0
 10
4914.850137684229594
 20
52.4734623845708867
 30
0.0
 11
4914.9480680652295632
 21
52.3756051432709029
 31
0.0
  0
LINE
  5
3D1DF
  8
0
 10
4914.9480680652295632
 20
52.3756051432709029
 30
0.0
 11
4914.9480670112870939
 21
50.9380293136709028
 31
0.0
  0
LINE
  5
3D1E0
  8
0
 10
4914.9480661453726498
 20
49.7569269514708807
 30
0.0
 11
4914.9480650914301805
 21
48.3193540477709007
 31
0.0
  0
LINE
  5
3D1E1
  8
0
 10
4910.7898014724296445
 20
52.4734597075708891
 30
0.0
 11
4910.691853432631433
 21
52.3756122031708884
 31
0.0
  0
LINE
  5
3D1E2
  8
0
 10
4910.691853432631433
 20
52.3756122031708884
 30
0.0
 11
4910.691853432631433
 21
51.0758245892708871
 31
0.0
  0
LINE
  5
3D1E3
  8
0
 10
4910.691853432631433
 20
49.6191316758708894
 30
0.0
 11
4910.691853432631433
 21
48.3193430799782817
 31
0.0
  0
LINE
  5
3D1E4
  8
0
 10
4910.6918667541312971
 20
48.3193511218708878
 30
0.0
 11
4910.7897979171302723
 21
48.2214930445708916
 31
0.0
  0
LINE
  5
3D1E5
  8
0
 10
4910.7897979171302723
 20
48.2214930445708916
 30
0.0
 11
4911.9538256773303146
 21
48.2214932842375532
 31
0.0
  0
LINE
  5
3D1E6
  8
0
 10
4913.6861091419314107
 20
48.2214936475184786
 30
0.0
 11
4914.8501333468302619
 21
48.2214965575708874
 31
0.0
  0
LINE
  5
3D1E7
  8
0
 10
4914.9480650914301805
 20
48.3193540477709007
 30
0.0
 11
4914.8501333468302619
 21
48.2214965575708874
 31
0.0
  0
LINE
  5
3D1E8
  8
0
 10
4910.6939831576310098
 20
47.9852734081708974
 30
0.0
 11
4911.9538256773303146
 21
47.986299056412733
 31
0.0
  0
LINE
  5
3D1E9
  8
0
 10
4913.6861091419314107
 20
47.9857052600621827
 30
0.0
 11
4914.9459516616307155
 21
47.9852734081708974
 31
0.0
  0
LINE
  5
3D1EA
  8
0
 10
4914.9459516616307155
 20
47.9852734081708974
 30
0.0
 11
4915.1821721340311342
 21
48.2214938805708968
 31
0.0
  0
LINE
  5
3D1EB
  8
0
 10
4910.6939831576310098
 20
47.9852734081708974
 30
0.0
 11
4910.4577447965712054
 21
48.2214938673276805
 31
0.0
  0
LINE
  5
3D1EC
  8
0
 10
4910.6918667541312971
 20
48.3193511218708878
 30
0.0
 11
4910.4577638995306188
 21
48.2223837825709012
 31
0.0
  0
LINE
  5
3D1ED
  8
0
 10
4910.7897979171302723
 20
48.2214930445708916
 30
0.0
 11
4910.6939831576310098
 21
47.9852734081708974
 31
0.0
  0
LINE
  5
3D246
  8
0
 10
4916.875085519829554
 20
50.9380293136709028
 30
0.0
 11
4913.683479658530814
 21
50.9380293136709028
 31
0.0
  0
LINE
  5
3D247
  8
0
 10
4914.9459516616307155
 20
52.7096828569709004
 30
0.0
 11
4915.1821900241202457
 21
52.4734620469026822
 31
0.0
  0
LINE
  5
3D248
  8
0
 10
4914.9473868777313328
 20
52.7082248648708998
 30
0.0
 11
4914.8501374307306833
 21
52.4734637556708918
 31
0.0
  0
LINE
  5
3D249
  8
0
 10
4915.1821900772310983
 20
52.472584303370887
 30
0.0
 11
4914.9480805095299729
 21
52.3756128218708881
 31
0.0
  0
LINE
  5
3D24A
  8
0
 10
4910.6925517078307166
 20
52.708221143370892
 30
0.0
 11
4910.7898003634845736
 21
52.4734623845708867
 31
0.0
  0
LINE
  5
3D24B
  8
0
 10
4910.4577484450701377
 20
52.4725775832838508
 30
0.0
 11
4910.6918697278306354
 21
52.3756022173708971
 31
0.0
  0
LINE
  5
3D24C
  8
0
 10
4914.8501333468302619
 20
48.2214965575708874
 30
0.0
 11
4914.9473831115301437
 21
47.9867351217708915
 31
0.0
  0
LINE
  5
3D24D
  8
0
 10
4914.9480813866302924
 20
48.319344061970888
 30
0.0
 11
4915.1821711659304128
 21
48.222384981270892
 31
0.0
  0
LINE
  5
3D24E
  8
0
 10
4911.9511961939306275
 20
50.9769896427708886
 30
0.0
 11
4912.1878264160313847
 21
51.2136198648708927
 31
0.0
  0
LINE
  5
3D24F
  8
0
 10
4912.1878264160313847
 20
51.2136198648708927
 30
0.0
 11
4913.4468494364300568
 21
51.2136198648708927
 31
0.0
  0
LINE
  5
3D250
  8
0
 10
4913.4468494364300568
 20
51.2136198648708927
 30
0.0
 11
4913.683479658530814
 21
50.9769896427708886
 31
0.0
  0
ARC
  5
3D251
  8
0
 10
4913.1762666222302869
 20
51.2155883687708879
 30
0.0
 40
0.0019685039000024
 50
112.9931229886756938
 51
270.0000000000521254
  0
ARC
  5
3D252
  8
0
 10
4913.2924083705984231
 20
50.9418842221523391
 30
0.0
 40
0.2992946978185534
 50
90.0000030759092482
 51
112.9931229886756938
  0
ARC
  5
3D253
  8
0
 10
4913.2924083705984231
 20
50.9418843801512722
 30
0.0
 40
0.2992945398196345
 50
67.0068708594891262
 51
90.0000030759092482
  0
ARC
  5
3D254
  8
0
 10
4913.4085500866203802
 20
51.2155883688138829
 30
0.0
 40
0.0019685039429842
 50
270.0000061518705934
 51
67.00687085949086
  0
LINE
  5
3D255
  8
0
 10
4913.683479658530814
 20
50.9769896427708886
 30
0.0
 11
4913.683479658530814
 21
49.7179666223708878
 31
0.0
  0
LINE
  5
3D256
  8
0
 10
4913.683479658530814
 20
49.7179666223708878
 30
0.0
 11
4913.4468494364300568
 21
49.4813364002708909
 31
0.0
  0
LINE
  5
3D257
  8
0
 10
4913.4468494364300568
 20
49.4813364002708909
 30
0.0
 11
4912.1878264160313847
 21
49.4813364002708909
 31
0.0
  0
LINE
  5
3D258
  8
0
 10
4912.1878264160313847
 20
49.4813364002708909
 30
0.0
 11
4911.9511961939306275
 21
49.7179666223708878
 31
0.0
  0
LINE
  5
3D259
  8
0
 10
4911.9511961939306275
 20
50.9769896427708886
 30
0.0
 11
4911.9511961939306275
 21
49.7179666223708878
 31
0.0
  0
LINE
  5
3D25A
  8
0
 10
4911.9341406380308399
 20
49.7569269514708807
 30
0.0
 11
4911.9511961939306275
 21
49.7569269514709021
 31
0.0
  0
LINE
  5
3D25B
  8
0
 10
4911.9420146537313485
 20
49.7569269514708807
 30
0.0
 11
4911.9420329727299759
 21
49.7378015011708925
 31
0.0
  0
ARC
  5
3D25C
  8
0
 10
4912.019176116458766
 20
49.7378753914703609
 30
0.0
 40
0.0771431791165891
 50
180.0548798092270886
 51
212.0491006958353921
  0
LINE
  5
3D25D
  8
0
 10
4911.9341406380308399
 20
50.9380293136709028
 30
0.0
 11
4911.9511961939306275
 21
50.9380293136709028
 31
0.0
  0
LINE
  5
3D25E
  8
0
 10
4911.9420146537313485
 20
50.9380293136709028
 30
0.0
 11
4911.9420146537313485
 21
50.9571547639708911
 31
0.0
  0
ARC
  5
3D25F
  8
0
 10
4912.0197830842207622
 20
50.9569989231353233
 30
0.0
 40
0.0777685866359337
 50
134.7041051253559942
 51
179.8851846418145044
  0
ARC
  5
3D260
  8
0
 10
4912.2108816651034431
 20
51.1466340202899232
 30
0.0
 40
0.0788039684705518
 50
89.2308609215684072
 51
128.7811364840254953
  0
LINE
  5
3D261
  8
0
 10
4912.2119394985402323
 20
51.2254308884708891
 30
0.0
 11
4912.2519144685302308
 21
51.2254308884708891
 31
0.0
  0
ARC
  5
3D262
  8
0
 10
4912.2313847324312519
 20
51.2155883687708879
 30
0.0
 40
0.0019685039000024
 50
112.9931229888451014
 51
269.999999999895806
  0
ARC
  5
3D263
  8
0
 10
4912.3475264807975691
 20
50.9418842221566166
 30
0.0
 40
0.2992946978142758
 50
90.0000030757529146
 51
112.9931229888451014
  0
ARC
  5
3D264
  8
0
 10
4912.3475264807975691
 20
50.9418843794323806
 30
0.0
 40
0.299294540538519
 50
67.0068708874572678
 51
90.0000030757529146
  0
ARC
  5
3D265
  8
0
 10
4912.4636681969659548
 20
51.2155883688136768
 30
0.0
 40
0.0019685039427909
 50
270.000001893372314
 51
67.0068708874564436
  0
LINE
  5
3D266
  8
0
 10
4912.4431384609306406
 20
51.2254308884708891
 30
0.0
 11
4912.7215329070922962
 21
51.2254308884708891
 31
0.0
  0
LINE
  5
3D267
  8
0
 10
4912.9131429453682358
 20
51.2254308884708891
 30
0.0
 11
4913.1966033353919556
 21
51.2254308884708891
 31
0.0
  0
ARC
  5
3D268
  8
0
 10
4912.7011962170281549
 20
51.2155883687708879
 30
0.0
 40
0.0019685039000024
 50
112.9931229888451014
 51
269.999999999895806
  0
ARC
  5
3D269
  8
0
 10
4912.8173379653962911
 20
50.9418842221566166
 30
0.0
 40
0.2992946978142758
 50
90.0000030757529146
 51
112.9931229888451014
  0
ARC
  5
3D26A
  8
0
 10
4912.8173379653962911
 20
50.9418843794323806
 30
0.0
 40
0.299294540538519
 50
67.0068708874572678
 51
90.0000030757529146
  0
ARC
  5
3D26B
  8
0
 10
4912.9334796815619484
 20
51.2155883688136768
 30
0.0
 40
0.0019685039427909
 50
270.000001893372314
 51
67.0068708874564436
  0
LINE
  5
3D26C
  8
0
 10
4913.6979201655312863
 20
50.9380293136709028
 30
0.0
 11
4913.6979201655312863
 21
50.9565951749709001
 31
0.0
  0
ARC
  5
3D26D
  8
0
 10
4913.6197751040181174
 20
50.9567247308527698
 30
0.0
 40
0.078145168907269
 50
359.9050100121799005
 51
33.2014564184964769
  0
ARC
  5
3D26E
  8
0
 10
4913.4281148498812399
 20
51.1446847194682022
 30
0.0
 40
0.080925101343094
 50
57.1558114833995177
 51
93.8108379356478963
  0
LINE
  5
3D26F
  8
0
 10
4913.4227363539212092
 20
51.2254308884708891
 30
0.0
 11
4913.3882133736688047
 21
51.2254308884708891
 31
0.0
  0
LINE
  5
3D270
  8
0
 10
4913.683479658530814
 20
49.7569269514708807
 30
0.0
 11
4915.8269612842295828
 21
49.7569269514708807
 31
0.0
  0
ARC
  5
3D271
  8
0
 10
4915.8269612842295828
 20
49.7766119907714426
 30
0.0
 40
0.0196850393005477
 50
270.0
 51
350.9999999756437887
  0
LINE
  5
3D272
  8
0
 10
4915.8464039680302449
 20
49.7735325721708932
 30
0.0
 11
4915.862480719789346
 21
49.8750371876615333
 31
0.0
  0
LINE
  5
3D273
  8
0
 10
4915.82252646472989
 20
49.8750371876708982
 30
0.0
 11
4916.7674083545298345
 21
49.8750371876708982
 31
0.0
  0
LINE
  5
3D274
  8
0
 10
4916.0036851080303677
 20
49.8750371876708982
 30
0.0
 11
4916.0057569544678699
 21
49.8157072703859711
 31
0.0
  0
ARC
  5
3D275
  8
0
 10
4916.0136261735397056
 20
49.8159820695808193
 30
0.0
 40
0.0078740157099368
 50
182.0000000695848996
 51
269.9999999301722937
  0
LINE
  5
3D276
  8
0
 10
4916.0136261735306107
 20
49.8081080538709031
 30
0.0
 11
4916.0999306929297745
 21
49.8081080537657215
 31
0.0
  0
ARC
  5
3D277
  8
0
 10
4916.099930692939779
 20
49.8159820694914686
 30
0.0
 40
0.0078740157257542
 50
269.9999999301722937
 51
358.0000005423602829
  0
LINE
  5
3D278
  8
0
 10
4916.107799912030714
 20
49.815707270380102
 30
0.0
 11
4916.1098717578342985
 21
49.8750371876708982
 31
0.0
  0
LINE
  5
3D279
  8
0
 10
4916.1611654230300701
 20
49.8750371876708982
 30
0.0
 11
4916.1632372694675723
 21
49.8157072703859711
 31
0.0
  0
ARC
  5
3D27A
  8
0
 10
4916.1711064885403175
 20
49.8159820695808193
 30
0.0
 40
0.0078740157099368
 50
182.0000000695848996
 51
269.9999999301722937
  0
LINE
  5
3D27B
  8
0
 10
4916.1711064885303131
 20
49.8081080538709031
 30
0.0
 11
4916.2574110079303864
 21
49.8081080537657215
 31
0.0
  0
ARC
  5
3D27C
  8
0
 10
4916.2574110079403908
 20
49.8159820694914686
 30
0.0
 40
0.0078740157257542
 50
269.9999999301722937
 51
358.0000005423602829
  0
LINE
  5
3D27D
  8
0
 10
4916.2652802270313259
 20
49.815707270380102
 30
0.0
 11
4916.2673520728340009
 21
49.8750371876708982
 31
0.0
  0
LINE
  5
3D27E
  8
0
 10
4916.3186457379797503
 20
49.8750371876708982
 30
0.0
 11
4916.3207175844190715
 21
49.8157072703859711
 31
0.0
  0
ARC
  5
3D27F
  8
0
 10
4916.3285868034909072
 20
49.8159820695808193
 30
0.0
 40
0.0078740157099368
 50
182.0000000695848996
 51
269.9999999301722937
  0
LINE
  5
3D280
  8
0
 10
4916.3285868034799933
 20
49.8081080538709031
 30
0.0
 11
4916.4148913228800666
 21
49.8081080537657215
 31
0.0
  0
ARC
  5
3D281
  8
0
 10
4916.414891322890071
 20
49.8159820694914686
 30
0.0
 40
0.0078740157257542
 50
269.9999999301722937
 51
358.0000005423602829
  0
LINE
  5
3D282
  8
0
 10
4916.4227605419810061
 20
49.815707270380102
 30
0.0
 11
4916.4248323877827715
 21
49.8750371876708982
 31
0.0
  0
LINE
  5
3D283
  8
0
 10
4916.4761260529312494
 20
49.8750371876708982
 30
0.0
 11
4916.4781978993678422
 21
49.8157072703859711
 31
0.0
  0
ARC
  5
3D284
  8
0
 10
4916.4860671184396779
 20
49.8159820695808193
 30
0.0
 40
0.0078740157099368
 50
182.0000000695848996
 51
269.9999999301722937
  0
LINE
  5
3D285
  8
0
 10
4916.4860671184296734
 20
49.8081080538709031
 30
0.0
 11
4916.5723716378306563
 21
49.8081080537657215
 31
0.0
  0
ARC
  5
3D286
  8
0
 10
4916.5723716378397512
 20
49.8159820694914686
 30
0.0
 40
0.0078740157257542
 50
269.9999999301722937
 51
358.0000005423602829
  0
LINE
  5
3D287
  8
0
 10
4916.5802408569297768
 20
49.815707270380102
 30
0.0
 11
4916.5823127027342707
 21
49.8750371876708982
 31
0.0
  0
LINE
  5
3D288
  8
0
 10
4916.875085519829554
 20
50.9380293136709028
 30
0.0
 11
4916.8750855199295984
 21
49.7766119908725884
 31
0.0
  0
ARC
  5
3D289
  8
0
 10
4916.8554004805300792
 20
49.7766119908708902
 30
0.0
 40
0.0196850394000059
 50
270.0
 51
0.0000000049339818
  0
LINE
  5
3D28A
  8
0
 10
4916.8554004805300792
 20
49.7569269514708807
 30
0.0
 11
4916.7421073933301159
 21
49.7569269514708594
 31
0.0
  0
ARC
  5
3D28B
  8
0
 10
4916.7421073933301159
 20
49.776611990888469
 30
0.0
 40
0.0196850394176167
 50
189.0000003152705972
 51
270.0
  0
LINE
  5
3D28C
  8
0
 10
4916.7226647094303189
 20
49.7735325721708932
 30
0.0
 11
4916.7065879571418918
 21
49.8750371876708982
 31
0.0
  0
ARC
  5
3D28D
  8
0
 10
4917.0434069164939501
 20
-116.0231629515580067
 30
0.0
 40
166.732135566240288
 50
89.9746354258765422
 51
90.0578419225150242
  0
ARC
  5
3D28E
  8
0
 10
4917.5167726651843623
 20
953.2578616081348173
 30
0.0
 40
902.5489937718577949
 50
269.9746354258764995
 51
270.0135987777924242
  0
ARC
  5
3D28F
  8
0
 10
4918.514641529554865
 20
-3251.0665480935608684
 30
0.0
 40
3301.7755343486569473
 50
89.9922790281780465
 51
90.0135987777924242
  0
ARC
  5
3D290
  8
0
 10
4919.2297372453331263
 20
2055.5149555047150898
 30
0.0
 40
2004.806017431473947
 50
269.9922790281780749
 51
270.0077210167409021
  0
ARC
  5
3D291
  8
0
 10
4919.5234581095828617
 20
50.3468893772181403
 30
0.0
 40
0.3628325521234489
 50
0.0929718446827684
 51
93.7228616317425036
  0
ARC
  5
3D292
  8
0
 10
4919.5241028542650383
 20
50.3480344788369294
 30
0.0
 40
0.3621877570591232
 50
268.3330973370128731
 51
359.9119895554005097
  0
ARC
  5
3D293
  8
0
 10
4918.8078412086160824
 20
-1037943.6645107469521463
 30
0.0
 40
1037993.6505109759746119
 50
89.9999610449098668
 51
90.0000389712964051
  0
ARC
  5
3D294
  8
0
 10
4917.4884533083049973
 20
467.6318688132552097
 30
0.0
 40
417.6463192301026766
 50
269.9158536862760229
 51
270.0841463137239771
  0
ARC
  5
3D295
  8
0
 10
4911.9636681970296195
 20
41.1640445626141585
 30
0.0
 40
0.0098425197000145
 50
179.9999999993382005
 51
229.1066053521589936
  0
LINE
  5
3D296
  8
0
 10
4911.9572247553787747
 20
41.1566043170710074
 30
0.0
 11
4912.1880887545457881
 21
40.9566702289827305
 31
0.0
  0
ARC
  5
3D297
  8
0
 10
4912.1945336093131118
 20
40.9641121062519034
 30
0.0
 40
0.0098446782706464
 50
229.1066053521585957
 51
269.9953161852650965
  0
LINE
  5
3D298
  8
0
 10
4912.194532804530354
 20
40.9542674280141412
 30
0.0
 11
4913.4454020147295523
 21
40.9542674273539689
 31
0.0
  0
ARC
  5
3D299
  8
0
 10
4913.445402014865067
 20
40.9641099464247489
 30
0.0
 40
0.0098425190707907
 50
269.9999992184510802
 51
310.8933963970030163
  0
LINE
  5
3D29A
  8
0
 10
4913.4518454563303749
 20
40.9566697015539631
 30
0.0
 11
4913.6827101420067265
 21
41.1566043965125985
 31
0.0
  0
ARC
  5
3D29B
  8
0
 10
4913.6762666741487919
 20
41.1640445507002468
 30
0.0
 40
0.0098424677999399
 50
310.8938581290298089
 51
359.9965001798303206
  0
LINE
  5
3D29C
  8
0
 10
4912.1165505246308385
 20
50.908497636370889
 30
0.0
 11
4912.2563184223299686
 21
51.048265534170902
 31
0.0
  0
LINE
  5
3D29D
  8
0
 10
4912.2563184223299686
 20
51.048265534170902
 30
0.0
 11
4913.3783574301296539
 21
51.048265534170902
 31
0.0
  0
LINE
  5
3D29E
  8
0
 10
4913.3783574301296539
 20
51.048265534170902
 30
0.0
 11
4913.5181253278296936
 21
50.908497636370889
 31
0.0
  0
LINE
  5
3D29F
  8
0
 10
4913.5181253278296936
 20
50.908497636370889
 30
0.0
 11
4913.5181253278296936
 21
49.7864586286708928
 31
0.0
  0
LINE
  5
3D2A0
  8
0
 10
4913.5181253278296936
 20
49.7864586286708928
 30
0.0
 11
4913.3783574301296539
 21
49.6466907309709029
 31
0.0
  0
LINE
  5
3D2A1
  8
0
 10
4913.3783574301296539
 20
49.6466907309709029
 30
0.0
 11
4912.2563184223299686
 21
49.6466907309709029
 31
0.0
  0
LINE
  5
3D2A2
  8
0
 10
4912.2563184223299686
 20
49.6466907309709029
 30
0.0
 11
4912.1165505246308385
 21
49.7864586286708928
 31
0.0
  0
LINE
  5
3D2A3
  8
0
 10
4912.1165505246308385
 20
49.7864586286708928
 30
0.0
 11
4912.1165505246308385
 21
50.908497636370889
 31
0.0
  0
LINE
  5
3D2A4
  8
0
 10
4911.9511961939306275
 20
50.9769896427708886
 30
0.0
 11
4912.1165505246308385
 21
50.908497636370889
 31
0.0
  0
LINE
  5
3D2A5
  8
0
 10
4912.1878264160313847
 20
51.2136198648708927
 30
0.0
 11
4912.2563184223299686
 21
51.048265534170902
 31
0.0
  0
LINE
  5
3D2A6
  8
0
 10
4913.4468494364300568
 20
51.2136198648708927
 30
0.0
 11
4913.3783574301296539
 21
51.048265534170902
 31
0.0
  0
LINE
  5
3D2A7
  8
0
 10
4913.5181253278296936
 20
50.908497636370889
 30
0.0
 11
4913.683479658530814
 21
50.9769896427708886
 31
0.0
  0
LINE
  5
3D2A8
  8
0
 10
4913.5181253278296936
 20
49.7864586286708928
 30
0.0
 11
4913.683479658530814
 21
49.7179666223708878
 31
0.0
  0
LINE
  5
3D2A9
  8
0
 10
4913.3783574301296539
 20
49.6466907309709029
 30
0.0
 11
4913.4468494364300568
 21
49.4813364002708909
 31
0.0
  0
LINE
  5
3D2AA
  8
0
 10
4912.2563184223299686
 20
49.6466907309709029
 30
0.0
 11
4912.1875726188291083
 21
49.4815901974708865
 31
0.0
  0
LINE
  5
3D2AB
  8
0
 10
4912.1165505246308385
 20
49.7864586286708928
 30
0.0
 11
4911.9511961939306275
 21
49.7179666223708878
 31
0.0
  0
ARC
  5
3D2AC
  8
0
 10
4908.9459813720295642
 20
46.4734920819306367
 30
0.0
 40
6.5532232005957072
 50
43.6820691860492403
 51
46.3179309751982018
  0
ARC
  5
3D2B1
  8
0
 10
4942.3409439755341737
 20
20.7314537886166406
 30
0.0
 40
42.890806616423923
 50
134.7192756953037929
 51
135.0897812333610943
  0
ARC
  5
3D2B2
  8
0
 10
4912.0758729214303457
 20
51.0915726207708971
 30
0.0
 40
0.0295275591000313
 50
175.9635696772841982
 51
211.0120073089672985
  0
ARC
  5
3D2B3
  8
0
 10
4912.0758729214303457
 20
51.091572620770819
 30
0.0
 40
0.0295275591000771
 50
58.9879926910999828
 51
93.8567745696269355
  0
LINE
  5
3D443
  8
0
 10
4912.1875726188291083
 20
49.4815901974708865
 30
0.0
 11
4912.1875726188291083
 21
40.9571172156242227
 31
0.0
  0
LINE
  5
3D444
  8
0
 10
4913.4469826325303075
 20
49.4814695963711983
 30
0.0
 11
4913.452362803401229
 21
40.9571177372881081
 31
0.0
  0
LINE
  5
3D44A
  8
0
 10
4910.3494949687301414
 20
49.6191316758708894
 30
0.0
 11
4910.3494949687301414
 21
51.0758245892708871
 31
0.0
  0
ATTDEF
  5
3D48B
  8
DEFPOINTS
 10
4912.819982583005185
 20
50.350822115189672
 30
0.0
 40
0.001
  1
P32713-GTM
  3

  2
MODELNUMBER
 70
     0
1001
ACDBATTR
1070
     0
1070
     1
  0
ATTDEF
  5
3D48C
  8
DEFPOINTS
 10
4912.819982583005185
 20
50.3491554485229997
 30
0.0
 40
0.001
  1
BEZEL
  3

  2
TRADENAME
 70
     0
1001
ACDBATTR
1070
     0
1070
     1
  0
ATTDEF
  5
3D48D
  8
DEFPOINTS
 10
4912.819982583005185
 20
50.3474887818563417
 30
0.0
 40
0.001
  1
BATH FAUCET
  3

  2
PRODUCT
 70
     0
1001
ACDBATTR
1070
     0
1070
     1
  0
ENDSEC
  0
EOF
