  0
SECTION
  2
HEADER
  9
$ACADVER
  1
AC1009
  9
$INSBASE
 10
7104.730895218814112
 20
190.470117651432588
 30
0.0
  9
$EXTMIN
 10
7098.2212200168969503
 20
179.5453242379049925
 30
-0.0015258207003583
  9
$EXTMAX
 10
7112.825937388800412
 20
192.4525965418440023
 30
0.0000000349246037
  9
$LIMMIN
 10
0.0
 20
0.0
  9
$LIMMAX
 10
11.6929133858000007
 20
8.2677165353999982
  9
$ORTHOMODE
 70
     0
  9
$REGENMODE
 70
     1
  9
$FILLMODE
 70
     1
  9
$QTEXTMODE
 70
     0
  9
$MIRRTEXT
 70
     0
  9
$DRAGMODE
 70
     2
  9
$LTSCALE
 40
0.6431102362
  9
$OSMODE
 70
  4095
  9
$ATTMODE
 70
     1
  9
$TEXTSIZE
 40
0.2
  9
$TRACEWID
 40
0.05
  9
$TEXTSTYLE
  7
STANDARD
  9
$CLAYER
  8
0
  9
$CELTYPE
  6
BYLAYER
  9
$CECOLOR
 62
   256
  9
$DIMSCALE
 40
1.0
  9
$DIMASZ
 40
0.1875
  9
$DIMEXO
 40
0.0625
  9
$DIMDLI
 40
0.4443307087
  9
$DIMRND
 40
0.0
  9
$DIMDLE
 40
0.0
  9
$DIMEXE
 40
0.125
  9
$DIMTP
 40
0.01
  9
$DIMTM
 40
0.01
  9
$DIMTXT
 40
2.0
  9
$DIMCEN
 40
0.1052362205
  9
$DIMTSZ
 40
0.0
  9
$DIMTOL
 70
     1
  9
$DIMLIM
 70
     0
  9
$DIMTIH
 70
     1
  9
$DIMTOH
 70
     1
  9
$DIMSE1
 70
     0
  9
$DIMSE2
 70
     0
  9
$DIMTAD
 70
     0
  9
$DIMZIN
 70
     0
  9
$DIMBLK
  1

  9
$DIMASO
 70
     1
  9
$DIMSHO
 70
     1
  9
$DIMPOST
  1
\X
  9
$DIMAPOST
  1

  9
$DIMALT
 70
     1
  9
$DIMALTD
 70
     2
  9
$DIMALTF
 40
25.3999999999999986
  9
$DIMLFAC
 40
1.0
  9
$DIMTOFL
 70
     0
  9
$DIMTVP
 40
0.0
  9
$DIMTIX
 70
     0
  9
$DIMSOXD
 70
     0
  9
$DIMSAH
 70
     0
  9
$DIMBLK1
  1

  9
$DIMBLK2
  1

  9
$DIMSTYLE
  2
STANDARD
  9
$DIMCLRD
 70
     0
  9
$DIMCLRE
 70
     0
  9
$DIMCLRT
 70
     0
  9
$DIMTFAC
 40
1.0
  9
$DIMGAP
 40
0.09
  9
$LUNITS
 70
     2
  9
$LUPREC
 70
     4
  9
$SKETCHINC
 40
0.1
  9
$FILLETRAD
 40
0.0
  9
$AUNITS
 70
     0
  9
$AUPREC
 70
     0
  9
$MENU
  1
.
  9
$ELEVATION
 40
0.0
  9
$PELEVATION
 40
0.0
  9
$THICKNESS
 40
0.0
  9
$LIMCHECK
 70
     0
  9
$BLIPMODE
 70
     0
  9
$CHAMFERA
 40
0.0
  9
$CHAMFERB
 40
0.0
  9
$SKPOLY
 70
     0
  9
$TDCREATE
 40
2458060.468368056230247
  9
$TDUPDATE
 40
2460602.5744097228161991
  9
$TDINDWG
 40
1.0237570601999999
  9
$TDUSRTIMER
 40
1.0237570601999999
  9
$USRTIMER
 70
     1
  9
$ANGBASE
 50
0.0
  9
$ANGDIR
 70
     0
  9
$PDMODE
 70
     0
  9
$PDSIZE
 40
0.3125
  9
$PLINEWID
 40
0.0
  9
$COORDS
 70
     2
  9
$SPLFRAME
 70
     0
  9
$SPLINETYPE
 70
     6
  9
$SPLINESEGS
 70
     8
  9
$ATTDIA
 70
     1
  9
$ATTREQ
 70
     1
  9
$HANDLING
 70
     1
  9
$HANDSEED
  5
323B5
  9
$SURFTAB1
 70
     6
  9
$SURFTAB2
 70
     6
  9
$SURFTYPE
 70
     6
  9
$SURFU
 70
     6
  9
$SURFV
 70
     6
  9
$UCSNAME
  2

  9
$UCSORG
 10
0.0
 20
0.0
 30
0.0
  9
$UCSXDIR
 10
1.0
 20
0.0
 30
0.0
  9
$UCSYDIR
 10
0.0
 20
1.0
 30
0.0
  9
$PUCSNAME
  2

  9
$PUCSORG
 10
0.0
 20
0.0
 30
0.0
  9
$PUCSXDIR
 10
1.0
 20
0.0
 30
0.0
  9
$PUCSYDIR
 10
0.0
 20
1.0
 30
0.0
  9
$USERI1
 70
     0
  9
$USERI2
 70
     0
  9
$USERI3
 70
     0
  9
$USERI4
 70
     0
  9
$USERI5
 70
     0
  9
$USERR1
 40
0.0
  9
$USERR2
 40
0.0
  9
$USERR3
 40
0.0
  9
$USERR4
 40
0.0
  9
$USERR5
 40
0.0
  9
$WORLDVIEW
 70
     1
  9
$SHADEDGE
 70
     3
  9
$SHADEDIF
 70
    70
  9
$TILEMODE
 70
     1
  9
$MAXACTVP
 70
    64
  9
$PLIMCHECK
 70
     0
  9
$PEXTMIN
 10
1.0000000000000000E+20
 20
1.0000000000000000E+20
 30
1.0000000000000000E+20
  9
$PEXTMAX
 10
-1.0000000000000000E+20
 20
-1.0000000000000000E+20
 30
-1.0000000000000000E+20
  9
$PLIMMIN
 10
0.0
 20
0.0
  9
$PLIMMAX
 10
12.0
 20
9.0
  9
$UNITMODE
 70
     0
  9
$VISRETAIN
 70
     1
  9
$PLINEGEN
 70
     0
  9
$PSLTSCALE
 70
     1
  0
ENDSEC
  0
SECTION
  2
TABLES
  0
TABLE
  2
VPORT
 70
     1
  0
VPORT
  2
*ACTIVE
 70
     0
 10
0.0
 20
0.0
 11
1.0
 21
1.0
 12
3194.1582222575370906
 22
53.4193552873354705
 13
0.0
 23
0.0
 14
1.0
 24
1.0
 15
0.0
 25
0.0
 16
0.0
 26
0.0
 36
60.4960186965801583
 17
3911.3653564453120453
 27
132.5796051025390057
 37
0.0
 40
12.9988132422648697
 41
2.2426035502958581
 42
50.0
 43
0.0
 44
0.0
 50
0.0
 51
0.0
 71
     0
 72
   100
 73
     1
 74
     1
 75
     0
 76
     0
 77
     0
 78
     0
  0
ENDTAB
  0
TABLE
  2
LTYPE
 70
     2
  0
LTYPE
  2
CONTINUOUS
 70
     0
  3
Solid line
 72
    65
 73
     0
 40
0.0
  0
LTYPE
  2
PHANTOM2
 70
     0
  3
___ _ _ ___ _ _ ___ _ _ ___ _ _
 72
    65
 73
     6
 40
1.25
 49
0.625
 49
-0.125
 49
0.125
 49
-0.125
 49
0.125
 49
-0.125
  0
ENDTAB
  0
TABLE
  2
LAYER
 70
     2
  0
LAYER
  2
0
 70
     0
 62
   255
  6
CONTINUOUS
  0
LAYER
  2
DEFPOINTS
 70
     0
 62
     7
  6
CONTINUOUS
  0
ENDTAB
  0
TABLE
  2
STYLE
 70
     1
  0
STYLE
  2
STANDARD
 70
     0
 40
0.0
 41
0.8
 50
0.0
 71
     0
 42
0.2
  3
txt
  4

  0
ENDTAB
  0
TABLE
  2
VIEW
 70
     0
  0
ENDTAB
  0
TABLE
  2
UCS
 70
     0
  0
ENDTAB
  0
TABLE
  2
APPID
 70
    13
  0
APPID
  2
ACAD
 70
     0
  0
APPID
  2
ACAD_MLEADERVER
 70
     0
  0
APPID
  2
ACAD_EXEMPT_FROM_CAD_STANDARDS
 70
     0
  0
APPID
  2
ACAD_NAV_VCDISPLAY
 70
     0
  0
APPID
  2
ACAECLAYERSTANDARD
 70
     0
  0
APPID
  2
ACCMTRANSPARENCY
 70
     0
  0
APPID
  2
ACAD_DSTYLE_DIMJAG
 70
     0
  0
APPID
  2
ACAD_DSTYLE_DIMTALN
 70
     0
  0
APPID
  2
ACDBATTR
 70
     0
  0
APPID
  2
ACADANNOTATIVE
 70
     0
  0
APPID
  2
DCO15
 70
     0
  0
APPID
  2
GRADIENTCOLOR1ACI
 70
     0
  0
APPID
  2
GRADIENTCOLOR2ACI
 70
     0
  0
ENDTAB
  0
TABLE
  2
DIMSTYLE
 70
     1
  0
DIMSTYLE
  2
STANDARD
 70
     0
  3

  4

  5

  6

  7

 40
1.0
 41
0.1875
 42
0.0625
 43
0.38
 44
0.125
 45
0.0
 46
0.0
 47
0.01
 48
0.01
140
0.15625
141
0.09
142
0.0
143
25.3999999999999986
144
1.0
145
0.0
146
1.0
147
0.09
 71
     1
 72
     0
 73
     1
 74
     1
 75
     0
 76
     0
 77
     0
 78
     4
170
     0
171
     2
172
     0
173
     0
174
     0
175
     0
176
     0
177
     0
178
     0
  0
ENDTAB
  0
ENDSEC
  0
SECTION
  2
BLOCKS
  0
BLOCK
  8
0
  2
$MODEL_SPACE
 70
     0
 10
0.0
 20
0.0
 30
0.0
  3
$MODEL_SPACE
  1

  0
ENDBLK
  5
21
  8
0
  0
BLOCK
 67
     1
  8
0
  2
$PAPER_SPACE
 70
     0
 10
0.0
 20
0.0
 30
0.0
  3
$PAPER_SPACE
  1

  0
ENDBLK
  5
1D
 67
     1
  8
0
  0
BLOCK
  8
0
  2
_FILLED
 70
     0
 10
0.0
 20
0.0
 30
0.0
  3
_FILLED
  1

  0
SOLID
  5
309E9
  8
0
  6
BYBLOCK
 62
     0
 10
0.0
 20
0.0
 30
0.0
 11
-1.0
 21
0.1666666667
 31
0.0
 12
-1.0
 22
-0.1666666667
 32
0.0
 13
-1.0
 23
-0.1666666667
 33
0.0
  0
ENDBLK
  5
309EA
  8
0
  6
BYBLOCK
 62
     0
  0
ENDSEC
  0
SECTION
  2
ENTITIES
  0
ATTDEF
  5
26A5B
  8
DEFPOINTS
 10
7104.71965582278699
 20
190.4747562744236973
 30
0.0
 40
0.001
  1
P32832-LV
  3

  2
MODELNUMBER
 70
     0
1001
ACDBATTR
1070
     0
1070
     1
  0
ATTDEF
  5
26A5C
  8
DEFPOINTS
 10
7104.7195300131288604
 20
190.4730894340445957
 30
0.0
 40
0.001
  1
AILERON
  3

  2
TRADENAME
 70
     0
1001
ACDBATTR
1070
     0
1070
     1
  0
ATTDEF
  5
26A5D
  8
DEFPOINTS
 10
7104.71965582278699
 20
190.4714229410903954
 30
0.0
 40
0.001
  1
BATH FAUCET
  3

  2
PRODUCT
 70
     0
1001
ACDBATTR
1070
     0
1070
     1
  0
LINE
  5
3202E
  8
0
 10
7100.7058269621584259
 20
189.918936881532602
 30
0.0
 11
7100.7058269621584259
 21
191.0212984213326024
 31
0.0
  0
LINE
  5
3202F
  8
0
 10
7100.5711736317216491
 20
189.918936881532602
 30
0.0
 11
7100.5711736317216491
 21
191.0212984213326024
 31
0.0
  0
LINE
  5
32030
  8
0
  6
CONTINUOUS
 10
7104.1797141164161076
 20
180.1422220479167891
 30
0.0
 11
7104.1799137339376102
 21
180.1424216654395991
 31
0.0
1001
GRADIENTCOLOR1ACI
1070
     5
1001
GRADIENTCOLOR2ACI
1070
     2
1001
ACAD
1010
0.0
1020
0.0
1030
0.0
  0
LINE
  5
32031
  8
0
  6
CONTINUOUS
 10
7104.1797141164161076
 20
180.1245443783870996
 30
0.0
 11
7104.1806317804466744
 21
180.1254620424194002
 31
0.0
1001
GRADIENTCOLOR1ACI
1070
     5
1001
GRADIENTCOLOR2ACI
1070
     2
1001
ACAD
1010
0.0
1020
0.0
1030
0.0
  0
LINE
  5
32032
  8
0
  6
CONTINUOUS
 10
7104.1797141164161076
 20
180.1068667088574955
 30
0.0
 11
7104.1818318225687108
 21
180.1089844150110082
 31
0.0
1001
GRADIENTCOLOR1ACI
1070
     5
1001
GRADIENTCOLOR2ACI
1070
     2
1001
ACAD
1010
0.0
1020
0.0
1030
0.0
  0
LINE
  5
32033
  8
0
  6
CONTINUOUS
 10
7104.1799210420031159
 20
180.0893959649152123
 30
0.0
 11
7104.1834777448912064
 21
180.092952667803786
 31
0.0
1001
GRADIENTCOLOR1ACI
1070
     5
1001
GRADIENTCOLOR2ACI
1070
     2
1001
ACAD
1010
0.0
1020
0.0
1030
0.0
  0
LINE
  5
32034
  8
0
  6
CONTINUOUS
 10
7104.1806469328257663
 20
180.0724441862097933
 30
0.0
 11
7104.1855387705327303
 21
180.0773360239153078
 31
0.0
1001
GRADIENTCOLOR1ACI
1070
     5
1001
GRADIENTCOLOR2ACI
1070
     2
1001
ACAD
1010
0.0
1020
0.0
1030
0.0
  0
LINE
  5
32035
  8
0
  6
CONTINUOUS
 10
7104.1818542072651326
 20
180.0559737911185039
 30
0.0
 11
7104.1879884414365733
 21
180.0621080252903141
 31
0.0
1001
GRADIENTCOLOR1ACI
1070
     5
1001
GRADIENTCOLOR2ACI
1070
     2
1001
ACAD
1010
0.0
1020
0.0
1030
0.0
  0
LINE
  5
32036
  8
0
  6
CONTINUOUS
 10
7104.1835068427653823
 20
180.0399487570888937
 30
0.0
 11
7104.1908038392339222
 21
180.0472457535568935
 31
0.0
1001
GRADIENTCOLOR1ACI
1070
     5
1001
GRADIENTCOLOR2ACI
1070
     2
1001
ACAD
1010
0.0
1020
0.0
1030
0.0
  0
LINE
  5
32037
  8
0
  6
CONTINUOUS
 10
7104.1855741370691248
 20
180.0243383818628047
 30
0.0
 11
7104.1939649807200112
 21
180.0327292255149985
 31
0.0
1001
GRADIENTCOLOR1ACI
1070
     5
1001
GRADIENTCOLOR2ACI
1070
     2
1001
ACAD
1010
0.0
1020
0.0
1030
0.0
  0
LINE
  5
32038
  8
0
  6
CONTINUOUS
 10
7104.1880296929193719
 20
180.0091162681835897
 30
0.0
 11
7104.1974543424457806
 21
180.0185409177099984
 31
0.0
1001
GRADIENTCOLOR1ACI
1070
     5
1001
GRADIENTCOLOR2ACI
1070
     2
1001
ACAD
1010
0.0
1020
0.0
1030
0.0
  0
LINE
  5
32039
  8
0
  6
CONTINUOUS
 10
7104.1908506420895719
 20
179.9942595478260046
 30
0.0
 11
7104.2012564822480272
 21
180.0046653879822998
 31
0.0
1001
GRADIENTCOLOR1ACI
1070
     5
1001
GRADIENTCOLOR2ACI
1070
     2
1001
ACAD
1010
0.0
1020
0.0
1030
0.0
  0
LINE
  5
3203A
  8
0
  6
CONTINUOUS
 10
7104.1940170432044397
 20
179.9797482794093071
 30
0.0
 11
7104.2053577347332975
 21
179.9910889709377102
 31
0.0
1001
GRADIENTCOLOR1ACI
1070
     5
1001
GRADIENTCOLOR2ACI
1070
     2
1001
ACAD
1010
0.0
1020
0.0
1030
0.0
  0
LINE
  5
3203B
  8
0
  6
CONTINUOUS
 10
7104.1975114080305502
 20
179.9655649747064956
 30
0.0
 11
7104.2097459638416694
 21
179.977799530517899
 31
0.0
1001
GRADIENTCOLOR1ACI
1070
     5
1001
GRADIENTCOLOR2ACI
1070
     2
1001
ACAD
1010
0.0
1020
0.0
1030
0.0
  0
LINE
  5
3203C
  8
0
  6
CONTINUOUS
 10
7104.2013183243607273
 20
179.9516942215072106
 30
0.0
 11
7104.2144103600658127
 21
179.9647862572118981
 31
0.0
1001
GRADIENTCOLOR1ACI
1070
     5
1001
GRADIENTCOLOR2ACI
1070
     2
1001
ACAD
1010
0.0
1020
0.0
1030
0.0
  0
LINE
  5
3203D
  8
0
  6
CONTINUOUS
 10
7104.2054241524811005
 20
179.9381223800967859
 30
0.0
 11
7104.2193412729438933
 21
179.9520395005602893
 31
0.0
1001
GRADIENTCOLOR1ACI
1070
     5
1001
GRADIENTCOLOR2ACI
1070
     2
1001
ACAD
1010
0.0
1020
0.0
1030
0.0
  0
LINE
  5
3203E
  8
0
  6
CONTINUOUS
 10
7104.2098167785243277
 20
179.9248373366106932
 30
0.0
 11
7104.224530071762274
 21
179.9395506298488954
 31
0.0
1001
GRADIENTCOLOR1ACI
1070
     5
1001
GRADIENTCOLOR2ACI
1070
     2
1001
ACAD
1010
0.0
1020
0.0
1030
0.0
  0
LINE
  5
3203F
  8
0
  6
CONTINUOUS
 10
7104.2144854123062032
 20
179.911828300862993
 30
0.0
 11
7104.2299690289810314
 21
179.9273119175373097
 31
0.0
1001
GRADIENTCOLOR1ACI
1070
     5
1001
GRADIENTCOLOR2ACI
1070
     2
1001
ACAD
1010
0.0
1020
0.0
1030
0.0
  0
LINE
  5
32040
  8
0
  6
CONTINUOUS
 10
7104.2194204203142363
 20
179.8990856393411093
 30
0.0
 11
7104.2356512221631419
 21
179.9153164411891908
 31
0.0
1001
GRADIENTCOLOR1ACI
1070
     5
1001
GRADIENTCOLOR2ACI
1070
     2
1001
ACAD
1010
0.0
1020
0.0
1030
0.0
  0
LINE
  5
32041
  8
0
  6
CONTINUOUS
 10
7104.224613186795068
 20
179.8866007362927064
 30
0.0
 11
7104.2415704510931391
 21
179.9035580005896975
 31
0.0
1001
GRADIENTCOLOR1ACI
1070
     5
1001
GRADIENTCOLOR2ACI
1070
     2
1001
ACAD
1010
0.0
1020
0.0
1030
0.0
  0
LINE
  5
32042
  8
0
  6
CONTINUOUS
 10
7104.2300559975055876
 20
179.8743658774737924
 30
0.0
 11
7104.2477211674668069
 21
179.892031047434898
 31
0.0
1001
GRADIENTCOLOR1ACI
1070
     5
1001
GRADIENTCOLOR2ACI
1070
     2
1001
ACAD
1010
0.0
1020
0.0
1030
0.0
  0
LINE
  5
32043
  8
0
  6
CONTINUOUS
 10
7104.2357419419022335
 20
179.8623741523394983
 30
0.0
 11
7104.2540984150728036
 21
179.8807306255102105
 31
0.0
1001
GRADIENTCOLOR1ACI
1070
     5
1001
GRADIENTCOLOR2ACI
1070
     2
1001
ACAD
1010
0.0
1020
0.0
1030
0.0
  0
LINE
  5
32044
  8
0
  6
CONTINUOUS
 10
7104.2416648304688351
 20
179.8506193713766947
 30
0.0
 11
7104.2606977787845608
 21
179.8696523196933867
 31
0.0
1001
GRADIENTCOLOR1ACI
1070
     5
1001
GRADIENTCOLOR2ACI
1070
     2
1001
ACAD
1010
0.0
1020
0.0
1030
0.0
  0
LINE
  5
32045
  8
0
  6
CONTINUOUS
 10
7104.2478191245927519
 20
179.8390959959720021
 30
0.0
 11
7104.267515341060971
 21
179.858792212439198
 31
0.0
1001
GRADIENTCOLOR1ACI
1070
     5
1001
GRADIENTCOLOR2ACI
1070
     2
1001
ACAD
1010
0.0
1020
0.0
1030
0.0
  0
LINE
  5
32046
  8
0
  6
CONTINUOUS
 10
7104.2541998768920166
 20
179.8277990787406111
 30
0.0
 11
7104.2745476448126283
 21
179.8481468466613933
 31
0.0
1001
GRADIENTCOLOR1ACI
1070
     5
1001
GRADIENTCOLOR2ACI
1070
     2
1001
ACAD
1010
0.0
1020
0.0
1030
0.0
  0
LINE
  5
32047
  8
0
  6
CONTINUOUS
 10
7104.2608026803363828
 20
179.8167242126550889
 30
0.0
 11
7104.2817916618114396
 21
179.8377131941315952
 31
0.0
1001
GRADIENTCOLOR1ACI
1070
     5
1001
GRADIENTCOLOR2ACI
1070
     2
1001
ACAD
1010
0.0
1020
0.0
1030
0.0
  0
LINE
  5
32048
  8
0
  6
CONTINUOUS
 10
7104.2676236248489658
 20
179.8058674876380962
 30
0.0
 11
7104.2892447658878154
 21
179.8274886286785943
 31
0.0
1001
GRADIENTCOLOR1ACI
1070
     5
1001
GRADIENTCOLOR2ACI
1070
     2
1001
ACAD
1010
0.0
1020
0.0
1030
0.0
  0
LINE
  5
32049
  8
0
  6
CONTINUOUS
 10
7104.2746592602761666
 20
179.7952254535370002
 30
0.0
 11
7104.2969047103470075
 21
179.8174709036059085
 31
0.0
1001
GRADIENTCOLOR1ACI
1070
     5
1001
GRADIENTCOLOR2ACI
1070
     2
1001
ACAD
1010
0.0
1020
0.0
1030
0.0
  0
LINE
  5
3204A
  8
0
  6
CONTINUOUS
 10
7104.2819065648727701
 20
179.7847950886028912
 30
0.0
 11
7104.3047696091261969
 21
179.8076581328560053
 31
0.0
1001
GRADIENTCOLOR1ACI
1070
     5
1001
GRADIENTCOLOR2ACI
1070
     2
1001
ACAD
1010
0.0
1020
0.0
1030
0.0
  0
LINE
  5
3204B
  8
0
  6
CONTINUOUS
 10
7104.289362918560073
 20
179.7745737727597088
 30
0.0
 11
7104.312837921337632
 21
179.7980487755386889
 31
0.0
1001
GRADIENTCOLOR1ACI
1070
     5
1001
GRADIENTCOLOR2ACI
1070
     2
1001
ACAD
1010
0.0
1020
0.0
1030
0.0
  0
LINE
  5
3204C
  8
0
  6
CONTINUOUS
 10
7104.2970260804140707
 20
179.7645592650843014
 30
0.0
 11
7104.3211084388522067
 21
179.788641623522409
 31
0.0
1001
GRADIENTCOLOR1ACI
1070
     5
1001
GRADIENTCOLOR2ACI
1070
     2
1001
ACAD
1010
0.0
1020
0.0
1030
0.0
  0
LINE
  5
3204D
  8
0
  6
CONTINUOUS
 10
7104.3048941698843919
 20
179.7547496850251889
 30
0.0
 11
7104.3295802767079294
 21
179.7794357918479022
 31
0.0
1001
GRADIENTCOLOR1ACI
1070
     5
1001
GRADIENTCOLOR2ACI
1070
     2
1001
ACAD
1010
0.0
1020
0.0
1030
0.0
  0
LINE
  5
3204E
  8
0
  6
CONTINUOUS
 10
7104.3129656513701775
 20
179.7451434969819104
 30
0.0
 11
7104.3382528661768447
 21
179.7704307117874976
 31
0.0
1001
GRADIENTCOLOR1ACI
1070
     5
1001
GRADIENTCOLOR2ACI
1070
     2
1001
ACAD
1010
0.0
1020
0.0
1030
0.0
  0
LINE
  5
3204F
  8
0
  6
CONTINUOUS
 10
7104.3212393218591387
 20
179.7357394979410117
 30
0.0
 11
7104.3471259503367037
 21
179.7616261264194009
 31
0.0
1001
GRADIENTCOLOR1ACI
1070
     5
1001
GRADIENTCOLOR2ACI
1070
     2
1001
ACAD
1010
0.0
1020
0.0
1030
0.0
  0
LINE
  5
32050
  8
0
  6
CONTINUOUS
 10
7104.3297143013824098
 20
179.7265368079335133
 30
0.0
 11
7104.3561995820846278
 21
179.753022088638204
 31
0.0
1001
GRADIENTCOLOR1ACI
1070
     5
1001
GRADIENTCOLOR2ACI
1070
     2
1001
ACAD
1010
0.0
1020
0.0
1030
0.0
  0
LINE
  5
32051
  8
0
  6
CONTINUOUS
 10
7104.3383900261105737
 20
179.7175348631332099
 30
0.0
 11
7104.3654741245409241
 21
179.7446189615633898
 31
0.0
1001
GRADIENTCOLOR1ACI
1070
     5
1001
GRADIENTCOLOR2ACI
1070
     2
1001
ACAD
1010
0.0
1020
0.0
1030
0.0
  0
LINE
  5
32052
  8
0
  6
CONTINUOUS
 10
7104.3472662439780834
 20
179.7087334114706039
 30
0.0
 11
7104.3749502538630622
 21
179.7364174213560943
 31
0.0
1001
GRADIENTCOLOR1ACI
1070
     5
1001
GRADIENTCOLOR2ACI
1070
     2
1001
ACAD
1010
0.0
1020
0.0
1030
0.0
  0
LINE
  5
32053
  8
0
  6
CONTINUOUS
 10
7104.356343012716934
 20
179.7001325106799925
 30
0.0
 11
7104.3846289645280194
 21
179.7284184624917884
 31
0.0
1001
GRADIENTCOLOR1ACI
1070
     5
1001
GRADIENTCOLOR2ACI
1070
     2
1001
ACAD
1010
0.0
1020
0.0
1030
0.0
  0
LINE
  5
32054
  8
0
  6
CONTINUOUS
 10
7104.3656207003132295
 20
179.6917325287465133
 30
0.0
 11
7104.3945115771557539
 21
179.7206234055888956
 31
0.0
1001
GRADIENTCOLOR1ACI
1070
     5
1001
GRADIENTCOLOR2ACI
1070
     2
1001
ACAD
1010
0.0
1020
0.0
1030
0.0
  0
LINE
  5
32055
  8
0
  6
CONTINUOUS
 10
7104.37509998785481
 20
179.6835341467597971
 30
0.0
 11
7104.4045997490329682
 21
179.7130339079359942
 31
0.0
1001
GRADIENTCOLOR1ACI
1070
     5
1001
GRADIENTCOLOR2ACI
1070
     2
1001
ACAD
1010
0.0
1020
0.0
1030
0.0
  0
LINE
  5
32056
  8
0
  6
CONTINUOUS
 10
7104.3847818748527061
 20
179.6755383642266963
 30
0.0
 11
7104.414895487542708
 21
179.7056519769178067
 31
0.0
1001
GRADIENTCOLOR1ACI
1070
     5
1001
GRADIENTCOLOR2ACI
1070
     2
1001
ACAD
1010
0.0
1020
0.0
1030
0.0
  0
LINE
  5
32057
  8
0
  6
CONTINUOUS
 10
7104.3946676870946249
 20
179.667746506940091
 30
0.0
 11
7104.4254011667544546
 21
179.6984799865977038
 31
0.0
1001
GRADIENTCOLOR1ACI
1070
     5
1001
GRADIENTCOLOR2ACI
1070
     2
1001
ACAD
1010
0.0
1020
0.0
1030
0.0
  0
LINE
  5
32058
  8
0
  6
CONTINUOUS
 10
7104.4047590872351066
 20
179.6601602375500022
 30
0.0
 11
7104.4361195474730266
 21
179.6915206977874959
 31
0.0
1001
GRADIENTCOLOR1ACI
1070
     5
1001
GRADIENTCOLOR2ACI
1070
     2
1001
ACAD
1010
0.0
1020
0.0
1030
0.0
  0
LINE
  5
32059
  8
0
  6
CONTINUOUS
 10
7104.4150580882505892
 20
179.6527815690367049
 30
0.0
 11
7104.4470538012274119
 21
179.6847772820125044
 31
0.0
1001
GRADIENTCOLOR1ACI
1070
     5
1001
GRADIENTCOLOR2ACI
1070
     2
1001
ACAD
1010
0.0
1020
0.0
1030
0.0
  0
LINE
  5
3205A
  8
0
  6
CONTINUOUS
 10
7104.4255670700886185
 20
179.6456128813453006
 30
0.0
 11
7104.458207538626084
 21
179.6782533498812029
 31
0.0
1001
GRADIENTCOLOR1ACI
1070
     5
1001
GRADIENTCOLOR2ACI
1070
     2
1001
ACAD
1010
0.0
1020
0.0
1030
0.0
  0
LINE
  5
3205B
  8
0
  6
CONTINUOUS
 10
7104.4362887997858707
 20
179.6386569415126075
 30
0.0
 11
7104.469584842758195
 21
179.6719529844829992
 31
0.0
1001
GRADIENTCOLOR1ACI
1070
     5
1001
GRADIENTCOLOR2ACI
1070
     2
1001
ACAD
1010
0.0
1020
0.0
1030
0.0
  0
LINE
  5
3205C
  8
0
  6
CONTINUOUS
 10
7104.4472264555006404
 20
179.6319169276972048
 30
0.0
 11
7104.4811903083882498
 21
179.6658807805841036
 31
0.0
1001
GRADIENTCOLOR1ACI
1070
     5
1001
GRADIENTCOLOR2ACI
1070
     2
1001
ACAD
1010
0.0
1020
0.0
1030
0.0
  0
LINE
  5
3205D
  8
0
  6
CONTINUOUS
 10
7104.4583836549563785
 20
179.6253964576220881
 30
0.0
 11
7104.4930290878992309
 21
179.6600418905653953
 31
0.0
1001
GRADIENTCOLOR1ACI
1070
     5
1001
GRADIENTCOLOR2ACI
1070
     2
1001
ACAD
1010
0.0
1020
0.0
1030
0.0
  0
LINE
  5
3205E
  8
0
  6
CONTINUOUS
 10
7104.4697644889201911
 20
179.619099622057405
 30
0.0
 11
7104.5051069451328658
 21
179.6544420782693976
 31
0.0
1001
GRADIENTCOLOR1ACI
1070
     5
1001
GRADIENTCOLOR2ACI
1070
     2
1001
ACAD
1010
0.0
1020
0.0
1030
0.0
  0
LINE
  5
3205F
  8
0
  6
CONTINUOUS
 10
7104.481373560506654
 20
179.6130310241136101
 30
0.0
 11
7104.5174303185931421
 21
179.6490877821997003
 31
0.0
1001
GRADIENTCOLOR1ACI
1070
     5
1001
GRADIENTCOLOR2ACI
1070
     2
1001
ACAD
1010
0.0
1020
0.0
1030
0.0
  0
LINE
  5
32060
  8
0
  6
CONTINUOUS
 10
7104.4932160312146152
 20
179.6071958252929903
 30
0.0
 11
7104.5300063957911334
 21
179.6439861898689969
 31
0.0
1001
GRADIENTCOLOR1ACI
1070
     5
1001
GRADIENTCOLOR2ACI
1070
     2
1001
ACAD
1010
0.0
1020
0.0
1030
0.0
  0
LINE
  5
32061
  8
0
  6
CONTINUOUS
 10
7104.5052976749248046
 20
179.6015997994716997
 30
0.0
 11
7104.542843200999414
 21
179.6391453255457975
 31
0.0
1001
GRADIENTCOLOR1ACI
1070
     5
1001
GRADIENTCOLOR2ACI
1070
     2
1001
ACAD
1010
0.0
1020
0.0
1030
0.0
  0
LINE
  5
32062
  8
0
  6
CONTINUOUS
 10
7104.5176249412388643
 20
179.59624939625769
 30
0.0
 11
7104.5559496992136701
 21
179.6345741542324106
 31
0.0
1001
GRADIENTCOLOR1ACI
1070
     5
1001
GRADIENTCOLOR2ACI
1070
     2
1001
ACAD
1010
0.0
1020
0.0
1030
0.0
  0
LINE
  5
32063
  8
0
  6
CONTINUOUS
 10
7104.5302050300424526
 20
179.5911518155305941
 30
0.0
 11
7104.5693359199858605
 21
179.6302827054744
 31
0.0
1001
GRADIENTCOLOR1ACI
1070
     5
1001
GRADIENTCOLOR2ACI
1070
     2
1001
ACAD
1010
0.0
1020
0.0
1030
0.0
  0
LINE
  5
32064
  8
0
  6
CONTINUOUS
 10
7104.5430459794579292
 20
179.5863150954176035
 30
0.0
 11
7104.5830131056545724
 21
179.626282221613593
 31
0.0
1001
GRADIENTCOLOR1ACI
1070
     5
1001
GRADIENTCOLOR2ACI
1070
     2
1001
ACAD
1010
0.0
1020
0.0
1030
0.0
  0
LINE
  5
32065
  8
0
  6
CONTINUOUS
 10
7104.5561567701215608
 20
179.5817482165518868
 30
0.0
 11
7104.5969938900161651
 21
179.6225853364452973
 31
0.0
1001
GRADIENTCOLOR1ACI
1070
     5
1001
GRADIENTCOLOR2ACI
1070
     2
1001
ACAD
1010
0.0
1020
0.0
1030
0.0
  0
LINE
  5
32066
  8
0
  6
CONTINUOUS
 10
7104.5695474493268193
 20
179.5774612262262906
 30
0.0
 11
7104.6112925151737727
 21
179.6192062920744945
 31
0.0
1001
GRADIENTCOLOR1ACI
1070
     5
1001
GRADIENTCOLOR2ACI
1070
     2
1001
ACAD
1010
0.0
1020
0.0
1030
0.0
  0
LINE
  5
32067
  8
0
  6
CONTINUOUS
 10
7104.5832292797003902
 20
179.5734653870703141
 30
0.0
 11
7104.6259250968960259
 21
179.616161204265893
 31
0.0
1001
GRADIENTCOLOR1ACI
1070
     5
1001
GRADIENTCOLOR2ACI
1070
     2
1001
ACAD
1010
0.0
1020
0.0
1030
0.0
  0
LINE
  5
32068
  8
0
  6
CONTINUOUS
 10
7104.5972149183990041
 20
179.5697733562404892
 30
0.0
 11
7104.640909952234324
 21
179.6134683900739049
 31
0.0
1001
GRADIENTCOLOR1ACI
1070
     5
1001
GRADIENTCOLOR2ACI
1070
     2
1001
ACAD
1010
0.0
1020
0.0
1030
0.0
  0
LINE
  5
32069
  8
0
  6
CONTINUOUS
 10
7104.6115186346351038
 20
179.5663994029463026
 30
0.0
 11
7104.6562680081406143
 21
179.6111487764511025
 31
0.0
1001
GRADIENTCOLOR1ACI
1070
     5
1001
GRADIENTCOLOR2ACI
1070
     2
1001
ACAD
1010
0.0
1020
0.0
1030
0.0
  0
LINE
  5
3206A
  8
0
  6
CONTINUOUS
 10
7104.6261565758786674
 20
179.5633596746583862
 30
0.0
 11
7104.6720233168261984
 21
179.6092264156067984
 31
0.0
1001
GRADIENTCOLOR1ACI
1070
     5
1001
GRADIENTCOLOR2ACI
1070
     2
1001
ACAD
1010
0.0
1020
0.0
1030
0.0
  0
LINE
  5
3206B
  8
0
  6
CONTINUOUS
 10
7104.6411470965931585
 20
179.5606725258442111
 30
0.0
 11
7104.6882037139675958
 21
179.6077291432189895
 31
0.0
1001
GRADIENTCOLOR1ACI
1070
     5
1001
GRADIENTCOLOR2ACI
1070
     2
1001
ACAD
1010
0.0
1020
0.0
1030
0.0
  0
LINE
  5
3206C
  8
0
  6
CONTINUOUS
 10
7104.6565111683048599
 20
179.5583589280261094
 30
0.0
 11
7104.7048416713387269
 21
179.6066894310600048
 31
0.0
1001
GRADIENTCOLOR1ACI
1070
     5
1001
GRADIENTCOLOR2ACI
1070
     2
1001
ACAD
1010
0.0
1020
0.0
1030
0.0
  0
LINE
  5
3206D
  8
0
  6
CONTINUOUS
 10
7104.6722728968697993
 20
179.5564429870613026
 30
0.0
 11
7104.7219754190282401
 21
179.6061455092194876
 31
0.0
1001
GRADIENTCOLOR1ACI
1070
     5
1001
GRADIENTCOLOR2ACI
1070
     2
1001
ACAD
1010
0.0
1020
0.0
1030
0.0
  0
LINE
  5
3206E
  8
0
  6
CONTINUOUS
 10
7104.6884601832862245
 20
179.5549526039488057
 30
0.0
 11
7104.7396504495536647
 21
179.6061428702163028
 31
0.0
1001
GRADIENTCOLOR1ACI
1070
     5
1001
GRADIENTCOLOR2ACI
1070
     2
1001
ACAD
1010
0.0
1020
0.0
1030
0.0
  0
LINE
  5
3206F
  8
0
  6
CONTINUOUS
 10
7105.2820067806633233
 20
180.1484992013259898
 30
0.0
 11
7105.2820763212348538
 21
180.1485687418966961
 31
0.0
1001
GRADIENTCOLOR1ACI
1070
     5
1001
GRADIENTCOLOR2ACI
1070
     2
1001
ACAD
1010
0.0
1020
0.0
1030
0.0
  0
LINE
  5
32070
  8
0
  6
CONTINUOUS
 10
7104.7051055798810921
 20
179.5539203310135861
 30
0.0
 11
7104.7579215761643354
 21
179.6067363272968862
 31
0.0
1001
GRADIENTCOLOR1ACI
1070
     5
1001
GRADIENTCOLOR2ACI
1070
     2
1001
ACAD
1010
0.0
1020
0.0
1030
0.0
  0
LINE
  5
32071
  8
0
  6
CONTINUOUS
 10
7105.2814133235842746
 20
180.1302280747156885
 30
0.0
 11
7105.2820763212266684
 21
180.1308910723593897
 31
0.0
1001
GRADIENTCOLOR1ACI
1070
     5
1001
GRADIENTCOLOR2ACI
1070
     2
1001
ACAD
1010
0.0
1020
0.0
1030
0.0
  0
LINE
  5
32072
  8
0
  6
CONTINUOUS
 10
7104.7222474175141542
 20
179.5533844991167882
 30
0.0
 11
7104.7768558180514447
 21
179.6079928996531976
 31
0.0
1001
GRADIENTCOLOR1ACI
1070
     5
1001
GRADIENTCOLOR2ACI
1070
     2
1001
ACAD
1010
0.0
1020
0.0
1030
0.0
  0
LINE
  5
32073
  8
0
  6
CONTINUOUS
 10
7105.2801567512269685
 20
180.1112938328298014
 30
0.0
 11
7105.2820763212203019
 21
180.1132134028221117
 31
0.0
1001
GRADIENTCOLOR1ACI
1070
     5
1001
GRADIENTCOLOR2ACI
1070
     2
1001
ACAD
1010
0.0
1020
0.0
1030
0.0
  0
LINE
  5
32074
  8
0
  6
CONTINUOUS
 10
7104.7399313168316439
 20
179.5533907289060096
 30
0.0
 11
7104.7965365600357472
 21
179.6099959721098003
 31
0.0
1001
GRADIENTCOLOR1ACI
1070
     5
1001
GRADIENTCOLOR2ACI
1070
     2
1001
ACAD
1010
0.0
1020
0.0
1030
0.0
  0
LINE
  5
32075
  8
0
  6
CONTINUOUS
 10
7105.27815367877065
 20
180.0916130908435093
 30
0.0
 11
7105.2820022470550612
 21
180.0954616591286026
 31
0.0
1001
GRADIENTCOLOR1ACI
1070
     5
1001
GRADIENTCOLOR2ACI
1070
     2
1001
ACAD
1010
0.0
1020
0.0
1030
0.0
  0
LINE
  5
32076
  8
0
  6
CONTINUOUS
 10
7104.7582122570638603
 20
179.553993999607286
 30
0.0
 11
7104.817069752961288
 21
179.6128514955051969
 31
0.0
1001
GRADIENTCOLOR1ACI
1070
     5
1001
GRADIENTCOLOR2ACI
1070
     2
1001
ACAD
1010
0.0
1020
0.0
1030
0.0
  0
LINE
  5
32077
  8
0
  6
CONTINUOUS
 10
7105.2752981553749123
 20
180.0710798979183949
 30
0.0
 11
7105.2813989763553764
 21
180.0771807188976936
 31
0.0
1001
GRADIENTCOLOR1ACI
1070
     5
1001
GRADIENTCOLOR2ACI
1070
     2
1001
ACAD
1010
0.0
1020
0.0
1030
0.0
  0
LINE
  5
32078
  8
0
  6
CONTINUOUS
 10
7104.7771574771131782
 20
179.5552615501275113
 30
0.0
 11
7104.8385935346150291
 21
179.6166976076287938
 31
0.0
1001
GRADIENTCOLOR1ACI
1070
     5
1001
GRADIENTCOLOR2ACI
1070
     2
1001
ACAD
1010
0.0
1020
0.0
1030
0.0
  0
LINE
  5
32079
  8
0
  6
CONTINUOUS
 10
7105.2714520432509744
 20
180.0495561162651939
 30
0.0
 11
7105.2801314258349521
 21
180.0582354988478073
 31
0.0
1001
GRADIENTCOLOR1ACI
1070
     5
1001
GRADIENTCOLOR2ACI
1070
     2
1001
ACAD
1010
0.0
1020
0.0
1030
0.0
  0
LINE
  5
3207A
  8
0
  6
CONTINUOUS
 10
7104.7968506601564513
 20
179.5572770636406972
 30
0.0
 11
7104.8612939138947695
 21
179.6217203173789017
 31
0.0
1001
GRADIENTCOLOR1ACI
1070
     5
1001
GRADIENTCOLOR2ACI
1070
     2
1001
ACAD
1010
0.0
1020
0.0
1030
0.0
  0
LINE
  5
3207B
  8
0
  6
CONTINUOUS
 10
7105.266429333501037
 20
180.0268557369853966
 30
0.0
 11
7105.2781159123205725
 21
180.0385423158049036
 31
0.0
1001
GRADIENTCOLOR1ACI
1070
     5
1001
GRADIENTCOLOR2ACI
1070
     2
1001
ACAD
1010
0.0
1020
0.0
1030
0.0
  0
LINE
  5
3207C
  8
0
  6
CONTINUOUS
 10
7104.8173981746849677
 20
179.5601469086406041
 30
0.0
 11
7104.8854319827778454
 21
179.6281807167329134
 31
0.0
1001
GRADIENTCOLOR1ACI
1070
     5
1001
GRADIENTCOLOR2ACI
1070
     2
1001
ACAD
1010
0.0
1020
0.0
1030
0.0
  0
LINE
  5
3207D
  8
0
  6
CONTINUOUS
 10
7105.2599689341477642
 20
180.0027176681016954
 30
0.0
 11
7105.2752460673200403
 21
180.0179948012753925
 31
0.0
1001
GRADIENTCOLOR1ACI
1070
     5
1001
GRADIENTCOLOR2ACI
1070
     2
1001
ACAD
1010
0.0
1020
0.0
1030
0.0
  0
LINE
  5
3207E
  8
0
  6
CONTINUOUS
 10
7104.8389387652787264
 20
179.5640098297041902
 30
0.0
 11
7104.9113951281342452
 21
179.6364661925589985
 31
0.0
1001
GRADIENTCOLOR1ACI
1070
     5
1001
GRADIENTCOLOR2ACI
1070
     2
1001
ACAD
1010
0.0
1020
0.0
1030
0.0
  0
LINE
  5
3207F
  8
0
  6
CONTINUOUS
 10
7105.2516834583211676
 20
179.9767545227460062
 30
0.0
 11
7105.2713831462569942
 21
179.9964542106822023
 31
0.0
1001
GRADIENTCOLOR1ACI
1070
     5
1001
GRADIENTCOLOR2ACI
1070
     2
1001
ACAD
1010
0.0
1020
0.0
1030
0.0
  0
LINE
  5
32080
  8
0
  6
CONTINUOUS
 10
7104.8616593642145745
 20
179.5690527591110879
 30
0.0
 11
7104.9398047510439937
 21
179.6471981459395124
 31
0.0
1001
GRADIENTCOLOR1ACI
1070
     5
1001
GRADIENTCOLOR2ACI
1070
     2
1001
ACAD
1010
0.0
1020
0.0
1030
0.0
  0
LINE
  5
32081
  8
0
  6
CONTINUOUS
 10
7105.2409515049403126
 20
179.9483448998358028
 30
0.0
 11
7105.2663402168500397
 21
179.9737336117455868
 31
0.0
1001
GRADIENTCOLOR1ACI
1070
     5
1001
GRADIENTCOLOR2ACI
1070
     2
1001
ACAD
1010
0.0
1020
0.0
1030
0.0
  0
LINE
  5
32082
  8
0
  6
CONTINUOUS
 10
7104.8858225549065537
 20
179.5755382802722124
 30
0.0
 11
7104.9717830709705595
 21
179.6614987963365877
 31
0.0
1001
GRADIENTCOLOR1ACI
1070
     5
1001
GRADIENTCOLOR2ACI
1070
     2
1001
ACAD
1010
0.0
1020
0.0
1030
0.0
  0
LINE
  5
32083
  8
0
  6
CONTINUOUS
 10
7105.2266508545435499
 20
179.9163665799090097
 30
0.0
 11
7105.2598546956878636
 21
179.9495704210548013
 31
0.0
1001
GRADIENTCOLOR1ACI
1070
     5
1001
GRADIENTCOLOR2ACI
1070
     2
1001
ACAD
1010
0.0
1020
0.0
1030
0.0
  0
LINE
  5
32084
  8
0
  6
CONTINUOUS
 10
7104.9118183329983367
 20
179.5838563888347039
 30
0.0
 11
7105.0098203573488718
 21
179.6818584131850116
 31
0.0
1001
GRADIENTCOLOR1ACI
1070
     5
1001
GRADIENTCOLOR2ACI
1070
     2
1001
ACAD
1010
0.0
1020
0.0
1030
0.0
  0
LINE
  5
32085
  8
0
  6
CONTINUOUS
 10
7105.2062912376959503
 20
179.8783292935310101
 30
0.0
 11
7105.2515365871267932
 21
179.9235746429627056
 31
0.0
1001
GRADIENTCOLOR1ACI
1070
     5
1001
GRADIENTCOLOR2ACI
1070
     2
1001
ACAD
1010
0.0
1020
0.0
1030
0.0
  0
LINE
  5
32086
  8
0
  6
CONTINUOUS
 10
7104.9402732067692341
 20
179.594633593075514
 30
0.0
 11
7105.0629988380524082
 21
179.7173592243584039
 31
0.0
1001
GRADIENTCOLOR1ACI
1070
     5
1001
GRADIENTCOLOR2ACI
1070
     2
1001
ACAD
1010
0.0
1020
0.0
1030
0.0
  0
LINE
  5
32087
  8
0
  6
CONTINUOUS
 10
7105.1707904265213074
 20
179.8251508128280136
 30
0.0
 11
7105.2407593828856989
 21
179.8951197691922061
 31
0.0
1001
GRADIENTCOLOR1ACI
1070
     5
1001
GRADIENTCOLOR2ACI
1070
     2
1001
ACAD
1010
0.0
1020
0.0
1030
0.0
  0
LINE
  5
32088
  8
0
  6
CONTINUOUS
 10
7104.9723212838198378
 20
179.6090040005969115
 30
0.0
 11
7105.2263889753639887
 21
179.8630716921410908
 31
0.0
1001
GRADIENTCOLOR1ACI
1070
     5
1001
GRADIENTCOLOR2ACI
1070
     2
1001
ACAD
1010
0.0
1020
0.0
1030
0.0
  0
LINE
  5
32089
  8
0
  6
CONTINUOUS
 10
7105.0104905333328134
 20
179.6294955805794018
 30
0.0
 11
7105.2058973953817258
 21
179.8249024426289111
 31
0.0
1001
GRADIENTCOLOR1ACI
1070
     5
1001
GRADIENTCOLOR2ACI
1070
     2
1001
ACAD
1010
0.0
1020
0.0
1030
0.0
  0
LINE
  5
3208A
  8
0
  6
CONTINUOUS
 10
7105.064135985451685
 20
179.6654633631700051
 30
0.0
 11
7105.1699296127917478
 21
179.7712569905087037
 31
0.0
1001
GRADIENTCOLOR1ACI
1070
     5
1001
GRADIENTCOLOR2ACI
1070
     2
1001
ACAD
1010
0.0
1020
0.0
1030
0.0
  0
LINE
  5
3208B
  8
0
  6
CONTINUOUS
 10
7104.3884183927730191
 20
179.6726294539944888
 30
0.0
 11
7104.29902691566258
 21
179.7620209311037911
 31
0.0
1001
GRADIENTCOLOR1ACI
1070
     5
1001
GRADIENTCOLOR2ACI
1070
     2
1001
ACAD
1010
0.0
1020
0.0
1030
0.0
  0
LINE
  5
3208C
  8
0
  6
CONTINUOUS
 10
7104.4461771537671666
 20
179.6325483625305992
 30
0.0
 11
7104.2589458242000546
 21
179.8197796920973985
 31
0.0
1001
GRADIENTCOLOR1ACI
1070
     5
1001
GRADIENTCOLOR2ACI
1070
     2
1001
ACAD
1010
0.0
1020
0.0
1030
0.0
  0
LINE
  5
3208D
  8
0
  6
CONTINUOUS
 10
7104.4853915586836592
 20
179.6110116271437107
 30
0.0
 11
7104.2374090888133651
 21
179.8589940970138912
 31
0.0
1001
GRADIENTCOLOR1ACI
1070
     5
1001
GRADIENTCOLOR2ACI
1070
     2
1001
ACAD
1010
0.0
1020
0.0
1030
0.0
  0
LINE
  5
3208E
  8
0
  6
CONTINUOUS
 10
7104.5179805203197247
 20
179.5961003350365104
 30
0.0
 11
7104.3897375992537491
 21
179.7243432561027134
 31
0.0
1001
GRADIENTCOLOR1ACI
1070
     5
1001
GRADIENTCOLOR2ACI
1070
     2
1001
ACAD
1010
0.0
1020
0.0
1030
0.0
  0
LINE
  5
3208F
  8
0
  6
CONTINUOUS
 10
7104.2979840428761236
 20
179.8160968124803958
 30
0.0
 11
7104.2224977967071027
 21
179.8915830586508093
 31
0.0
1001
GRADIENTCOLOR1ACI
1070
     5
1001
GRADIENTCOLOR2ACI
1070
     2
1001
ACAD
1010
0.0
1020
0.0
1030
0.0
  0
LINE
  5
32090
  8
0
  6
CONTINUOUS
 10
7104.5467829235458339
 20
179.5849756013394938
 30
0.0
 11
7104.4468719445212628
 21
179.6848865803657986
 31
0.0
1001
GRADIENTCOLOR1ACI
1070
     5
1001
GRADIENTCOLOR2ACI
1070
     2
1001
ACAD
1010
0.0
1020
0.0
1030
0.0
  0
LINE
  5
32091
  8
0
  6
CONTINUOUS
 10
7104.2585273671393225
 20
179.8732311577471137
 30
0.0
 11
7104.2113730630089776
 21
179.9203854618774869
 31
0.0
1001
GRADIENTCOLOR1ACI
1070
     5
1001
GRADIENTCOLOR2ACI
1070
     2
1001
ACAD
1010
0.0
1020
0.0
1030
0.0
  0
LINE
  5
32092
  8
0
  6
CONTINUOUS
 10
7104.5730279494928254
 20
179.5764082449234138
 30
0.0
 11
7104.4859407057565477
 21
179.6634954886582136
 31
0.0
1001
GRADIENTCOLOR1ACI
1070
     5
1001
GRADIENTCOLOR2ACI
1070
     2
1001
ACAD
1010
0.0
1020
0.0
1030
0.0
  0
LINE
  5
32093
  8
0
  6
CONTINUOUS
 10
7104.2371362754329311
 20
179.9122999189843028
 30
0.0
 11
7104.2028057065926987
 21
179.9466304878231995
 31
0.0
1001
GRADIENTCOLOR1ACI
1070
     5
1001
GRADIENTCOLOR2ACI
1070
     2
1001
ACAD
1010
0.0
1020
0.0
1030
0.0
  0
LINE
  5
32094
  8
0
  6
CONTINUOUS
 10
7104.5973823333488326
 20
179.569731530597295
 30
0.0
 11
7104.5184555219921094
 21
179.6486583419543024
 31
0.0
1001
GRADIENTCOLOR1ACI
1070
     5
1001
GRADIENTCOLOR2ACI
1070
     2
1001
ACAD
1010
0.0
1020
0.0
1030
0.0
  0
LINE
  5
32095
  8
0
  6
CONTINUOUS
 10
7104.222299128728082
 20
179.9448147352179035
 30
0.0
 11
7104.1961289922674041
 21
179.9709848716790077
 31
0.0
1001
GRADIENTCOLOR1ACI
1070
     5
1001
GRADIENTCOLOR2ACI
1070
     2
1001
ACAD
1010
0.0
1020
0.0
1030
0.0
  0
LINE
  5
32096
  8
0
  6
CONTINUOUS
 10
7104.6202564284785694
 20
179.5645351049971907
 30
0.0
 11
7104.547210634730618
 21
179.6375808987455116
 31
0.0
1001
GRADIENTCOLOR1ACI
1070
     5
1001
GRADIENTCOLOR2ACI
1070
     2
1001
ACAD
1010
0.0
1020
0.0
1030
0.0
  0
LINE
  5
32097
  8
0
  6
CONTINUOUS
 10
7104.211221685520286
 20
179.9735698479564121
 30
0.0
 11
7104.1909325666656514
 21
179.9938589668088014
 31
0.0
1001
GRADIENTCOLOR1ACI
1070
     5
1001
GRADIENTCOLOR2ACI
1070
     2
1001
ACAD
1010
0.0
1020
0.0
1030
0.0
  0
LINE
  5
32098
  8
0
  6
CONTINUOUS
 10
7104.6419243832124266
 20
179.5605448197929945
 30
0.0
 11
7104.573421886964752
 21
179.6290473160389922
 31
0.0
1001
GRADIENTCOLOR1ACI
1070
     5
1001
GRADIENTCOLOR2ACI
1070
     2
1001
ACAD
1010
0.0
1020
0.0
1030
0.0
  0
LINE
  5
32099
  8
0
  6
CONTINUOUS
 10
7104.2026881028123171
 20
179.9997811001925072
 30
0.0
 11
7104.1869422814615973
 21
180.0155269215426017
 31
0.0
1001
GRADIENTCOLOR1ACI
1070
     5
1001
GRADIENTCOLOR2ACI
1070
     2
1001
ACAD
1010
0.0
1020
0.0
1030
0.0
  0
LINE
  5
3209A
  8
0
  6
CONTINUOUS
 10
7104.6625802569687949
 20
179.5575666155652073
 30
0.0
 11
7104.5977504348693401
 21
179.6223964376657136
 31
0.0
1001
GRADIENTCOLOR1ACI
1070
     5
1001
GRADIENTCOLOR2ACI
1070
     2
1001
ACAD
1010
0.0
1020
0.0
1030
0.0
  0
LINE
  5
3209B
  8
0
  6
CONTINUOUS
 10
7104.1960372244393511
 20
180.02410964809539
 30
0.0
 11
7104.1839640772332132
 21
180.0361827953001068
 31
0.0
1001
GRADIENTCOLOR1ACI
1070
     5
1001
GRADIENTCOLOR2ACI
1070
     2
1001
ACAD
1010
0.0
1020
0.0
1030
0.0
  0
LINE
  5
3209C
  8
0
  6
CONTINUOUS
 10
7104.6823674613706316
 20
179.5554570806926051
 30
0.0
 11
7104.6206038282316513
 21
179.6172207138316139
 31
0.0
1001
GRADIENTCOLOR1ACI
1070
     5
1001
GRADIENTCOLOR2ACI
1070
     2
1001
ACAD
1010
0.0
1020
0.0
1030
0.0
  0
LINE
  5
3209D
  8
0
  6
CONTINUOUS
 10
7104.190861500605024
 20
180.0469630414592075
 30
0.0
 11
7104.181854542362089
 21
180.0559699997023131
 31
0.0
1001
GRADIENTCOLOR1ACI
1070
     5
1001
GRADIENTCOLOR2ACI
1070
     2
1001
ACAD
1010
0.0
1020
0.0
1030
0.0
  0
LINE
  5
3209E
  8
0
  6
CONTINUOUS
 10
7104.7013955683542008
 20
179.5541066432411128
 30
0.0
 11
7104.6422546303529089
 21
179.613247581241211
 31
0.0
1001
GRADIENTCOLOR1ACI
1070
     5
1001
GRADIENTCOLOR2ACI
1070
     2
1001
ACAD
1010
0.0
1020
0.0
1030
0.0
  0
LINE
  5
3209F
  8
0
  6
CONTINUOUS
 10
7104.1868883680153886
 20
180.0686138435792998
 30
0.0
 11
7104.1805041049101419
 21
180.0749981066834948
 31
0.0
1001
GRADIENTCOLOR1ACI
1070
     5
1001
GRADIENTCOLOR2ACI
1070
     2
1001
ACAD
1010
0.0
1020
0.0
1030
0.0
  0
LINE
  5
320A0
  8
0
  6
CONTINUOUS
 10
7104.7197505442973124
 20
179.5534293368270937
 30
0.0
 11
7104.6628959272511565
 21
179.6102839538731075
 31
0.0
1001
GRADIENTCOLOR1ACI
1070
     5
1001
GRADIENTCOLOR2ACI
1070
     2
1001
ACAD
1010
0.0
1020
0.0
1030
0.0
  0
LINE
  5
320A1
  8
0
  6
CONTINUOUS
 10
7104.183924740646944
 20
180.0892551404770074
 30
0.0
 11
7104.1798267984968334
 21
180.0933530826272033
 31
0.0
1001
GRADIENTCOLOR1ACI
1070
     5
1001
GRADIENTCOLOR2ACI
1070
     2
1001
ACAD
1010
0.0
1020
0.0
1030
0.0
  0
LINE
  5
320A2
  8
0
  6
CONTINUOUS
 10
7104.7375013064156519
 20
179.5533562442388984
 30
0.0
 11
7104.6826704948416591
 21
179.6081870558124933
 31
0.0
1001
GRADIENTCOLOR1ACI
1070
     5
1001
GRADIENTCOLOR2ACI
1070
     2
1001
ACAD
1010
0.0
1020
0.0
1030
0.0
  0
LINE
  5
320A3
  8
0
  6
CONTINUOUS
 10
7104.181827842587154
 20
180.109029708067311
 30
0.0
 11
7104.1797141164161076
 21
180.111143434237988
 31
0.0
1001
GRADIENTCOLOR1ACI
1070
     5
1001
GRADIENTCOLOR2ACI
1070
     2
1001
ACAD
1010
0.0
1020
0.0
1030
0.0
  0
LINE
  5
320A4
  8
0
  6
CONTINUOUS
 10
7104.7547040997869772
 20
179.5538311203958131
 30
0.0
 11
7104.7016874696319064
 21
179.6068477505509122
 31
0.0
1001
GRADIENTCOLOR1ACI
1070
     5
1001
GRADIENTCOLOR2ACI
1070
     2
1001
ACAD
1010
0.0
1020
0.0
1030
0.0
  0
LINE
  5
320A5
  8
0
  6
CONTINUOUS
 10
7104.1804885373230718
 20
180.1280466828584963
 30
0.0
 11
7104.1797141164161076
 21
180.1288211037675921
 31
0.0
1001
GRADIENTCOLOR1ACI
1070
     5
1001
GRADIENTCOLOR2ACI
1070
     2
1001
ACAD
1010
0.0
1020
0.0
1030
0.0
  0
LINE
  5
320A6
  8
0
  6
CONTINUOUS
 10
7104.7714055209353319
 20
179.5548073687772046
 30
0.0
 11
7104.7200325081939809
 21
179.6061803815181861
 31
0.0
1001
GRADIENTCOLOR1ACI
1070
     5
1001
GRADIENTCOLOR2ACI
1070
     2
1001
ACAD
1010
0.0
1020
0.0
1030
0.0
  0
LINE
  5
320A7
  8
0
  6
CONTINUOUS
 10
7104.1798211682908004
 20
180.1463917214209971
 30
0.0
 11
7104.1797141164161076
 21
180.14649877329731
 31
0.0
1001
GRADIENTCOLOR1ACI
1070
     5
1001
GRADIENTCOLOR2ACI
1070
     2
1001
ACAD
1010
0.0
1020
0.0
1030
0.0
  0
LINE
  5
320A8
  8
0
  6
CONTINUOUS
 10
7104.7876446673335522
 20
179.5562458919091
 30
0.0
 11
7104.7377743003289652
 21
179.6061162589122944
 31
0.0
1001
GRADIENTCOLOR1ACI
1070
     5
1001
GRADIENTCOLOR2ACI
1070
     2
1001
ACAD
1010
0.0
1020
0.0
1030
0.0
  0
LINE
  5
320A9
  8
0
  6
CONTINUOUS
 10
7104.8034547034867501
 20
179.5581135252843978
 30
0.0
 11
7104.7549689198021952
 21
179.6065993089709139
 31
0.0
1001
GRADIENTCOLOR1ACI
1070
     5
1001
GRADIENTCOLOR2ACI
1070
     2
1001
ACAD
1010
0.0
1020
0.0
1030
0.0
  0
LINE
  5
320AA
  8
0
  6
CONTINUOUS
 10
7104.8188640263670095
 20
179.5603818719334868
 30
0.0
 11
7104.7716628311918612
 21
179.6075830671109088
 31
0.0
1001
GRADIENTCOLOR1ACI
1070
     5
1001
GRADIENTCOLOR2ACI
1070
     2
1001
ACAD
1010
0.0
1020
0.0
1030
0.0
  0
LINE
  5
320AB
  8
0
  6
CONTINUOUS
 10
7104.8338971488492462
 20
179.5630264189827017
 30
0.0
 11
7104.7878950284202801
 21
179.6090285394124066
 31
0.0
1001
GRADIENTCOLOR1ACI
1070
     5
1001
GRADIENTCOLOR2ACI
1070
     2
1001
ACAD
1010
0.0
1020
0.0
1030
0.0
  0
LINE
  5
320AC
  8
0
  6
CONTINUOUS
 10
7104.8485753803415719
 20
179.566025857019298
 30
0.0
 11
7104.8036985933640608
 21
179.6109026439976901
 31
0.0
1001
GRADIENTCOLOR1ACI
1070
     5
1001
GRADIENTCOLOR2ACI
1070
     2
1001
ACAD
1010
0.0
1020
0.0
1030
0.0
  0
LINE
  5
320AD
  8
0
  6
CONTINUOUS
 10
7104.8629173587651167
 20
179.5693615481247036
 30
0.0
 11
7104.8191018560946759
 21
179.6131770507948033
 31
0.0
1001
GRADIENTCOLOR1ACI
1070
     5
1001
GRADIENTCOLOR2ACI
1070
     2
1001
ACAD
1010
0.0
1020
0.0
1030
0.0
  0
LINE
  5
320AE
  8
0
  6
CONTINUOUS
 10
7104.876939471654623
 20
179.5730171047650003
 30
0.0
 11
7104.8341292746254112
 21
179.6158273017956901
 31
0.0
1001
GRADIENTCOLOR1ACI
1070
     5
1001
GRADIENTCOLOR2ACI
1070
     2
1001
ACAD
1010
0.0
1020
0.0
1030
0.0
  0
LINE
  5
320AF
  8
0
  6
CONTINUOUS
 10
7104.8906561933299599
 20
179.5769780526186992
 30
0.0
 11
7104.8488021128396213
 21
179.6188321331098052
 31
0.0
1001
GRADIENTCOLOR1ACI
1070
     5
1001
GRADIENTCOLOR2ACI
1070
     2
1001
ACAD
1010
0.0
1020
0.0
1030
0.0
  0
LINE
  5
320B0
  8
0
  6
CONTINUOUS
 10
7104.9040803576381222
 20
179.5812315578419884
 30
0.0
 11
7104.8631389704924004
 21
179.6221729449871987
 31
0.0
1001
GRADIENTCOLOR1ACI
1070
     5
1001
GRADIENTCOLOR2ACI
1070
     2
1001
ACAD
1010
0.0
1020
0.0
1030
0.0
  0
LINE
  5
320B1
  8
0
  6
CONTINUOUS
 10
7104.917223380573887
 20
179.585766204434691
 30
0.0
 11
7104.8771562028032349
 21
179.6258333822052862
 31
0.0
1001
GRADIENTCOLOR1ACI
1070
     5
1001
GRADIENTCOLOR2ACI
1070
     2
1001
ACAD
1010
0.0
1020
0.0
1030
0.0
  0
LINE
  5
320B2
  8
0
  6
CONTINUOUS
 10
7104.9300954435339008
 20
179.5905718110064129
 30
0.0
 11
7104.8908682565006529
 21
179.629798998037586
 31
0.0
1001
GRADIENTCOLOR1ACI
1070
     5
1001
GRADIENTCOLOR2ACI
1070
     2
1001
ACAD
1010
0.0
1020
0.0
1030
0.0
  0
LINE
  5
320B3
  8
0
  6
CONTINUOUS
 10
7104.9427056452022953
 20
179.5956392788665994
 30
0.0
 11
7104.9042879416656433
 21
179.6340569824018871
 31
0.0
1001
GRADIENTCOLOR1ACI
1070
     5
1001
GRADIENTCOLOR2ACI
1070
     2
1001
ACAD
1010
0.0
1020
0.0
1030
0.0
  0
LINE
  5
320B4
  8
0
  6
CONTINUOUS
 10
7104.9550621283369765
 20
179.6009604652614087
 30
0.0
 11
7104.9174266536820141
 21
179.6385959399158878
 31
0.0
1001
GRADIENTCOLOR1ACI
1070
     5
1001
GRADIENTCOLOR2ACI
1070
     2
1001
ACAD
1010
0.0
1020
0.0
1030
0.0
  0
LINE
  5
320B5
  8
0
  6
CONTINUOUS
 10
7104.9671721861386686
 20
179.6065280769892922
 30
0.0
 11
7104.9302945559165892
 21
179.6434057072100074
 31
0.0
1001
GRADIENTCOLOR1ACI
1070
     5
1001
GRADIENTCOLOR2ACI
1070
     2
1001
ACAD
1010
0.0
1020
0.0
1030
0.0
  0
LINE
  5
320B6
  8
0
  6
CONTINUOUS
 10
7104.9790423519789329
 20
179.6123355806782911
 30
0.0
 11
7104.9429007312037356
 21
179.6484772014532894
 31
0.0
1001
GRADIENTCOLOR1ACI
1070
     5
1001
GRADIENTCOLOR2ACI
1070
     2
1001
ACAD
1010
0.0
1020
0.0
1030
0.0
  0
LINE
  5
320B7
  8
0
  6
CONTINUOUS
 10
7104.9906784753866305
 20
179.6183771268001124
 30
0.0
 11
7104.9552533082442096
 21
179.65380229394259
 31
0.0
1001
GRADIENTCOLOR1ACI
1070
     5
1001
GRADIENTCOLOR2ACI
1070
     2
1001
ACAD
1010
0.0
1020
0.0
1030
0.0
  0
LINE
  5
320B8
  8
0
  6
CONTINUOUS
 10
7105.0020857866138613
 20
179.624647485102912
 30
0.0
 11
7104.9673595677122648
 21
179.6593737040051053
 31
0.0
1001
GRADIENTCOLOR1ACI
1070
     5
1001
GRADIENTCOLOR2ACI
1070
     2
1001
ACAD
1010
0.0
1020
0.0
1030
0.0
  0
LINE
  5
320B9
  8
0
  6
CONTINUOUS
 10
7105.0132689516340179
 20
179.6311419896127006
 30
0.0
 11
7104.9792260317362889
 21
179.6651849095107139
 31
0.0
1001
GRADIENTCOLOR1ACI
1070
     5
1001
GRADIENTCOLOR2ACI
1070
     2
1001
ACAD
1010
0.0
1020
0.0
1030
0.0
  0
LINE
  5
320BA
  8
0
  6
CONTINUOUS
 10
7105.0242321190562507
 20
179.6378564917189919
 30
0.0
 11
7104.9908585396951821
 21
179.6712300710809984
 31
0.0
1001
GRADIENTCOLOR1ACI
1070
     5
1001
GRADIENTCOLOR2ACI
1070
     2
1001
ACAD
1010
0.0
1020
0.0
1030
0.0
  0
LINE
  5
320BB
  8
0
  6
CONTINUOUS
 10
7105.0349789601641532
 20
179.6447873201420009
 30
0.0
 11
7105.0022623126205872
 21
179.6775039676853112
 31
0.0
1001
GRADIENTCOLOR1ACI
1070
     5
1001
GRADIENTCOLOR2ACI
1070
     2
1001
ACAD
1010
0.0
1020
0.0
1030
0.0
  0
LINE
  5
320BC
  8
0
  6
CONTINUOUS
 10
7105.0455127030209042
 20
179.6519312468136036
 30
0.0
 11
7105.0134420080566997
 21
179.6840019417786039
 31
0.0
1001
GRADIENTCOLOR1ACI
1070
     5
1001
GRADIENTCOLOR2ACI
1070
     2
1001
ACAD
1010
0.0
1020
0.0
1030
0.0
  0
LINE
  5
320BD
  8
0
  6
CONTINUOUS
 10
7105.0558361614866953
 20
179.6592854578786955
 30
0.0
 11
7105.0244017668610468
 21
179.6907198525032925
 31
0.0
1001
GRADIENTCOLOR1ACI
1070
     5
1001
GRADIENTCOLOR2ACI
1070
     2
1001
ACAD
1010
0.0
1020
0.0
1030
0.0
  0
LINE
  5
320BE
  8
0
  6
CONTINUOUS
 10
7105.065951759717791
 20
179.6668475291770051
 30
0.0
 11
7105.0351452531385803
 21
179.6976540357561021
 31
0.0
1001
GRADIENTCOLOR1ACI
1070
     5
1001
GRADIENTCOLOR2ACI
1070
     2
1001
ACAD
1010
0.0
1020
0.0
1030
0.0
  0
LINE
  5
320BF
  8
0
  6
CONTINUOUS
 10
7105.0758615527429356
 20
179.6746154056822888
 30
0.0
 11
7105.0456756882713307
 21
179.7048012701542916
 31
0.0
1001
GRADIENTCOLOR1ACI
1070
     5
1001
GRADIENTCOLOR2ACI
1070
     2
1001
ACAD
1010
0.0
1020
0.0
1030
0.0
  0
LINE
  5
320C0
  8
0
  6
CONTINUOUS
 10
7105.0855672434772714
 20
179.6825873844773866
 30
0.0
 11
7105.0559958798412481
 21
179.7121587481123015
 31
0.0
1001
GRADIENTCOLOR1ACI
1070
     5
1001
GRADIENTCOLOR2ACI
1070
     2
1001
ACAD
1010
0.0
1020
0.0
1030
0.0
  0
LINE
  5
320C1
  8
0
  6
CONTINUOUS
 10
7105.0950701965593908
 20
179.6907621009252125
 30
0.0
 11
7105.0661082460956095
 21
179.7197240513883969
 31
0.0
1001
GRADIENTCOLOR1ACI
1070
     5
1001
GRADIENTCOLOR2ACI
1070
     2
1001
ACAD
1010
0.0
1020
0.0
1030
0.0
  0
LINE
  5
320C2
  8
0
  6
CONTINUOUS
 10
7105.1043714492452636
 20
179.6991385177697111
 30
0.0
 11
7105.0760148364306588
 21
179.7274951305828097
 31
0.0
1001
GRADIENTCOLOR1ACI
1070
     5
1001
GRADIENTCOLOR2ACI
1070
     2
1001
ACAD
1010
0.0
1020
0.0
1030
0.0
  0
LINE
  5
320C3
  8
0
  6
CONTINUOUS
 10
7105.1134717195845951
 20
179.7077159169589038
 30
0.0
 11
7105.0857173483773295
 21
179.7354702881646915
 31
0.0
1001
GRADIENTCOLOR1ACI
1070
     5
1001
GRADIENTCOLOR2ACI
1070
     2
1001
ACAD
1010
0.0
1020
0.0
1030
0.0
  0
LINE
  5
320C4
  8
0
  6
CONTINUOUS
 10
7105.1223714120342265
 20
179.7164938940389902
 30
0.0
 11
7105.0952171413819087
 21
179.7436481646911091
 31
0.0
1001
GRADIENTCOLOR1ACI
1070
     5
1001
GRADIENTCOLOR2ACI
1070
     2
1001
ACAD
1010
0.0
1020
0.0
1030
0.0
  0
LINE
  5
320C5
  8
0
  6
CONTINUOUS
 10
7105.1310706205858878
 20
179.7254723550157962
 30
0.0
 11
7105.1045152476499425
 21
179.7520277279517984
 31
0.0
1001
GRADIENTCOLOR1ACI
1070
     5
1001
GRADIENTCOLOR2ACI
1070
     2
1001
ACAD
1010
0.0
1020
0.0
1030
0.0
  0
LINE
  5
320C6
  8
0
  6
CONTINUOUS
 10
7105.1395691295037977
 20
179.7346515156278883
 30
0.0
 11
7105.1136123802989459
 21
179.7606082648333938
 31
0.0
1001
GRADIENTCOLOR1ACI
1070
     5
1001
GRADIENTCOLOR2ACI
1070
     2
1001
ACAD
1010
0.0
1020
0.0
1030
0.0
  0
LINE
  5
320C7
  8
0
  6
CONTINUOUS
 10
7105.1478664116448272
 20
179.7440319030168041
 30
0.0
 11
7105.1225089389090499
 21
179.769389375752894
 31
0.0
1001
GRADIENTCOLOR1ACI
1070
     5
1001
GRADIENTCOLOR2ACI
1070
     2
1001
ACAD
1010
0.0
1020
0.0
1030
0.0
  0
LINE
  5
320C8
  8
0
  6
CONTINUOUS
 10
7105.1559616243657729
 20
179.753614359825491
 30
0.0
 11
7105.131205012634382
 21
179.7783709715573934
 31
0.0
1001
GRADIENTCOLOR1ACI
1070
     5
1001
GRADIENTCOLOR2ACI
1070
     2
1001
ACAD
1010
0.0
1020
0.0
1030
0.0
  0
LINE
  5
320C9
  8
0
  6
CONTINUOUS
 10
7105.1638536029213356
 20
179.7634000507993903
 30
0.0
 11
7105.1397003808870068
 21
179.7875532728338897
 31
0.0
1001
GRADIENTCOLOR1ACI
1070
     5
1001
GRADIENTCOLOR2ACI
1070
     2
1001
ACAD
1010
0.0
1020
0.0
1030
0.0
  0
LINE
  5
320CA
  8
0
  6
CONTINUOUS
 10
7105.171540851239115
 20
179.7733904720118971
 30
0.0
 11
7105.147994511631623
 21
179.7969368116179965
 31
0.0
1001
GRADIENTCOLOR1ACI
1070
     5
1001
GRADIENTCOLOR2ACI
1070
     2
1001
ACAD
1010
0.0
1020
0.0
1030
0.0
  0
LINE
  5
320CB
  8
0
  6
CONTINUOUS
 10
7105.1790215298951807
 20
179.7835874628864019
 30
0.0
 11
7105.1560865572500916
 21
179.8065224355302121
 31
0.0
1001
GRADIENTCOLOR1ACI
1070
     5
1001
GRADIENTCOLOR2ACI
1070
     2
1001
ACAD
1010
0.0
1020
0.0
1030
0.0
  0
LINE
  5
320CC
  8
0
  6
CONTINUOUS
 10
7105.1862934410646631
 20
179.7939932212453868
 30
0.0
 11
7105.1639753478939383
 21
179.8163113144171916
 31
0.0
1001
GRADIENTCOLOR1ACI
1070
     5
1001
GRADIENTCOLOR2ACI
1070
     2
1001
ACAD
1010
0.0
1020
0.0
1030
0.0
  0
LINE
  5
320CD
  8
0
  6
CONTINUOUS
 10
7105.1933540101599647
 20
179.8046103216796041
 30
0.0
 11
7105.1716593822211507
 21
179.8263049496194128
 31
0.0
1001
GRADIENTCOLOR1ACI
1070
     5
1001
GRADIENTCOLOR2ACI
1070
     2
1001
ACAD
1010
0.0
1020
0.0
1030
0.0
  0
LINE
  5
320CE
  8
0
  6
CONTINUOUS
 10
7105.2002002637609621
 20
179.8154417376080971
 30
0.0
 11
7105.1791368153299118
 21
179.8365051860386927
 31
0.0
1001
GRADIENTCOLOR1ACI
1070
     5
1001
GRADIENTCOLOR2ACI
1070
     2
1001
ACAD
1010
0.0
1020
0.0
1030
0.0
  0
LINE
  5
320CF
  8
0
  6
CONTINUOUS
 10
7105.206828803409735
 20
179.8264908674885021
 30
0.0
 11
7105.1864054436637161
 21
179.8469142272367094
 31
0.0
1001
GRADIENTCOLOR1ACI
1070
     5
1001
GRADIENTCOLOR2ACI
1070
     2
1001
ACAD
1010
0.0
1020
0.0
1030
0.0
  0
LINE
  5
320D0
  8
0
  6
CONTINUOUS
 10
7105.2132357746868365
 20
179.8377615657421984
 30
0.0
 11
7105.1934626865695463
 21
179.8575346538588065
 31
0.0
1001
GRADIENTCOLOR1ACI
1070
     5
1001
GRADIENTCOLOR2ACI
1070
     2
1001
ACAD
1010
0.0
1020
0.0
1030
0.0
  0
LINE
  5
320D1
  8
0
  6
CONTINUOUS
 10
7105.2194168308642475
 20
179.8492581790943063
 30
0.0
 11
7105.2003055642026084
 21
179.8683694457548938
 31
0.0
1001
GRADIENTCOLOR1ACI
1070
     5
1001
GRADIENTCOLOR2ACI
1070
     2
1001
ACAD
1010
0.0
1020
0.0
1030
0.0
  0
LINE
  5
320D2
  8
0
  6
CONTINUOUS
 10
7105.2253670903073726
 20
179.8609855891814959
 30
0.0
 11
7105.2069306712292018
 21
179.879422008259013
 31
0.0
1001
GRADIENTCOLOR1ACI
1070
     5
1001
GRADIENTCOLOR2ACI
1070
     2
1001
ACAD
1010
0.0
1020
0.0
1030
0.0
  0
LINE
  5
320D3
  8
0
  6
CONTINUOUS
 10
7105.2310810865319581
 20
179.872949262485804
 30
0.0
 11
7105.2133341458238647
 21
179.8906962031934995
 31
0.0
1001
GRADIENTCOLOR1ACI
1070
     5
1001
GRADIENTCOLOR2ACI
1070
     2
1001
ACAD
1010
0.0
1020
0.0
1030
0.0
  0
LINE
  5
320D4
  8
0
  6
CONTINUOUS
 10
7105.2365527096508231
 20
179.8851553088960884
 30
0.0
 11
7105.2195116332477483
 21
179.9021963852997033
 31
0.0
1001
GRADIENTCOLOR1ACI
1070
     5
1001
GRADIENTCOLOR2ACI
1070
     2
1001
ACAD
1010
0.0
1020
0.0
1030
0.0
  0
LINE
  5
320D5
  8
0
  6
CONTINUOUS
 10
7105.2417751375596708
 20
179.8976105505174132
 30
0.0
 11
7105.2254582431251038
 21
179.9139274449516961
 31
0.0
1001
GRADIENTCOLOR1ACI
1070
     5
1001
GRADIENTCOLOR2ACI
1070
     2
1001
ACAD
1010
0.0
1020
0.0
1030
0.0
  0
LINE
  5
320D6
  8
0
  6
CONTINUOUS
 10
7105.2467407548610936
 20
179.9103226027469873
 30
0.0
 11
7105.2311684993919698
 21
179.9258948582140079
 31
0.0
1001
GRADIENTCOLOR1ACI
1070
     5
1001
GRADIENTCOLOR2ACI
1070
     2
1001
ACAD
1010
0.0
1020
0.0
1030
0.0
  0
LINE
  5
320D7
  8
0
  6
CONTINUOUS
 10
7105.2514410569820029
 20
179.9232999701546873
 30
0.0
 11
7105.2366362815855609
 21
179.9381047455501914
 31
0.0
1001
GRADIENTCOLOR1ACI
1070
     5
1001
GRADIENTCOLOR2ACI
1070
     2
1001
ACAD
1010
0.0
1020
0.0
1030
0.0
  0
LINE
  5
320D8
  8
0
  6
CONTINUOUS
 10
7105.2558665362876127
 20
179.9365521603779996
 30
0.0
 11
7105.2418547558590944
 21
179.9505639408073989
 31
0.0
1001
GRADIENTCOLOR1ACI
1070
     5
1001
GRADIENTCOLOR2ACI
1070
     2
1001
ACAD
1010
0.0
1020
0.0
1030
0.0
  0
LINE
  5
320D9
  8
0
  6
CONTINUOUS
 10
7105.2600065460692349
 20
179.9500898201266068
 30
0.0
 11
7105.246816293694792
 21
179.9632800725019024
 31
0.0
1001
GRADIENTCOLOR1ACI
1070
     5
1001
GRADIENTCOLOR2ACI
1070
     2
1001
ACAD
1010
0.0
1020
0.0
1030
0.0
  0
LINE
  5
320DA
  8
0
  6
CONTINUOUS
 10
7105.263849137156285
 20
179.9639248985695872
 30
0.0
 11
7105.2515123757702895
 21
179.9762616599554121
 31
0.0
1001
GRADIENTCOLOR1ACI
1070
     5
1001
GRADIENTCOLOR2ACI
1070
     2
1001
ACAD
1010
0.0
1020
0.0
1030
0.0
  0
LINE
  5
320DB
  8
0
  6
CONTINUOUS
 10
7105.2673808602994541
 20
179.9780708449569886
 30
0.0
 11
7105.2559334777542972
 21
179.989518227500696
 31
0.0
1001
GRADIENTCOLOR1ACI
1070
     5
1001
GRADIENTCOLOR2ACI
1070
     2
1001
ACAD
1010
0.0
1020
0.0
1030
0.0
  0
LINE
  5
320DC
  8
0
  6
CONTINUOUS
 10
7105.2705865252992226
 20
179.9925428494861137
 30
0.0
 11
7105.2600689339133169
 21
180.0030604408711952
 31
0.0
1001
GRADIENTCOLOR1ACI
1070
     5
1001
GRADIENTCOLOR2ACI
1070
     2
1001
ACAD
1010
0.0
1020
0.0
1030
0.0
  0
LINE
  5
320DD
  8
0
  6
CONTINUOUS
 10
7105.2734489049198601
 20
180.007358139394313
 30
0.0
 11
7105.2639067732498006
 21
180.0169002710645998
 31
0.0
1001
GRADIENTCOLOR1ACI
1070
     5
1001
GRADIENTCOLOR2ACI
1070
     2
1001
ACAD
1010
0.0
1020
0.0
1030
0.0
  0
LINE
  5
320DE
  8
0
  6
CONTINUOUS
 10
7105.2759483674126386
 20
180.0225363464309112
 30
0.0
 11
7105.2674335212777805
 21
180.0310511925652861
 31
0.0
1001
GRADIENTCOLOR1ACI
1070
     5
1001
GRADIENTCOLOR2ACI
1070
     2
1001
ACAD
1010
0.0
1020
0.0
1030
0.0
  0
LINE
  5
320DF
  8
0
  6
CONTINUOUS
 10
7105.2780624155766418
 20
180.0380999677965121
 30
0.0
 11
7105.2706339584010493
 21
180.0455284249727015
 31
0.0
1001
GRADIENTCOLOR1ACI
1070
     5
1001
GRADIENTCOLOR2ACI
1070
     2
1001
ACAD
1010
0.0
1020
0.0
1030
0.0
  0
LINE
  5
320E0
  8
0
  6
CONTINUOUS
 10
7105.2797651016562668
 20
180.0540749512485945
 30
0.0
 11
7105.2734908228312634
 21
180.0603492300726884
 31
0.0
1001
GRADIENTCOLOR1ACI
1070
     5
1001
GRADIENTCOLOR2ACI
1070
     2
1001
ACAD
1010
0.0
1020
0.0
1030
0.0
  0
LINE
  5
320E1
  8
0
  6
CONTINUOUS
 10
7105.2810262746279477
 20
180.070491447806603
 30
0.0
 11
7105.2759844418524153
 21
180.0755332805817091
 31
0.0
1001
GRADIENTCOLOR1ACI
1070
     5
1001
GRADIENTCOLOR2ACI
1070
     2
1001
ACAD
1010
0.0
1020
0.0
1030
0.0
  0
LINE
  5
320E2
  8
0
  6
CONTINUOUS
 10
7105.2818105972182821
 20
180.0873847947445938
 30
0.0
 11
7105.2780922691981687
 21
180.0911031227649062
 31
0.0
1001
GRADIENTCOLOR1ACI
1070
     5
1001
GRADIENTCOLOR2ACI
1070
     2
1001
ACAD
1010
0.0
1020
0.0
1030
0.0
  0
LINE
  5
320E3
  8
0
  6
CONTINUOUS
 10
7105.2820763212148449
 20
180.1047967402770098
 30
0.0
 11
7105.2797882977056361
 21
180.1070847637865029
 31
0.0
1001
GRADIENTCOLOR1ACI
1070
     5
1001
GRADIENTCOLOR2ACI
1070
     2
1001
ACAD
1010
0.0
1020
0.0
1030
0.0
  0
LINE
  5
320E4
  8
0
  6
CONTINUOUS
 10
7105.2820763212230304
 20
180.1224744097989969
 30
0.0
 11
7105.2810423035507483
 21
180.1235084274715064
 31
0.0
1001
GRADIENTCOLOR1ACI
1070
     5
1001
GRADIENTCOLOR2ACI
1070
     2
1001
ACAD
1010
0.0
1020
0.0
1030
0.0
  0
LINE
  5
320E5
  8
0
  6
CONTINUOUS
 10
7105.2820763212303063
 20
180.1401520793210977
 30
0.0
 11
7105.2818188590154023
 21
180.1404095415362008
 31
0.0
1001
GRADIENTCOLOR1ACI
1070
     5
1001
GRADIENTCOLOR2ACI
1070
     2
1001
ACAD
1010
0.0
1020
0.0
1030
0.0
  0
LINE
  5
320E6
  8
0
 10
7104.1797141164161076
 20
180.1044977571459924
 30
0.0
 11
7104.1797141164161076
 21
190.8638184388325953
 31
0.0
  0
LINE
  5
320E7
  8
0
 10
7099.1065233679828452
 20
191.0212984213326024
 30
0.0
 11
7101.1881934627754163
 21
191.0212984213326024
 31
0.0
  0
LINE
  5
320E8
  8
0
 10
7099.1065233679828452
 20
189.918936881532602
 30
0.0
 11
7101.1881934627754163
 21
189.918936881532602
 31
0.0
  0
ARC
  5
320E9
  8
0
 10
7099.1065233679828452
 20
190.470117651432588
 30
0.0
 40
0.5511807698999998
 50
90.0
 51
270.0
  0
ARC
  5
320EA
  8
0
 10
7099.1615626295933907
 20
190.470117651432588
 30
0.0
 40
0.5511807699000002
 50
90.0
 51
270.0
  0
ARC
  5
320EB
  8
0
 10
7099.186812371045562
 20
190.470117651432588
 30
0.0
 40
0.5511807699000002
 50
90.0
 51
270.0
  0
ARC
  5
320EC
  8
0
 10
7101.1875881322157511
 20
190.470117651432588
 30
0.0
 40
1.968503936999999
 50
196.2601946284572136
 51
336.4218215218077717
  0
ARC
  5
320ED
  8
0
 10
7101.1875881322157511
 20
190.470117651432588
 30
0.0
 40
1.968503936999999
 50
23.5781784781922497
 51
163.7398053715427011
  0
ARC
  5
320EE
  8
0
 10
7101.1875881322157511
 20
190.470117651432588
 30
0.0
 40
0.5511811022999998
 50
269.9370753223134898
 51
90.062924677686425
  0
ARC
  5
320EF
  8
0
 10
7101.1875881322157511
 20
190.470117651432588
 30
0.0
 40
0.7874015748000001
 50
224.426970125696613
 51
135.5730298743021933
  0
ARC
  5
320F0
  8
0
 10
7101.1875881322157511
 20
190.470117651432588
 30
0.0
 40
0.7627952755999999
 50
226.267920238757398
 51
133.7320797612414083
  0
LINE
  5
320F1
  8
0
 10
7101.1875881322157511
 20
190.5269434653326073
 30
0.0
 11
7101.1383755338156334
 21
190.4985305583325896
 31
0.0
  0
LINE
  5
320F2
  8
0
 10
7101.1383755338156334
 20
190.4985305583325896
 30
0.0
 11
7101.1383755338156334
 21
190.4417047445325863
 31
0.0
  0
LINE
  5
320F3
  8
0
 10
7101.1875881322157511
 20
190.4132918375325971
 30
0.0
 11
7101.1383755338156334
 21
190.4417047445325863
 31
0.0
  0
LINE
  5
320F4
  8
0
 10
7101.1875881322157511
 20
190.5269434653326073
 30
0.0
 11
7101.2368007306149593
 21
190.4985305583325896
 31
0.0
  0
LINE
  5
320F5
  8
0
 10
7101.2368007306149593
 20
190.4985305583325896
 30
0.0
 11
7101.2368007306149593
 21
190.4417047445325863
 31
0.0
  0
LINE
  5
320F6
  8
0
 10
7101.1875881322157511
 20
190.4132918375325971
 30
0.0
 11
7101.2368007306149593
 21
190.4417047445325863
 31
0.0
  0
CIRCLE
  5
320F7
  8
0
 10
7101.1875881322157511
 20
190.470117651432588
 30
0.0
 40
0.149606299200002
  0
ARC
  5
320F8
  8
0
 10
7101.071320322763313
 20
190.4904103018708099
 30
0.0
 40
0.7778019180432511
 50
75.2923345867255591
 51
80.4415269690160528
  0
ARC
  5
320F9
  8
0
 10
7101.3055179137154482
 20
190.4691358415308002
 30
0.0
 40
0.7744619311018096
 50
87.546085826085303
 51
92.7178769030719394
  0
LINE
  5
320FA
  8
0
 10
7101.2462350336527379
 20
191.2482893605771892
 30
0.0
 11
7101.2698733495835768
 21
191.253207929114609
 31
0.0
  0
LINE
  5
320FB
  8
0
 10
7101.2698733495835768
 20
191.253207929114609
 30
0.0
 11
7101.2919956913228816
 21
191.2434797136106113
 31
0.0
  0
LINE
  5
320FC
  8
0
 10
7101.2687943904611529
 20
191.2427266025702863
 30
0.0
 11
7101.2698733495835768
 21
191.253207929114609
 31
0.0
  0
ARC
  5
320FD
  8
0
 10
7101.0696419740916099
 20
190.4657934219200968
 30
0.0
 40
0.7778019180432511
 50
87.2923345867561977
 51
92.4415269689983745
  0
ARC
  5
320FE
  8
0
 10
7101.3031449948011868
 20
190.4936762767021889
 30
0.0
 40
0.7744619311018096
 50
99.5460858261034645
 51
104.7178769031120993
  0
LINE
  5
320FF
  8
0
 10
7101.0831624623524476
 20
191.2434778181304011
 30
0.0
 11
7101.1052615964636061
 21
191.2532035863775945
 31
0.0
  0
LINE
  5
32100
  8
0
 10
7101.1052615964636061
 20
191.2532035863775945
 30
0.0
 11
7101.1289231216951521
 21
191.248287449198898
 31
0.0
  0
LINE
  5
32101
  8
0
 10
7101.1063854055109914
 20
191.2427269737501945
 30
0.0
 11
7101.1052615964636061
 21
191.2532035863775945
 31
0.0
  0
ARC
  5
32102
  8
0
 10
7101.0731184385012966
 20
190.4413655315491098
 30
0.0
 40
0.7778019180432513
 50
99.2923345867521476
 51
104.4415269690023962
  0
ARC
  5
32103
  8
0
 10
7101.2957216864888323
 20
190.5171870869025099
 30
0.0
 40
0.7744619311018099
 50
111.5460858260939006
 51
116.7178769031162062
  0
LINE
  5
32104
  8
0
 10
7100.9246537939152404
 20
191.2048667254051111
 30
0.0
 11
7100.9442479080025805
 21
191.2189746306202949
 31
0.0
  0
LINE
  5
32105
  8
0
 10
7100.9442479080025805
 20
191.2189746306202949
 30
0.0
 11
7100.968414494530407
 21
191.219085430551786
 31
0.0
  0
LINE
  5
32106
  8
0
 10
7100.9475253693717605
 20
191.2089606101540085
 30
0.0
 11
7100.9442479080025805
 21
191.2189746306202949
 31
0.0
  0
ARC
  5
32107
  8
0
 10
7101.0815977778111119
 20
190.4181942467849922
 30
0.0
 40
0.7778019180432513
 50
111.2923345867697975
 51
116.4415269690125996
  0
ARC
  5
32108
  8
0
 10
7101.2835724229726111
 20
190.5386407369086044
 30
0.0
 40
0.7744619311018099
 50
123.5460858261211001
 51
128.7178769031118009
  0
LINE
  5
32109
  8
0
 10
7100.7776366177604359
 20
191.1341435724299913
 30
0.0
 11
7100.7938693550167955
 21
191.1520170314580014
 31
0.0
  0
LINE
  5
3210A
  8
0
 10
7100.7938693550167955
 20
191.1520170314580014
 30
0.0
 11
7100.8174848070448206
 21
191.1571499260111011
 31
0.0
  0
LINE
  5
3210B
  8
0
 10
7100.7991572279179309
 20
191.1429032638997967
 30
0.0
 11
7100.7938693550167955
 21
191.1520170314580014
 31
0.0
  0
ARC
  5
3210C
  8
0
 10
7101.094709404207606
 20
190.3972922639601109
 30
0.0
 40
0.7778019180432513
 50
123.2923345867648948
 51
126.6527004199138986
  0
ARC
  5
3210D
  8
0
 10
7101.2672281853665481
 20
190.5570995992690939
 30
0.0
 40
0.7744619311018099
 50
135.546085826096288
 51
140.7178769031116872
  0
LINE
  5
3210E
  8
0
 10
7100.6485362899511529
 20
191.0343993003573075
 30
0.0
 11
7100.6606982018665803
 21
191.0552571572723082
 31
0.0
  0
LINE
  5
3210F
  8
0
 10
7100.6606982018665803
 20
191.0552571572723082
 30
0.0
 11
7100.6827304108228418
 21
191.0651878143247018
 31
0.0
  0
LINE
  5
32110
  8
0
 10
7100.6677653808801551
 20
191.0474419579971936
 30
0.0
 11
7100.6606982018665803
 21
191.0552571572723082
 31
0.0
  0
ARC
  5
32111
  8
0
 10
7101.2697230453040902
 20
190.3853600486542064
 30
0.0
 40
0.777801918043252
 50
219.2923345867382068
 51
224.4415269690182981
  0
ARC
  5
32112
  8
0
 10
7101.0927580282195777
 20
190.5402293387001862
 30
0.0
 40
0.7744619311018105
 50
233.3430696852620088
 51
236.7178769030751084
  0
LINE
  5
32113
  8
0
 10
7100.6827439378976123
 20
189.8750352979504044
 30
0.0
 11
7100.6607290765432481
 21
189.8849503459088908
 31
0.0
  0
LINE
  5
32114
  8
0
 10
7100.6607290765432481
 20
189.8849503459088908
 30
0.0
 11
7100.6485498277261286
 21
189.905823823797391
 31
0.0
  0
LINE
  5
32115
  8
0
 10
7100.6677627419767305
 20
189.8927957209465092
 30
0.0
 11
7100.6607290765432481
 21
189.8849503459088908
 31
0.0
  0
ARC
  5
32116
  8
0
 10
7101.2855502968932342
 20
190.4042890142864053
 30
0.0
 40
0.777801918043252
 50
231.2923345867417879
 51
236.4415269689962997
  0
ARC
  5
32117
  8
0
 10
7101.0802532540692482
 20
190.5189809428545971
 30
0.0
 40
0.7744619311018106
 50
243.546085826086312
 51
248.7178769030774106
  0
LINE
  5
32118
  8
0
 10
7100.8175005730881821
 20
189.7830762650949907
 30
0.0
 11
7100.7939053348882226
 21
189.7881974984192937
 31
0.0
  0
LINE
  5
32119
  8
0
 10
7100.7939053348882226
 20
189.7881974984192937
 30
0.0
 11
7100.7776523917973464
 21
189.8060826325202015
 31
0.0
  0
LINE
  5
3211A
  8
0
 10
7100.7991541526671426
 20
189.7973338144622062
 30
0.0
 11
7100.7939053348882226
 21
189.7881974984192937
 31
0.0
  0
ARC
  5
3211B
  8
0
 10
7101.297096131809667
 20
190.4260950072427931
 30
0.0
 40
0.777801918043252
 50
243.2923345867478133
 51
248.4415269689986019
  0
ARC
  5
3211C
  8
0
 10
7101.072439529143594
 20
190.4955969867019121
 30
0.0
 40
0.7744619311018106
 50
255.5460858261021997
 51
260.7178769030891203
  0
LINE
  5
3211D
  8
0
 10
7100.9684318104891645
 20
189.72114423761289
 30
0.0
 11
7100.9442874205760745
 21
189.7212478338323081
 31
0.0
  0
LINE
  5
3211E
  8
0
 10
7100.9442874205760745
 20
189.7212478338323081
 30
0.0
 11
7100.9246711148143731
 21
189.735362957962991
 31
0.0
  0
LINE
  5
3211F
  8
0
 10
7100.9475219921769167
 20
189.7312757900286044
 30
0.0
 11
7100.9442874205760745
 21
189.7212478338323081
 31
0.0
  0
ARC
  5
32120
  8
0
 10
7101.3038559416700082
 20
190.4498250009943945
 30
0.0
 40
0.7778019180432523
 50
255.2923345867255875
 51
260.4415269690160244
  0
ARC
  5
32121
  8
0
 10
7101.069658350716054
 20
190.4710994613344042
 30
0.0
 40
0.7744619311018109
 50
267.5460858260852888
 51
272.7178769030718968
  0
LINE
  5
32122
  8
0
 10
7101.1289412307769453
 20
189.6919459422879868
 30
0.0
 11
7101.1053029148470159
 21
189.6870273737505102
 31
0.0
  0
LINE
  5
32123
  8
0
 10
7101.1053029148470159
 20
189.6870273737505102
 30
0.0
 11
7101.0831805731068016
 21
189.6967555892545931
 31
0.0
  0
LINE
  5
32124
  8
0
 10
7101.1063818739703493
 20
189.6975087002948896
 30
0.0
 11
7101.1053029148470159
 21
189.6870273737505102
 31
0.0
  0
ARC
  5
32125
  8
0
 10
7101.3055342903389828
 20
190.4744418809451076
 30
0.0
 40
0.7778019180432523
 50
267.2923345867562261
 51
272.4415269689984029
  0
ARC
  5
32126
  8
0
 10
7101.0720312696294059
 20
190.446559026162987
 30
0.0
 40
0.7744619311018109
 50
279.5460858261034787
 51
284.7178769031120851
  0
LINE
  5
32127
  8
0
 10
7101.2920138020790546
 20
189.6967574847348033
 30
0.0
 11
7101.2699146679660771
 21
189.6870317164874962
 31
0.0
  0
LINE
  5
32128
  8
0
 10
7101.2699146679660771
 20
189.6870317164874962
 30
0.0
 11
7101.2462531427372596
 21
189.6919478536663064
 31
0.0
  0
LINE
  5
32129
  8
0
 10
7101.2687908589196013
 20
189.6975083291150099
 30
0.0
 11
7101.2699146679660771
 21
189.6870317164874962
 31
0.0
  0
ARC
  5
3212A
  8
0
 10
7101.3020578259302056
 20
190.4988697713160946
 30
0.0
 40
0.7778019180432523
 50
279.2923345867520766
 51
284.441526969002382
  0
ARC
  5
3212B
  8
0
 10
7101.0794545779408509
 20
190.4230482159626945
 30
0.0
 40
0.7744619311018109
 50
291.5460858260939858
 51
296.7178769031161778
  0
LINE
  5
3212C
  8
0
 10
7101.4505224705162618
 20
189.7353685774600933
 30
0.0
 11
7101.4309283564271027
 21
189.7212606722449095
 31
0.0
  0
LINE
  5
3212D
  8
0
 10
7101.4309283564271027
 20
189.7212606722449095
 30
0.0
 11
7101.4067617699010952
 21
189.72114987231339
 31
0.0
  0
LINE
  5
3212E
  8
0
 10
7101.4276508950579228
 20
189.7312746927111959
 30
0.0
 11
7101.4309283564271027
 21
189.7212606722449095
 31
0.0
  0
ARC
  5
3212F
  8
0
 10
7101.2935784866203903
 20
190.5220410560802122
 30
0.0
 40
0.7778019180432524
 50
291.2923345867691864
 51
296.4415269690126138
  0
ARC
  5
32130
  8
0
 10
7101.0916038414570721
 20
190.4015945659566
 30
0.0
 40
0.7744619311018111
 50
303.5460858261201906
 51
308.7178769031118009
  0
LINE
  5
32131
  8
0
 10
7101.5975396466719758
 20
189.8060917304352131
 30
0.0
 11
7101.5813069094128878
 21
189.788218271407203
 31
0.0
  0
LINE
  5
32132
  8
0
 10
7101.5813069094128878
 20
189.788218271407203
 30
0.0
 11
7101.5576914573866816
 21
189.7830853768541033
 31
0.0
  0
LINE
  5
32133
  8
0
 10
7101.5760190365126618
 20
189.7973320389654077
 30
0.0
 11
7101.5813069094128878
 21
189.788218271407203
 31
0.0
  0
ARC
  5
32134
  8
0
 10
7101.2804668602229867
 20
190.5429430389050935
 30
0.0
 40
0.7778019180432524
 50
303.2923345867640137
 51
308.4415269690222772
  0
ARC
  5
32135
  8
0
 10
7101.1079480790640446
 20
190.3831357035961105
 30
0.0
 40
0.7744619311018111
 50
315.5460858260963164
 51
320.7178769031103798
  0
LINE
  5
32136
  8
0
 10
7101.7266399744794398
 20
189.9058360025078969
 30
0.0
 11
7101.7144780625640124
 21
189.884978145592811
 31
0.0
  0
LINE
  5
32137
  8
0
 10
7101.7144780625640124
 20
189.884978145592811
 30
0.0
 11
7101.6924458536077509
 21
189.8750474885405026
 31
0.0
  0
LINE
  5
32138
  8
0
 10
7101.7074108835522566
 20
189.8927933448680108
 30
0.0
 11
7101.7144780625640124
 21
189.884978145592811
 31
0.0
  0
ARC
  5
32139
  8
0
 10
7101.2632959877319081
 20
190.5606622028425079
 30
0.0
 40
0.7778019180432524
 50
315.2923345867434932
 51
320.4415269690030073
  0
ARC
  5
3213A
  8
0
 10
7101.1277729691491913
 20
190.3684783697416947
 30
0.0
 40
0.7744619311018111
 50
327.5460858260988743
 51
332.717876903087415
  0
LINE
  5
3213B
  8
0
 10
7101.832181150121869
 20
190.0302420903622931
 30
0.0
 11
7101.8246215974595543
 21
190.0073114239945937
 31
0.0
  0
LINE
  5
3213C
  8
0
 10
7101.8246215974595543
 20
190.0073114239945937
 30
0.0
 11
7101.8051355448305912
 21
189.9930170218088108
 31
0.0
  0
LINE
  5
3213D
  8
0
 10
7101.8160839819702232
 20
190.0134864932767869
 30
0.0
 11
7101.8246215974595543
 21
190.0073114239945937
 31
0.0
  0
ARC
  5
3213E
  8
0
 10
7101.2428163186659731
 20
190.5744241354022108
 30
0.0
 40
0.7778019180432524
 50
327.292334586747188
 51
332.4415269690040873
  0
ARC
  5
3213F
  8
0
 10
7101.1502120688837749
 20
190.3582631602166089
 30
0.0
 40
0.7744619311018111
 50
339.5460858260983059
 51
344.7178769030945773
  0
LINE
  5
32140
  8
0
 10
7101.9095505177810992
 20
190.1738728509924954
 30
0.0
 11
7101.9069237131006957
 21
190.1498715553260013
 31
0.0
  0
LINE
  5
32141
  8
0
 10
7101.9069237131006957
 20
190.1498715553260013
 30
0.0
 11
7101.8908354508002958
 21
190.1318381419744128
 31
0.0
  0
LINE
  5
32142
  8
0
 10
7101.8972887958952924
 20
190.1541366144564904
 30
0.0
 11
7101.9069237131006957
 21
190.1498715553260013
 31
0.0
  0
ARC
  5
32143
  8
0
 10
7101.219922912840957
 20
190.5836273740945046
 30
0.0
 40
0.7778019180432527
 50
339.2923345867546914
 51
344.4415269690097148
  0
ARC
  5
32144
  8
0
 10
7101.1742846819370243
 20
190.3529365286950963
 30
0.0
 40
0.7744619311018112
 50
351.5460858261009776
 51
356.7178769030937246
  0
LINE
  5
32145
  8
0
 10
7101.9553666648325816
 20
190.3304509309423054
 30
0.0
 11
7101.9577874120977867
 21
190.3064279777686068
 31
0.0
  0
LINE
  5
32146
  8
0
 10
7101.9577874120977867
 20
190.3064279777686068
 30
0.0
 11
7101.9458000743934463
 21
190.285443699948587
 31
0.0
  0
LINE
  5
32147
  8
0
 10
7101.9474762852960339
 20
190.3085966231971895
 30
0.0
 11
7101.9577874120977867
 21
190.3064279777686068
 31
0.0
  0
ARC
  5
32148
  8
0
 10
7101.1956163219410882
 20
190.5878696932263097
 30
0.0
 40
0.7778019180432527
 50
351.292334586744289
 51
356.4415269690169907
  0
ARC
  5
32149
  8
0
 10
7101.198938719605394
 20
190.352731274534591
 30
0.0
 40
0.7744619311018112
 50
3.5460858261044872
 51
8.7178769030967231
  0
LINE
  5
3214A
  8
0
 10
7101.9676272057986353
 20
190.4931331167728104
 30
0.0
 11
7101.9749897067413258
 21
190.4701384244204974
 31
0.0
  0
LINE
  5
3214B
  8
0
 10
7101.9749897067413258
 20
190.4701384244204974
 30
0.0
 11
7101.9676271978050863
 21
190.4471203957664898
 31
0.0
  0
LINE
  5
3214C
  8
0
 10
7101.9644530160621798
 20
190.4701158759357043
 30
0.0
 11
7101.9749897067413258
 21
190.4701384244204974
 31
0.0
  0
ARC
  5
3214D
  8
0
 10
7101.1709588606272519
 20
190.5869656830948884
 30
0.0
 40
0.777801918043253
 50
3.292334586747899
 51
8.4415269690184633
  0
ARC
  5
3214E
  8
0
 10
7101.2230966821371112
 20
190.3576563683267864
 30
0.0
 40
0.7744619311018115
 50
15.5460858261051307
 51
20.7178769031022902
  0
LINE
  5
3214F
  8
0
 10
7101.945796296205117
 20
190.6548094163275096
 30
0.0
 11
7101.9577787742045984
 21
190.6338479631930909
 31
0.0
  0
LINE
  5
32150
  8
0
 10
7101.9577787742045984
 20
190.6338479631930909
 30
0.0
 11
7101.9553628710109479
 21
190.6098021820100996
 31
0.0
  0
LINE
  5
32151
  8
0
 10
7101.9474770235901815
 20
190.6316352062719943
 30
0.0
 11
7101.9577787742045984
 21
190.6338479631930909
 31
0.0
  0
ARC
  5
32152
  8
0
 10
7101.1470281782785605
 20
190.5809548532805877
 30
0.0
 40
0.7778019180432528
 50
15.2923345867443494
 51
20.4415269690217301
  0
ARC
  5
32153
  8
0
 10
7101.2457027506488885
 20
190.3674965598399069
 30
0.0
 40
0.7744619311018113
 50
27.5460858260983983
 51
32.7178769030911809
  0
LINE
  5
32154
  8
0
 10
7101.8908280515597653
 20
190.808413799506809
 30
0.0
 11
7101.906906814829199
 21
190.7904017016765863
 31
0.0
  0
LINE
  5
32155
  8
0
 10
7101.906906814829199
 20
190.7904017016765863
 30
0.0
 11
7101.9095431039386312
 21
190.766379083986692
 31
0.0
  0
LINE
  5
32156
  8
0
 10
7101.8972902402147156
 20
190.7860954444145989
 30
0.0
 11
7101.906906814829199
 21
190.7904017016765863
 31
0.0
  0
ARC
  5
32157
  8
0
 10
7101.1248701605445603
 20
190.5700999058898049
 30
0.0
 40
0.7778019180432528
 50
27.2923345867525811
 51
32.4415269690195487
  0
ARC
  5
32158
  8
0
 10
7101.2657689314710296
 20
190.3818217854862951
 30
0.0
 40
0.7744619311018113
 50
39.5460858261121189
 51
44.7178769031070971
  0
LINE
  5
32159
  8
0
 10
7101.8051248479177957
 20
190.9472330176903085
 30
0.0
 11
7101.8245971773476413
 21
190.9329574902710931
 31
0.0
  0
LINE
  5
3215A
  8
0
 10
7101.8245971773476413
 20
190.9329574902710931
 30
0.0
 11
7101.8321704402778778
 21
190.9100079397406944
 31
0.0
  0
LINE
  5
3215B
  8
0
 10
7101.8160860691914422
 20
190.9267459367740969
 30
0.0
 11
7101.8245971773476413
 21
190.9329574902710931
 31
0.0
  0
ARC
  5
3215C
  8
0
 10
7101.105453219125593
 20
190.554875254210998
 30
0.0
 40
0.7778019180432532
 50
39.292334586738221
 51
44.4415269690183479
  0
ARC
  5
3215D
  8
0
 10
7101.282418236211015
 20
190.4000059641649898
 30
0.0
 40
0.7744619311018118
 50
51.5460858261095822
 51
56.7178769030750729
  0
LINE
  5
3215E
  8
0
 10
7101.6924323265329804
 20
191.0652000049148
 30
0.0
 11
7101.7144471878873446
 21
191.0552849569563136
 31
0.0
  0
LINE
  5
3215F
  8
0
 10
7101.7144471878873446
 20
191.0552849569563136
 30
0.0
 11
7101.7266264367053736
 21
191.0344114790678134
 31
0.0
  0
LINE
  5
32160
  8
0
 10
7101.7074135224538622
 20
191.04743958191861
 30
0.0
 11
7101.7144471878873446
 21
191.0552849569563136
 31
0.0
  0
ARC
  5
32161
  8
0
 10
7101.089625967538268
 20
190.5359462885787138
 30
0.0
 40
0.7778019180432532
 50
51.2923345867418305
 51
56.4415269689963068
  0
ARC
  5
32162
  8
0
 10
7101.2949230103631635
 20
190.4212543600106073
 30
0.0
 40
0.7744619311018118
 50
63.5460858260855517
 51
68.7178769030774106
  0
LINE
  5
32163
  8
0
 10
7101.5576756913433201
 20
191.1571590377702137
 30
0.0
 11
7101.5812709295432796
 21
191.1520378044459108
 31
0.0
  0
LINE
  5
32164
  8
0
 10
7101.5812709295432796
 20
191.1520378044459108
 30
0.0
 11
7101.5975238726350653
 21
191.1341526703450029
 31
0.0
  0
LINE
  5
32165
  8
0
 10
7101.5760221117634501
 20
191.1429014884029982
 30
0.0
 11
7101.5812709295432796
 21
191.1520378044459108
 31
0.0
  0
ARC
  5
32166
  8
0
 10
7101.0780801326200162
 20
190.5141402956224113
 30
0.0
 40
0.7778019180432532
 50
63.2923345867477991
 51
68.4415269689980335
  0
ARC
  5
32167
  8
0
 10
7101.3027367352879082
 20
190.4446383161632923
 30
0.0
 40
0.7744619311018118
 50
75.5460858261022139
 51
80.7178769030891061
  0
LINE
  5
32168
  8
0
 10
7101.4067444539423377
 20
191.2190910652522859
 30
0.0
 11
7101.4308888438563372
 21
191.2189874690328963
 31
0.0
  0
LINE
  5
32169
  8
0
 10
7101.4308888438563372
 20
191.2189874690328963
 30
0.0
 11
7101.4505051496171291
 21
191.2048723449022134
 31
0.0
  0
LINE
  5
3216A
  8
0
 10
7101.427654272253676
 20
191.2089595128366
 30
0.0
 11
7101.4308888438563372
 21
191.2189874690328963
 31
0.0
  0
CIRCLE
  5
3216B
  8
0
 10
7101.1875881322157511
 20
189.0921648955325907
 30
0.0
 40
0.2185039287000023
  0
CIRCLE
  5
3216C
  8
0
 10
7101.1875881322157511
 20
189.0921648955325907
 30
0.0
 40
0.2460629921000006
  0
ARC
  5
3216D
  8
0
 10
7099.9942460403162841
 20
191.1590940293326071
 30
0.0
 40
0.2185039287000023
 50
320.9032212573068819
 51
219.0967787426930897
  0
ARC
  5
3216E
  8
0
 10
7099.9942460403162841
 20
191.1590940293326071
 30
0.0
 40
0.2460629921000006
 50
325.9441088287459252
 51
214.0558911712541033
  0
ARC
  5
3216F
  8
0
 10
7102.3809302240151737
 20
191.1590940293326071
 30
0.0
 40
0.2185039287000023
 50
26.7725891696124698
 51
153.2274108303874982
  0
ARC
  5
32170
  8
0
 10
7102.3809302240151737
 20
191.1590940293326071
 30
0.0
 40
0.2460629921000006
 50
23.5781784934351109
 51
156.4218215065664026
  0
LINE
  5
32171
  8
0
 10
7101.1875881322157511
 20
191.2575192262326027
 30
0.0
 11
7104.1009940380599801
 21
191.2575192262326027
 31
0.0
  0
LINE
  5
32172
  8
0
 10
7101.1875881322157511
 20
189.6827160766326017
 30
0.0
 11
7104.0469783778989949
 21
189.6827160766326017
 31
0.0
  0
ARC
  5
32173
  8
0
 10
7104.0469783778989949
 20
189.6040160766326039
 30
0.0
 40
0.0787
 50
0.9999999966365445
 51
90.0
  0
ARC
  5
32174
  8
0
 10
7104.730895218814112
 20
190.8638184388325953
 30
0.0
 40
0.5511811023999993
 50
0.0
 51
180.0
  0
ARC
  5
32175
  8
0
 10
7104.730895218814112
 20
190.8638184388325953
 30
0.0
 40
0.7086614173000001
 50
321.0575587381771925
 51
218.9424412618253939
  0
ARC
  5
32176
  8
0
 10
7104.1009940380599801
 20
191.3362192262327994
 30
0.0
 40
0.0787
 50
270.0000000000521254
 51
323.1315634558737884
  0
LINE
  5
32177
  8
0
 10
7104.1305015180159899
 20
189.3283853679326114
 30
0.0
 11
7104.1797141164161076
 21
189.3283853679326114
 31
0.0
  0
LINE
  5
32178
  8
0
 10
7104.1256663915073659
 20
189.6053895810146059
 30
0.0
 11
7104.1305015180159899
 21
189.3283853679326114
 31
0.0
  0
ARC
  5
32179
  8
0
 10
7106.3959244751222286
 20
186.4666780674508004
 30
0.0
 40
3.982517827225116
 50
123.8130403174587997
 51
126.1438338382021982
  0
LINE
  5
3217A
  8
0
 10
7108.7559634754743456
 20
189.918936881532602
 30
0.0
 11
7108.7559634754743456
 21
191.0212984213326024
 31
0.0
  0
LINE
  5
3217B
  8
0
 10
7108.8906168059102129
 20
189.918936881532602
 30
0.0
 11
7108.8906168059102129
 21
191.0212984213326024
 31
0.0
  0
LINE
  5
3217C
  8
0
 10
7105.2820763212148449
 20
180.1044977571459924
 30
0.0
 11
7105.2820763212148449
 21
190.8638184388325953
 31
0.0
  0
LINE
  5
3217D
  8
0
 10
7110.3552670696471978
 20
191.0212984213326024
 30
0.0
 11
7108.2735969748573552
 21
191.0212984213326024
 31
0.0
  0
LINE
  5
3217E
  8
0
 10
7110.3552670696471978
 20
189.918936881532602
 30
0.0
 11
7108.2735969748573552
 21
189.918936881532602
 31
0.0
  0
ARC
  5
3217F
  8
0
 10
7110.3552670696471978
 20
190.470117651432588
 30
0.0
 40
0.5511807698999998
 50
270.0
 51
90.0
  0
ARC
  5
32180
  8
0
 10
7110.3002278080375618
 20
190.470117651432588
 30
0.0
 40
0.5511807699000002
 50
270.0
 51
90.0
  0
ARC
  5
32181
  8
0
 10
7110.2749780665863
 20
190.470117651432588
 30
0.0
 40
0.5511807699000002
 50
270.0
 51
90.0
  0
ARC
  5
32182
  8
0
 10
7108.2742023054152014
 20
190.470117651432588
 30
0.0
 40
1.968503936999999
 50
203.5781784781923136
 51
336.4218215218077717
  0
ARC
  5
32183
  8
0
 10
7108.2742023054152014
 20
190.470117651432588
 30
0.0
 40
1.968503936999999
 50
23.5781784781922497
 51
156.4218215218076864
  0
ARC
  5
32184
  8
0
 10
7108.2742023054152014
 20
190.470117651432588
 30
0.0
 40
0.5511811022999998
 50
89.9370753223135608
 51
270.0629246776863965
  0
ARC
  5
32185
  8
0
 10
7108.2742023054152014
 20
190.470117651432588
 30
0.0
 40
0.7874015748000001
 50
44.4269701256977569
 51
315.5730298743034155
  0
ARC
  5
32186
  8
0
 10
7108.2742023054152014
 20
190.470117651432588
 30
0.0
 40
0.7627952755999999
 50
46.2679202387585633
 51
313.7320797612425736
  0
LINE
  5
32187
  8
0
 10
7108.2742023054152014
 20
190.5269434653326073
 30
0.0
 11
7108.3234149038144096
 21
190.4985305583325896
 31
0.0
  0
LINE
  5
32188
  8
0
 10
7108.3234149038144096
 20
190.4985305583325896
 30
0.0
 11
7108.3234149038144096
 21
190.4417047445325863
 31
0.0
  0
LINE
  5
32189
  8
0
 10
7108.2742023054152014
 20
190.4132918375325971
 30
0.0
 11
7108.3234149038144096
 21
190.4417047445325863
 31
0.0
  0
LINE
  5
3218A
  8
0
 10
7108.2742023054152014
 20
190.5269434653326073
 30
0.0
 11
7108.2249897070150837
 21
190.4985305583325896
 31
0.0
  0
LINE
  5
3218B
  8
0
 10
7108.2249897070150837
 20
190.4985305583325896
 30
0.0
 11
7108.2249897070150837
 21
190.4417047445325863
 31
0.0
  0
LINE
  5
3218C
  8
0
 10
7108.2742023054152014
 20
190.4132918375325971
 30
0.0
 11
7108.2249897070150837
 21
190.4417047445325863
 31
0.0
  0
CIRCLE
  5
3218D
  8
0
 10
7108.2742023054152014
 20
190.470117651432588
 30
0.0
 40
0.149606299200002
  0
ARC
  5
3218E
  8
0
 10
7108.3904701148676395
 20
190.4904103018708099
 30
0.0
 40
0.7778019180432511
 50
99.558473030983933
 51
104.7076654132743982
  0
ARC
  5
3218F
  8
0
 10
7108.1562725239145948
 20
190.4691358415308002
 30
0.0
 40
0.7744619311018096
 50
87.2821230969280464
 51
92.453914173914697
  0
LINE
  5
32190
  8
0
 10
7108.2155554039791241
 20
191.2482893605771892
 30
0.0
 11
7108.1919170880482852
 21
191.253207929114609
 31
0.0
  0
LINE
  5
32191
  8
0
 10
7108.1919170880482852
 20
191.253207929114609
 30
0.0
 11
7108.1697947463071614
 21
191.2434797136106113
 31
0.0
  0
LINE
  5
32192
  8
0
 10
7108.1929960471688901
 20
191.2427266025702863
 30
0.0
 11
7108.1919170880482852
 21
191.253207929114609
 31
0.0
  0
ARC
  5
32193
  8
0
 10
7108.3921484635384331
 20
190.4657934219200968
 30
0.0
 40
0.7778019180432511
 50
87.5584730310016255
 51
92.7076654132438023
  0
ARC
  5
32194
  8
0
 10
7108.1586454428288562
 20
190.4936762767021889
 30
0.0
 40
0.7744619311018096
 50
75.2821230968878581
 51
80.453914173896564
  0
LINE
  5
32195
  8
0
 10
7108.3786279752775954
 20
191.2434778181304011
 30
0.0
 11
7108.3565288411664369
 21
191.2532035863775945
 31
0.0
  0
LINE
  5
32196
  8
0
 10
7108.3565288411664369
 20
191.2532035863775945
 30
0.0
 11
7108.3328673159367099
 21
191.248287449198898
 31
0.0
  0
LINE
  5
32197
  8
0
 10
7108.3554050321199611
 20
191.2427269737501945
 30
0.0
 11
7108.3565288411664369
 21
191.2532035863775945
 31
0.0
  0
ARC
  5
32198
  8
0
 10
7108.3886719991287464
 20
190.4413655315491098
 30
0.0
 40
0.7778019180432513
 50
75.5584730309975896
 51
80.7076654132478808
  0
ARC
  5
32199
  8
0
 10
7108.1660687511421202
 20
190.5171870869025099
 30
0.0
 40
0.7744619311018099
 50
63.2821230968837511
 51
68.4539141739060426
  0
LINE
  5
3219A
  8
0
 10
7108.5371366437166216
 20
191.2048667254051111
 30
0.0
 11
7108.517542529626553
 21
191.2189746306202949
 31
0.0
  0
LINE
  5
3219B
  8
0
 10
7108.517542529626553
 20
191.2189746306202949
 30
0.0
 11
7108.4933759431005456
 21
191.219085430551786
 31
0.0
  0
LINE
  5
3219C
  8
0
 10
7108.5142650682601015
 20
191.2089606101540085
 30
0.0
 11
7108.517542529626553
 21
191.2189746306202949
 31
0.0
  0
ARC
  5
3219D
  8
0
 10
7108.3801926598189311
 20
190.4181942467849922
 30
0.0
 40
0.7778019180432513
 50
63.5584730309874004
 51
68.7076654132301883
  0
ARC
  5
3219E
  8
0
 10
7108.1782180146592509
 20
190.5386407369086044
 30
0.0
 40
0.7744619311018099
 50
51.2821230968881281
 51
56.453914173878907
  0
LINE
  5
3219F
  8
0
 10
7108.6841538198714261
 20
191.1341435724299913
 30
0.0
 11
7108.6679210826132476
 21
191.1520170314580014
 31
0.0
  0
LINE
  5
321A0
  8
0
 10
7108.6679210826132476
 20
191.1520170314580014
 30
0.0
 11
7108.6443056305870414
 21
191.1571499260111011
 31
0.0
  0
LINE
  5
321A1
  8
0
 10
7108.6626332097121121
 20
191.1429032638997967
 30
0.0
 11
7108.6679210826132476
 21
191.1520170314580014
 31
0.0
  0
ARC
  5
321A2
  8
0
 10
7108.367081033424256
 20
190.3972922639601109
 30
0.0
 40
0.7778019180432513
 50
53.3472995800861014
 51
56.707665413235091
  0
ARC
  5
321A3
  8
0
 10
7108.1945622522644044
 20
190.5570995992690939
 30
0.0
 40
0.7744619311018099
 50
39.2821230968882986
 51
44.4539141739036694
  0
LINE
  5
321A4
  8
0
 10
7108.8132541476797996
 20
191.0343993003573075
 30
0.0
 11
7108.8010922357643722
 21
191.0552571572723082
 31
0.0
  0
LINE
  5
321A5
  8
0
 10
7108.8010922357643722
 20
191.0552571572723082
 30
0.0
 11
7108.7790600268090202
 21
191.0651878143247018
 31
0.0
  0
LINE
  5
321A6
  8
0
 10
7108.7940250567507974
 20
191.0474419579971936
 30
0.0
 11
7108.8010922357643722
 21
191.0552571572723082
 31
0.0
  0
ARC
  5
321A7
  8
0
 10
7108.1920673923268623
 20
190.3853600486542064
 30
0.0
 40
0.777801918043252
 50
315.5584730309815882
 51
320.7076654132617932
  0
ARC
  5
321A8
  8
0
 10
7108.3690324094122843
 20
190.5402293387001862
 30
0.0
 40
0.7744619311018105
 50
303.28212309692492
 51
306.6569303147380197
  0
LINE
  5
321A9
  8
0
 10
7108.7790464997333402
 20
189.8750352979504044
 30
0.0
 11
7108.8010613610877044
 21
189.8849503459088908
 31
0.0
  0
LINE
  5
321AA
  8
0
 10
7108.8010613610877044
 20
189.8849503459088908
 30
0.0
 11
7108.8132406099057334
 21
189.905823823797391
 31
0.0
  0
LINE
  5
321AB
  8
0
 10
7108.7940276956533125
 20
189.8927957209465092
 30
0.0
 11
7108.8010613610877044
 21
189.8849503459088908
 31
0.0
  0
ARC
  5
321AC
  8
0
 10
7108.1762401407368088
 20
190.4042890142864053
 30
0.0
 40
0.777801918043252
 50
303.5584730310037003
 51
308.7076654132582121
  0
ARC
  5
321AD
  8
0
 10
7108.3815371835607948
 20
190.5189809428545971
 30
0.0
 40
0.7744619311018106
 50
291.2821230969225894
 51
296.4539141739138017
  0
LINE
  5
321AE
  8
0
 10
7108.6442898645418609
 20
189.7830762650949907
 30
0.0
 11
7108.6678851027427299
 21
189.7881974984192937
 31
0.0
  0
LINE
  5
321AF
  8
0
 10
7108.6678851027427299
 20
189.7881974984192937
 30
0.0
 11
7108.6841380458354251
 21
189.8060826325202015
 31
0.0
  0
LINE
  5
321B0
  8
0
 10
7108.6626362849638099
 20
189.7973338144622062
 30
0.0
 11
7108.6678851027427299
 21
189.7881974984192937
 31
0.0
  0
ARC
  5
321B1
  8
0
 10
7108.164694305820376
 20
190.4260950072427931
 30
0.0
 40
0.777801918043252
 50
291.5584730310014265
 51
296.7076654132521867
  0
ARC
  5
321B2
  8
0
 10
7108.389350908488268
 20
190.4955969867019121
 30
0.0
 40
0.7744619311018106
 50
279.2821230969108797
 51
284.4539141738977719
  0
LINE
  5
321B3
  8
0
 10
7108.493358627141788
 20
189.72114423761289
 30
0.0
 11
7108.5175030170557875
 21
189.7212478338323081
 31
0.0
  0
LINE
  5
321B4
  8
0
 10
7108.5175030170557875
 20
189.7212478338323081
 30
0.0
 11
7108.5371193228165794
 21
189.735362957962991
 31
0.0
  0
LINE
  5
321B5
  8
0
 10
7108.5142684454549453
 20
189.7312757900286044
 30
0.0
 11
7108.5175030170557875
 21
189.7212478338323081
 31
0.0
  0
ARC
  5
321B6
  8
0
 10
7108.1579344959618538
 20
190.4498250009943945
 30
0.0
 40
0.7778019180432523
 50
279.5584730309839756
 51
284.7076654132744125
  0
ARC
  5
321B7
  8
0
 10
7108.392132086915808
 20
190.4710994613344042
 30
0.0
 40
0.7744619311018109
 50
267.2821230969281032
 51
272.4539141739147112
  0
LINE
  5
321B8
  8
0
 10
7108.3328492068530977
 20
189.6919459422879868
 30
0.0
 11
7108.3564875227830271
 21
189.6870273737505102
 31
0.0
  0
LINE
  5
321B9
  8
0
 10
7108.3564875227830271
 20
189.6870273737505102
 30
0.0
 11
7108.3786098645232414
 21
189.6967555892545931
 31
0.0
  0
LINE
  5
321BA
  8
0
 10
7108.3554085636596938
 20
189.6975087002948896
 30
0.0
 11
7108.3564875227830271
 21
189.6870273737505102
 31
0.0
  0
ARC
  5
321BB
  8
0
 10
7108.1562561472919697
 20
190.4744418809451076
 30
0.0
 40
0.7778019180432523
 50
267.5584730310015971
 51
272.7076654132437739
  0
ARC
  5
321BC
  8
0
 10
7108.3897591680015466
 20
190.446559026162987
 30
0.0
 40
0.7744619311018109
 50
255.2821230968878012
 51
260.4539141738965213
  0
LINE
  5
321BD
  8
0
 10
7108.1697766355518979
 20
189.6967574847348033
 30
0.0
 11
7108.1918757696639659
 21
189.6870317164874962
 31
0.0
  0
LINE
  5
321BE
  8
0
 10
7108.1918757696639659
 20
189.6870317164874962
 30
0.0
 11
7108.2155372948927834
 21
189.6919478536663064
 31
0.0
  0
LINE
  5
321BF
  8
0
 10
7108.1929995787113512
 20
189.6975083291150099
 30
0.0
 11
7108.1918757696639659
 21
189.6870317164874962
 31
0.0
  0
ARC
  5
321C0
  8
0
 10
7108.1597326116998374
 20
190.4988697713160946
 30
0.0
 40
0.7778019180432523
 50
255.5584730309975896
 51
260.7076654132479234
  0
ARC
  5
321C1
  8
0
 10
7108.3823358596891921
 20
190.4230482159626945
 30
0.0
 40
0.7744619311018109
 50
243.2821230968837085
 51
248.4539141739060142
  0
LINE
  5
321C2
  8
0
 10
7108.0112679671137812
 20
189.7353685774600933
 30
0.0
 11
7108.0308620812038498
 21
189.7212606722449095
 31
0.0
  0
LINE
  5
321C3
  8
0
 10
7108.0308620812038498
 20
189.7212606722449095
 30
0.0
 11
7108.0550286677289478
 21
189.72114987231339
 31
0.0
  0
LINE
  5
321C4
  8
0
 10
7108.0341395425721203
 20
189.7312746927111959
 30
0.0
 11
7108.0308620812038498
 21
189.7212606722449095
 31
0.0
  0
ARC
  5
321C5
  8
0
 10
7108.1682119510123812
 20
190.5220410560802122
 30
0.0
 40
0.7778019180432524
 50
243.5584730309873862
 51
248.7076654132306999
  0
ARC
  5
321C6
  8
0
 10
7108.3701865961729709
 20
190.4015945659566
 30
0.0
 40
0.7744619311018111
 50
231.2821230968881139
 51
236.4539141738798094
  0
LINE
  5
321C7
  8
0
 10
7107.8642507909589767
 20
189.8060917304352131
 30
0.0
 11
7107.8804835282171553
 21
189.788218271407203
 31
0.0
  0
LINE
  5
321C8
  8
0
 10
7107.8804835282171553
 20
189.788218271407203
 30
0.0
 11
7107.9040989802451804
 21
189.7830853768541033
 31
0.0
  0
LINE
  5
321C9
  8
0
 10
7107.8857714011182907
 20
189.7973320389654077
 30
0.0
 11
7107.8804835282171553
 21
189.788218271407203
 31
0.0
  0
ARC
  5
321CA
  8
0
 10
7108.1813235774079658
 20
190.5429430389050935
 30
0.0
 40
0.7778019180432524
 50
231.5584730309776944
 51
236.7076654132359863
  0
ARC
  5
321CB
  8
0
 10
7108.3538423585669079
 20
190.3831357035961105
 30
0.0
 40
0.7744619311018111
 50
219.2821230968895065
 51
224.453914173903712
  0
LINE
  5
321CC
  8
0
 10
7107.7351504631524222
 20
189.9058360025078969
 30
0.0
 11
7107.7473123750660307
 21
189.884978145592811
 31
0.0
  0
LINE
  5
321CD
  8
0
 10
7107.7473123750660307
 20
189.884978145592811
 30
0.0
 11
7107.7693445840213826
 21
189.8750474885405026
 31
0.0
  0
LINE
  5
321CE
  8
0
 10
7107.7543795540786959
 20
189.8927933448680108
 30
0.0
 11
7107.7473123750660307
 21
189.884978145592811
 31
0.0
  0
ARC
  5
321CF
  8
0
 10
7108.1984944498999539
 20
190.5606622028425079
 30
0.0
 40
0.7778019180432524
 50
219.5584730309969927
 51
224.7076654132563931
  0
ARC
  5
321D0
  8
0
 10
7108.3340174684817612
 20
190.3684783697416947
 30
0.0
 40
0.7744619311018111
 50
207.2821230969126134
 51
212.453914173901012
  0
LINE
  5
321D1
  8
0
 10
7107.629609287508174
 20
190.0302420903622931
 30
0.0
 11
7107.6371688401695792
 21
190.0073114239945937
 31
0.0
  0
LINE
  5
321D2
  8
0
 10
7107.6371688401695792
 20
190.0073114239945937
 30
0.0
 11
7107.6566548927994518
 21
189.9930170218088108
 31
0.0
  0
LINE
  5
321D3
  8
0
 10
7107.6457064556616388
 20
190.0134864932767869
 30
0.0
 11
7107.6371688401695792
 21
190.0073114239945937
 31
0.0
  0
ARC
  5
321D4
  8
0
 10
7108.2189741189640699
 20
190.5744241354022108
 30
0.0
 40
0.7778019180432524
 50
207.5584730309959127
 51
212.7076654132526983
  0
ARC
  5
321D5
  8
0
 10
7108.3115783687462681
 20
190.3582631602166089
 30
0.0
 40
0.7744619311018111
 50
195.2821230969053943
 51
200.4539141739016088
  0
LINE
  5
321D6
  8
0
 10
7107.5522399198471248
 20
190.1738728509924954
 30
0.0
 11
7107.5548667245311663
 21
190.1498715553260013
 31
0.0
  0
LINE
  5
321D7
  8
0
 10
7107.5548667245311663
 20
190.1498715553260013
 30
0.0
 11
7107.5709549868315662
 21
190.1318381419744128
 31
0.0
  0
LINE
  5
321D8
  8
0
 10
7107.5645016417356601
 20
190.1541366144564904
 30
0.0
 11
7107.5548667245311663
 21
190.1498715553260013
 31
0.0
  0
ARC
  5
321D9
  8
0
 10
7108.241867524790905
 20
190.5836273740945046
 30
0.0
 40
0.7778019180432527
 50
195.5584730309886936
 51
200.7076654132438023
  0
ARC
  5
321DA
  8
0
 10
7108.2875057556939282
 20
190.3529365286950963
 30
0.0
 40
0.7744619311018112
 50
183.2821230969045985
 51
188.4539141738989088
  0
LINE
  5
321DB
  8
0
 10
7107.5064237727965519
 20
190.3304509309423054
 30
0.0
 11
7107.5040030255313468
 21
190.3064279777686068
 31
0.0
  0
LINE
  5
321DC
  8
0
 10
7107.5040030255313468
 20
190.3064279777686068
 30
0.0
 11
7107.5159903632393252
 21
190.285443699948587
 31
0.0
  0
LINE
  5
321DD
  8
0
 10
7107.5143141523321901
 20
190.3085966231971895
 30
0.0
 11
7107.5040030255313468
 21
190.3064279777686068
 31
0.0
  0
ARC
  5
321DE
  8
0
 10
7108.2661741156898643
 20
190.5878696932263097
 30
0.0
 40
0.7778019180432527
 50
183.5584730309830093
 51
188.7076654132540909
  0
ARC
  5
321DF
  8
0
 10
7108.2628517180273775
 20
190.352731274534591
 30
0.0
 40
0.7744619311018112
 50
171.2821230969032911
 51
176.4539141738954982
  0
LINE
  5
321E0
  8
0
 10
7107.4941632318332267
 20
190.4931331167728104
 30
0.0
 11
7107.4868007308887172
 21
190.4701384244204974
 31
0.0
  0
LINE
  5
321E1
  8
0
 10
7107.4868007308887172
 20
190.4701384244204974
 30
0.0
 11
7107.4941632398249567
 21
190.4471203957664898
 31
0.0
  0
LINE
  5
321E2
  8
0
 10
7107.4973374215696822
 20
190.4701158759357043
 30
0.0
 11
7107.4868007308887172
 21
190.4701384244204974
 31
0.0
  0
ARC
  5
321E3
  8
0
 10
7108.2908315770027912
 20
190.5869656830948884
 30
0.0
 40
0.777801918043253
 50
171.5584730309815029
 51
176.707665413253693
  0
ARC
  5
321E4
  8
0
 10
7108.2386937554938413
 20
190.3576563683267864
 30
0.0
 40
0.7744619311018115
 50
159.282123096897692
 51
164.4539141738947876
  0
LINE
  5
321E5
  8
0
 10
7107.5159941414258356
 20
190.6548094163275096
 30
0.0
 11
7107.5040116634263541
 21
190.6338479631930909
 31
0.0
  0
LINE
  5
321E6
  8
0
 10
7107.5040116634263541
 20
190.6338479631930909
 30
0.0
 11
7107.5064275666209141
 21
190.6098021820100996
 31
0.0
  0
LINE
  5
321E7
  8
0
 10
7107.5143134140398615
 20
190.6316352062719943
 30
0.0
 11
7107.5040116634263541
 21
190.6338479631930909
 31
0.0
  0
ARC
  5
321E8
  8
0
 10
7108.3147622593533015
 20
190.5809548532805877
 30
0.0
 40
0.7778019180432528
 50
159.558473030978206
 51
164.7076654132555973
  0
ARC
  5
321E9
  8
0
 10
7108.216087686982064
 20
190.3674965598399069
 30
0.0
 40
0.7744619311018113
 50
147.2821230969088049
 51
152.4539141739016088
  0
LINE
  5
321EA
  8
0
 10
7107.5709623860720967
 20
190.808413799506809
 30
0.0
 11
7107.5548836228017535
 21
190.7904017016765863
 31
0.0
  0
LINE
  5
321EB
  8
0
 10
7107.5548836228017535
 20
190.7904017016765863
 30
0.0
 11
7107.5522473336932308
 21
190.766379083986692
 31
0.0
  0
LINE
  5
321EC
  8
0
 10
7107.5645001974162369
 20
190.7860954444145989
 30
0.0
 11
7107.5548836228017535
 21
190.7904017016765863
 31
0.0
  0
ARC
  5
321ED
  8
0
 10
7108.3369202770863922
 20
190.5700999058898049
 30
0.0
 40
0.7778019180432528
 50
147.5584730309803945
 51
152.7076654132474118
  0
ARC
  5
321EE
  8
0
 10
7108.1960215061608324
 20
190.3818217854862951
 30
0.0
 40
0.7744619311018113
 50
135.2821230968928887
 51
140.4539141738879096
  0
LINE
  5
321EF
  8
0
 10
7107.6566655897113378
 20
190.9472330176903085
 30
0.0
 11
7107.6371932602824018
 21
190.9329574902710931
 31
0.0
  0
LINE
  5
321F0
  8
0
 10
7107.6371932602824018
 20
190.9329574902710931
 30
0.0
 11
7107.6296199973530747
 21
190.9100079397406944
 31
0.0
  0
LINE
  5
321F1
  8
0
 10
7107.6457043684404198
 20
190.9267459367740969
 30
0.0
 11
7107.6371932602824018
 21
190.9329574902710931
 31
0.0
  0
ARC
  5
321F2
  8
0
 10
7108.35633721850445
 20
190.554875254210998
 30
0.0
 40
0.7778019180432532
 50
135.5584730309828103
 51
140.7076654132617932
  0
ARC
  5
321F3
  8
0
 10
7108.179372201419028
 20
190.4000059641649898
 30
0.0
 40
0.7744619311018118
 50
123.2821230969249058
 51
128.4539141738904107
  0
LINE
  5
321F4
  8
0
 10
7107.7693581110988816
 20
191.0652000049148
 30
0.0
 11
7107.7473432497436079
 21
191.0552849569563136
 31
0.0
  0
LINE
  5
321F5
  8
0
 10
7107.7473432497436079
 20
191.0552849569563136
 30
0.0
 11
7107.7351640009246694
 21
191.0344114790678134
 31
0.0
  0
LINE
  5
321F6
  8
0
 10
7107.7543769151779998
 20
191.04743958191861
 30
0.0
 11
7107.7473432497436079
 21
191.0552849569563136
 31
0.0
  0
ARC
  5
321F7
  8
0
 10
7108.372164470093594
 20
190.5359462885787138
 30
0.0
 40
0.7778019180432532
 50
123.5584730310037003
 51
128.7076654132580984
  0
ARC
  5
321F8
  8
0
 10
7108.1668674272686985
 20
190.4212543600106073
 30
0.0
 40
0.7744619311018118
 50
111.2821230969226036
 51
116.4539141739143986
  0
LINE
  5
321F9
  8
0
 10
7107.9041147462894514
 20
191.1571590377702137
 30
0.0
 11
7107.8805195080867634
 21
191.1520378044459108
 31
0.0
  0
LINE
  5
321FA
  8
0
 10
7107.8805195080867634
 20
191.1520378044459108
 30
0.0
 11
7107.8642665649958872
 21
191.1341526703450029
 31
0.0
  0
LINE
  5
321FB
  8
0
 10
7107.8857683258656834
 20
191.1429014884029982
 30
0.0
 11
7107.8805195080867634
 21
191.1520378044459108
 31
0.0
  0
ARC
  5
321FC
  8
0
 10
7108.3837103050118458
 20
190.5141402956224113
 30
0.0
 40
0.7778019180432532
 50
111.5584730310018955
 51
116.7076654132522009
  0
ARC
  5
321FD
  8
0
 10
7108.1590537023430443
 20
190.4446383161632923
 30
0.0
 40
0.7744619311018118
 50
99.2821230969108939
 51
104.4539141738977008
  0
LINE
  5
321FE
  8
0
 10
7108.0550459836886148
 20
191.2190910652522859
 30
0.0
 11
7108.0309015937746153
 21
191.2189874690328963
 31
0.0
  0
LINE
  5
321FF
  8
0
 10
7108.0309015937746153
 20
191.2189874690328963
 30
0.0
 11
7108.011285288012914
 21
191.2048723449022134
 31
0.0
  0
LINE
  5
32200
  8
0
 10
7108.034136165376367
 20
191.2089595128366
 30
0.0
 11
7108.0309015937746153
 21
191.2189874690328963
 31
0.0
  0
CIRCLE
  5
32201
  8
0
 10
7108.2742023054152014
 20
189.0921648955325907
 30
0.0
 40
0.2185039287000023
  0
CIRCLE
  5
32202
  8
0
 10
7108.2742023054152014
 20
189.0921648955325907
 30
0.0
 40
0.2460629921000006
  0
ARC
  5
32203
  8
0
 10
7109.467544397315578
 20
191.1590940293326071
 30
0.0
 40
0.2185039287000023
 50
26.7725891696139193
 51
153.2274108303861055
  0
ARC
  5
32204
  8
0
 10
7109.467544397315578
 20
191.1590940293326071
 30
0.0
 40
0.2460629921000006
 50
23.5781784934351109
 51
156.4218215065648963
  0
ARC
  5
32205
  8
0
 10
7107.0808602136148693
 20
191.1590940293326071
 30
0.0
 40
0.2185039287000023
 50
26.7725891696124698
 51
153.2274108303874982
  0
ARC
  5
32206
  8
0
 10
7107.0808602136148693
 20
191.1590940293326071
 30
0.0
 40
0.2460629921000006
 50
23.5781784934336187
 51
156.4218215065664026
  0
LINE
  5
32207
  8
0
 10
7111.8175093920153813
 20
191.2575192262326027
 30
0.0
 11
7105.3607963995700629
 21
191.2575192262326027
 31
0.0
  0
LINE
  5
32208
  8
0
 10
7111.4237786834146391
 20
189.6827160766326017
 30
0.0
 11
7105.4148120597328671
 21
189.6827160766326017
 31
0.0
  0
ARC
  5
32209
  8
0
 10
7105.4148120597328671
 20
189.6040160766326039
 30
0.0
 40
0.0787
 50
90.0
 51
179.0000000033633967
  0
ARC
  5
3220A
  8
0
 10
7105.3607963995700629
 20
191.3362192262327994
 30
0.0
 40
0.0787
 50
216.8684365441262116
 51
269.9999999999478746
  0
LINE
  5
3220B
  8
0
 10
7105.3312889196140532
 20
189.3283853679326114
 30
0.0
 11
7105.2820763212148449
 21
189.3283853679326114
 31
0.0
  0
LINE
  5
3220C
  8
0
 10
7105.3361240461235866
 20
189.6053895810146059
 30
0.0
 11
7105.3312889196140532
 21
189.3283853679326114
 31
0.0
  0
ARC
  5
3220D
  8
0
 10
7103.0658659625087239
 20
186.4666780674508004
 30
0.0
 40
3.982517827225116
 50
53.8561661617978231
 51
56.1869596825411932
  0
CIRCLE
  5
3220E
  8
0
 10
7111.8175093920153813
 20
190.470117651432588
 30
0.0
 40
0.4724409448999989
  0
LINE
  5
3220F
  8
0
 10
7111.4631786834152081
 20
189.7221160766326022
 30
0.0
 11
7111.4631786834152081
 21
190.1576273390051028
 31
0.0
  0
LINE
  5
32210
  8
0
 10
7112.1718401006155545
 20
189.8341282765144911
 30
0.0
 11
7112.1718401006155545
 21
190.1576273390051028
 31
0.0
  0
ARC
  5
32211
  8
0
 10
7111.4237786834146391
 20
189.7221160766326022
 30
0.0
 40
0.0394
 50
270.0
 51
0.0000000000211698
  0
ARC
  5
32212
  8
0
 10
7111.8175093920153813
 20
190.470117651432588
 30
0.0
 40
0.7874015747999934
 50
301.7609780727813131
 51
90.0
  0
ARC
  5
32213
  8
0
 10
7112.211240100615214
 20
189.8341282765144911
 30
0.0
 40
0.0394
 50
179.9999999999901945
 51
301.7609780727847237
  0
ARC
  5
32214
  8
0
 10
7108.343652498897427
 20
191.9195675817848894
 30
0.0
 40
3.4396500397909602
 50
220.5652568318878934
 51
243.5171061988775989
  0
ARC
  5
32215
  8
0
 10
7108.3434569545761406
 20
191.919175087137603
 30
0.0
 40
3.4392115313762921
 50
243.5171061988775989
 51
264.3970489105739716
  0
ARC
  5
32216
  8
0
 10
7108.3431146493712731
 20
191.915685839129992
 30
0.0
 40
3.4357055330146071
 50
264.3970489105739716
 51
285.5095929274556283
  0
ARC
  5
32217
  8
0
 10
7108.3410351087677554
 20
191.9231795479682887
 30
0.0
 40
3.4434824322210842
 50
285.5095929274556283
 51
306.5062309266330089
  0
ARC
  5
32218
  8
0
 10
7108.3626726816064547
 20
191.8939446961944952
 30
0.0
 40
3.4071112744648251
 50
306.5062309266330089
 51
319.5334552267631238
  0
ARC
  5
32219
  8
0
 10
7108.3183815086840696
 20
191.9389999867304084
 30
0.0
 40
4.1223278252228832
 50
303.7310513752307202
 51
332.2924954178740222
  0
ARC
  5
3221A
  8
0
 10
7108.3650939195849787
 20
191.8690398479874091
 30
0.0
 40
4.0382060661761541
 50
283.4405032675772986
 51
303.7310513752307202
  0
ARC
  5
3221B
  8
0
 10
7108.3442088825768224
 20
191.9564319728949897
 30
0.0
 40
4.1280591032239569
 50
252.3692291304597859
 51
283.4405032675772986
  0
ARC
  5
3221C
  8
0
 10
7108.306039515881821
 20
191.8363307146074135
 30
0.0
 40
4.0020384192227691
 50
238.6308563034997121
 51
252.3692291304597859
  0
ARC
  5
3221D
  8
0
 10
7108.3921813136794299
 20
191.9776246854021906
 30
0.0
 40
4.1675207309984996
 50
221.7315094050044024
 51
238.6308563034997121
  0
LINE
  5
3221E
  8
0
 10
7111.5521287664678312
 20
190.0792550540901118
 30
0.0
 11
7111.5566826204158133
 21
190.027204265532589
 31
0.0
  0
LINE
  5
3221F
  8
0
 10
7111.5566826204158133
 20
190.027204265532589
 30
0.0
 11
7111.6452652975149249
 21
190.027204265532589
 31
0.0
  0
LINE
  5
32220
  8
0
 10
7111.6452652975149249
 20
190.027204265532589
 30
0.0
 11
7111.6455182479148789
 21
190.0300955011165911
 31
0.0
  0
LINE
  5
32221
  8
0
 10
7111.6899017069536058
 20
190.0152366503658925
 30
0.0
 11
7111.694477896015087
 21
189.9779916671326134
 31
0.0
  0
LINE
  5
32222
  8
0
 10
7111.694477896015087
 20
189.9779916671326134
 30
0.0
 11
7111.7830605731160176
 21
189.9779916671326134
 31
0.0
  0
LINE
  5
32223
  8
0
 10
7111.7830605731160176
 20
189.9779916671326134
 30
0.0
 11
7111.7856099736218312
 21
189.9987548680861096
 31
0.0
  0
LINE
  5
32224
  8
0
 10
7111.849408810408022
 20
189.9987548680861096
 30
0.0
 11
7111.8519582109156545
 21
189.9779916671326134
 31
0.0
  0
LINE
  5
32225
  8
0
 10
7111.8519582109156545
 20
189.9779916671326134
 30
0.0
 11
7111.9405408881166295
 21
189.9779916671326134
 31
0.0
  0
LINE
  5
32226
  8
0
 10
7111.9405408881166295
 20
189.9779916671326134
 30
0.0
 11
7111.9451138870781506
 21
190.0152357554885896
 31
0.0
  0
LINE
  5
32227
  8
0
 10
7111.9895005362141092
 20
190.030095501154392
 30
0.0
 11
7111.9897534865149282
 21
190.027204265532589
 31
0.0
  0
LINE
  5
32228
  8
0
 10
7111.9897534865149282
 20
190.027204265532589
 30
0.0
 11
7112.0783361637149937
 21
190.027204265532589
 31
0.0
  0
LINE
  5
32229
  8
0
 10
7112.0783361637149937
 20
190.027204265532589
 30
0.0
 11
7112.082890017563841
 21
190.0792550540901118
 31
0.0
  0
ARC
  5
3222A
  8
0
 10
7104.730895218814112
 20
180.1044977571459924
 30
0.0
 40
0.5511811023999976
 50
180.0
 51
0.0
  0
ARC
  5
3222B
  8
0
 10
7104.7308952188268449
 20
180.1572544320532074
 30
0.0
 40
0.5511811024113947
 50
180.0
 51
0.0
  0
ENDSEC
  0
EOF
