  0
SECTION
  2
HEADER
  9
$ACADVER
  1
AC1009
  9
$INSBASE
 10
4925.3746807411207556
 20
-2.5640797189088129
 30
0.0
  9
$EXTMIN
 10
4915.4919056811941118
 20
-4.849371166810033
 30
-0.0000000349181948
  9
$EXTMAX
 10
4925.6404196393532402
 20
-1.382953320951791
 30
0.0000000814935746
  9
$LIMMIN
 10
0.0
 20
0.0
  9
$LIMMAX
 10
11.6929133858000007
 20
8.2677165353999982
  9
$ORTHOMODE
 70
     1
  9
$REGENMODE
 70
     1
  9
$FILLMODE
 70
     1
  9
$QTEXTMODE
 70
     0
  9
$MIRRTEXT
 70
     0
  9
$DRAGMODE
 70
     2
  9
$LTSCALE
 40
0.6431102362
  9
$OSMODE
 70
  4095
  9
$ATTMODE
 70
     1
  9
$TEXTSIZE
 40
0.2
  9
$TRACEWID
 40
0.05
  9
$TEXTSTYLE
  7
STANDARD
  9
$CLAYER
  8
0
  9
$CELTYPE
  6
BYLAYER
  9
$CECOLOR
 62
   256
  9
$DIMSCALE
 40
1.0
  9
$DIMASZ
 40
0.1875
  9
$DIMEXO
 40
0.0625
  9
$DIMDLI
 40
0.4443307087
  9
$DIMRND
 40
0.0
  9
$DIMDLE
 40
0.0
  9
$DIMEXE
 40
0.125
  9
$DIMTP
 40
0.01
  9
$DIMTM
 40
0.01
  9
$DIMTXT
 40
2.0
  9
$DIMCEN
 40
0.1052362205
  9
$DIMTSZ
 40
0.0
  9
$DIMTOL
 70
     1
  9
$DIMLIM
 70
     0
  9
$DIMTIH
 70
     1
  9
$DIMTOH
 70
     1
  9
$DIMSE1
 70
     0
  9
$DIMSE2
 70
     0
  9
$DIMTAD
 70
     0
  9
$DIMZIN
 70
     0
  9
$DIMBLK
  1

  9
$DIMASO
 70
     1
  9
$DIMSHO
 70
     1
  9
$DIMPOST
  1
\X
  9
$DIMAPOST
  1

  9
$DIMALT
 70
     1
  9
$DIMALTD
 70
     2
  9
$DIMALTF
 40
25.3999999999999986
  9
$DIMLFAC
 40
1.0
  9
$DIMTOFL
 70
     0
  9
$DIMTVP
 40
0.0
  9
$DIMTIX
 70
     0
  9
$DIMSOXD
 70
     0
  9
$DIMSAH
 70
     0
  9
$DIMBLK1
  1

  9
$DIMBLK2
  1

  9
$DIMSTYLE
  2
STANDARD
  9
$DIMCLRD
 70
     0
  9
$DIMCLRE
 70
     0
  9
$DIMCLRT
 70
     0
  9
$DIMTFAC
 40
1.0
  9
$DIMGAP
 40
0.09
  9
$LUNITS
 70
     2
  9
$LUPREC
 70
     4
  9
$SKETCHINC
 40
0.1
  9
$FILLETRAD
 40
0.0
  9
$AUNITS
 70
     0
  9
$AUPREC
 70
     0
  9
$MENU
  1
.
  9
$ELEVATION
 40
0.0
  9
$PELEVATION
 40
0.0
  9
$THICKNESS
 40
0.0
  9
$LIMCHECK
 70
     0
  9
$BLIPMODE
 70
     0
  9
$CHAMFERA
 40
0.0
  9
$CHAMFERB
 40
0.0
  9
$SKPOLY
 70
     0
  9
$TDCREATE
 40
2458060.468368056230247
  9
$TDUPDATE
 40
2460598.6531250001862645
  9
$TDINDWG
 40
0.6801575231
  9
$TDUSRTIMER
 40
0.6801575231
  9
$USRTIMER
 70
     1
  9
$ANGBASE
 50
0.0
  9
$ANGDIR
 70
     0
  9
$PDMODE
 70
     0
  9
$PDSIZE
 40
0.3125
  9
$PLINEWID
 40
0.0
  9
$COORDS
 70
     1
  9
$SPLFRAME
 70
     0
  9
$SPLINETYPE
 70
     6
  9
$SPLINESEGS
 70
     8
  9
$ATTDIA
 70
     1
  9
$ATTREQ
 70
     1
  9
$HANDLING
 70
     1
  9
$HANDSEED
  5
26457
  9
$SURFTAB1
 70
     6
  9
$SURFTAB2
 70
     6
  9
$SURFTYPE
 70
     6
  9
$SURFU
 70
     6
  9
$SURFV
 70
     6
  9
$UCSNAME
  2

  9
$UCSORG
 10
0.0
 20
0.0
 30
0.0
  9
$UCSXDIR
 10
1.0
 20
0.0
 30
0.0
  9
$UCSYDIR
 10
0.0
 20
1.0
 30
0.0
  9
$PUCSNAME
  2

  9
$PUCSORG
 10
0.0
 20
0.0
 30
0.0
  9
$PUCSXDIR
 10
1.0
 20
0.0
 30
0.0
  9
$PUCSYDIR
 10
0.0
 20
1.0
 30
0.0
  9
$USERI1
 70
     0
  9
$USERI2
 70
     0
  9
$USERI3
 70
     0
  9
$USERI4
 70
     0
  9
$USERI5
 70
     0
  9
$USERR1
 40
0.0
  9
$USERR2
 40
0.0
  9
$USERR3
 40
0.0
  9
$USERR4
 40
0.0
  9
$USERR5
 40
0.0
  9
$WORLDVIEW
 70
     1
  9
$SHADEDGE
 70
     3
  9
$SHADEDIF
 70
    70
  9
$TILEMODE
 70
     1
  9
$MAXACTVP
 70
    64
  9
$PLIMCHECK
 70
     0
  9
$PEXTMIN
 10
1.0000000000000000E+20
 20
1.0000000000000000E+20
 30
1.0000000000000000E+20
  9
$PEXTMAX
 10
-1.0000000000000000E+20
 20
-1.0000000000000000E+20
 30
-1.0000000000000000E+20
  9
$PLIMMIN
 10
0.0
 20
0.0
  9
$PLIMMAX
 10
12.0
 20
9.0
  9
$UNITMODE
 70
     0
  9
$VISRETAIN
 70
     1
  9
$PLINEGEN
 70
     0
  9
$PSLTSCALE
 70
     1
  0
ENDSEC
  0
SECTION
  2
TABLES
  0
TABLE
  2
VPORT
 70
     1
  0
VPORT
  2
*ACTIVE
 70
     0
 10
0.0
 20
0.0
 11
1.0
 21
1.0
 12
1128.2082525040229939
 22
-123.2968186769864047
 13
0.0
 23
0.0
 14
1.0
 24
1.0
 15
0.0
 25
0.0
 16
0.0
 26
0.0
 36
5.1040778033513332
 17
3792.35791015625
 27
120.1806564331053977
 37
0.0
 40
4.0207488455898872
 41
2.532
 42
50.0
 43
0.0
 44
0.0
 50
0.0
 51
0.0
 71
     0
 72
   100
 73
     1
 74
     1
 75
     0
 76
     0
 77
     0
 78
     0
  0
ENDTAB
  0
TABLE
  2
LTYPE
 70
     2
  0
LTYPE
  2
CONTINUOUS
 70
     0
  3
Solid line
 72
    65
 73
     0
 40
0.0
  0
LTYPE
  2
PHANTOM2
 70
     0
  3
___ _ _ ___ _ _ ___ _ _ ___ _ _
 72
    65
 73
     6
 40
1.25
 49
0.625
 49
-0.125
 49
0.125
 49
-0.125
 49
0.125
 49
-0.125
  0
ENDTAB
  0
TABLE
  2
LAYER
 70
     2
  0
LAYER
  2
0
 70
     0
 62
   255
  6
CONTINUOUS
  0
LAYER
  2
DEFPOINTS
 70
     0
 62
     7
  6
CONTINUOUS
  0
ENDTAB
  0
TABLE
  2
STYLE
 70
     1
  0
STYLE
  2
STANDARD
 70
     0
 40
0.0
 41
0.8
 50
0.0
 71
     0
 42
0.2
  3
txt
  4

  0
ENDTAB
  0
TABLE
  2
VIEW
 70
     0
  0
ENDTAB
  0
TABLE
  2
UCS
 70
     0
  0
ENDTAB
  0
TABLE
  2
APPID
 70
    11
  0
APPID
  2
ACAD
 70
     0
  0
APPID
  2
ACAD_MLEADERVER
 70
     0
  0
APPID
  2
ACAD_EXEMPT_FROM_CAD_STANDARDS
 70
     0
  0
APPID
  2
ACAD_NAV_VCDISPLAY
 70
     0
  0
APPID
  2
ACAECLAYERSTANDARD
 70
     0
  0
APPID
  2
ACCMTRANSPARENCY
 70
     0
  0
APPID
  2
ACAD_DSTYLE_DIMJAG
 70
     0
  0
APPID
  2
ACAD_DSTYLE_DIMTALN
 70
     0
  0
APPID
  2
ACDBATTR
 70
     0
  0
APPID
  2
GRADIENTCOLOR1ACI
 70
     0
  0
APPID
  2
GRADIENTCOLOR2ACI
 70
     0
  0
ENDTAB
  0
TABLE
  2
DIMSTYLE
 70
     1
  0
DIMSTYLE
  2
STANDARD
 70
     0
  3

  4

  5

  6

  7

 40
1.0
 41
0.1875
 42
0.0625
 43
0.38
 44
0.125
 45
0.0
 46
0.0
 47
0.01
 48
0.01
140
0.15625
141
0.09
142
0.0
143
25.3999999999999986
144
1.0
145
0.0
146
1.0
147
0.09
 71
     1
 72
     0
 73
     1
 74
     1
 75
     0
 76
     0
 77
     0
 78
     4
170
     0
171
     2
172
     0
173
     0
174
     0
175
     0
176
     0
177
     0
178
     0
  0
ENDTAB
  0
ENDSEC
  0
SECTION
  2
BLOCKS
  0
BLOCK
  8
0
  2
$MODEL_SPACE
 70
     0
 10
0.0
 20
0.0
 30
0.0
  3
$MODEL_SPACE
  1

  0
ENDBLK
  5
21
  8
0
  0
BLOCK
 67
     1
  8
0
  2
$PAPER_SPACE
 70
     0
 10
0.0
 20
0.0
 30
0.0
  3
$PAPER_SPACE
  1

  0
ENDBLK
  5
1D
 67
     1
  8
0
  0
ENDSEC
  0
SECTION
  2
ENTITIES
  0
LINE
  5
262E6
  8
0
 10
4925.138460268621202
 20
-2.0522686953088152
 30
0.0
 11
4917.5972062775208542
 21
-2.0522686953088138
 31
0.0
  0
LINE
  5
262E7
  8
0
 10
4925.138460268621202
 20
-3.0758907425088129
 30
0.0
 11
4917.5972062775208542
 21
-3.0758907425088129
 31
0.0
  0
LINE
  5
262E8
  8
0
 10
4925.3746807411207556
 20
-1.3829773567088131
 30
0.0
 11
4925.3746807411207556
 21
-3.7451820811088128
 31
0.0
  0
LINE
  5
262E9
  8
0
 10
4925.3746807411207556
 20
-1.3829773567088131
 30
0.0
 11
4925.1581453080207211
 21
-1.3829775118088139
 31
0.0
  0
LINE
  5
262EA
  8
0
 10
4925.3746807411207556
 20
-3.7451820811088128
 30
0.0
 11
4925.1581453080207211
 21
-3.7451820811088141
 31
0.0
  0
ARC
  5
262EB
  8
0
 10
4925.1581453080207211
 20
-3.7254970417088158
 30
0.0
 40
0.019685039399997
 50
179.9999999999947988
 51
270.0
  0
ARC
  5
26300
  8
0
 10
4917.5972062775208542
 20
-3.8042371992088122
 30
0.0
 40
1.7519685038999979
 50
90.0
 51
175.0000000000015064
  0
ARC
  5
26301
  8
0
 10
4917.5972062774908409
 20
-3.8042371991340369
 30
0.0
 40
0.7283464566252255
 50
89.9999999977071354
 51
175.0000000062827041
  0
LINE
  5
26302
  8
0
 10
4915.8519045427210585
 20
-3.6515430830088138
 30
0.0
 11
4915.8096992027212764
 21
-4.1339523265088136
 31
0.0
  0
LINE
  5
26303
  8
0
  6
CONTINUOUS
 10
4915.8001881931595562
 20
-4.244528116915844
 30
0.0
 11
4915.9026333033043556
 21
-4.1420830067721566
 31
0.0
1001
GRADIENTCOLOR1ACI
1070
     5
1001
GRADIENTCOLOR2ACI
1070
     2
1001
ACAD
1010
0.0
1020
0.0
1030
0.0
  0
LINE
  5
26304
  8
0
  6
CONTINUOUS
 10
4915.7836409544188427
 20
-4.4378520509529018
 30
0.0
 11
4916.0651882808524533
 21
-4.1563047245202478
 31
0.0
1001
GRADIENTCOLOR1ACI
1070
     5
1001
GRADIENTCOLOR2ACI
1070
     2
1001
ACAD
1010
0.0
1020
0.0
1030
0.0
  0
LINE
  5
26305
  8
0
  6
CONTINUOUS
 10
4915.7670937156790387
 20
-4.6311759849899596
 30
0.0
 11
4916.227743258400551
 21
-4.1705264422683408
 31
0.0
1001
GRADIENTCOLOR1ACI
1070
     5
1001
GRADIENTCOLOR2ACI
1070
     2
1001
ACAD
1010
0.0
1020
0.0
1030
0.0
  0
LINE
  5
26306
  8
0
  6
CONTINUOUS
 10
4915.8088416397176843
 20
-4.7662047562479426
 30
0.0
 11
4916.3902982359486487
 21
-4.1847481600164329
 31
0.0
1001
GRADIENTCOLOR1ACI
1070
     5
1001
GRADIENTCOLOR2ACI
1070
     2
1001
ACAD
1010
0.0
1020
0.0
1030
0.0
  0
LINE
  5
26307
  8
0
  6
CONTINUOUS
 10
4915.9713966172894288
 20
-4.7804264739739573
 30
0.0
 11
4916.5528532134985653
 21
-4.198969877764525
 31
0.0
1001
GRADIENTCOLOR1ACI
1070
     5
1001
GRADIENTCOLOR2ACI
1070
     2
1001
ACAD
1010
0.0
1020
0.0
1030
0.0
  0
LINE
  5
26308
  8
0
  6
CONTINUOUS
 10
4916.1339515948602639
 20
-4.7946481916999684
 30
0.0
 11
4916.715408191046663
 21
-4.213191595512618
 31
0.0
1001
GRADIENTCOLOR1ACI
1070
     5
1001
GRADIENTCOLOR2ACI
1070
     2
1001
ACAD
1010
0.0
1020
0.0
1030
0.0
  0
LINE
  5
26309
  8
0
  6
CONTINUOUS
 10
4916.2965065724301894
 20
-4.8088699094259812
 30
0.0
 11
4916.8242959421340856
 21
-4.281080539721728
 31
0.0
1001
GRADIENTCOLOR1ACI
1070
     5
1001
GRADIENTCOLOR2ACI
1070
     2
1001
ACAD
1010
0.0
1020
0.0
1030
0.0
  0
LINE
  5
2630A
  8
0
  6
CONTINUOUS
 10
4916.4590615500010244
 20
-4.8230916271519932
 30
0.0
 11
4916.8069438098773389
 21
-4.4752093672753821
 31
0.0
1001
GRADIENTCOLOR1ACI
1070
     5
1001
GRADIENTCOLOR2ACI
1070
     2
1001
ACAD
1010
0.0
1020
0.0
1030
0.0
  0
LINE
  5
2630B
  8
0
  6
CONTINUOUS
 10
4916.62161652757095
 20
-4.8373133448780052
 30
0.0
 11
4916.7895916776205922
 21
-4.6693381948290353
 31
0.0
1001
GRADIENTCOLOR1ACI
1070
     5
1001
GRADIENTCOLOR2ACI
1070
     2
1001
ACAD
1010
0.0
1020
0.0
1030
0.0
  0
LINE
  5
2630C
  8
0
 10
4915.8096992027212764
 20
-4.1339523265088136
 30
0.0
 11
4916.8294260590200793
 21
-4.223166866408814
 31
0.0
  0
LINE
  5
2630D
  8
0
 10
4916.8294260590200793
 20
-4.223166866408814
 30
0.0
 11
4916.8716313989816626
 21
-3.7407576228053911
 31
0.0
  0
LINE
  5
2630E
  8
0
 10
4916.8049133942213302
 20
-4.2210222861088136
 30
0.0
 11
4916.8272814787205789
 21
-4.2476795312088136
 31
0.0
  0
LINE
  5
2630F
  8
0
 10
4916.8272814787205789
 20
-4.2476795312088136
 30
0.0
 11
4916.7755810838152684
 21
-4.8260832050976656
 31
0.0
  0
LINE
  5
26310
  8
0
 10
4916.7755810838152684
 20
-4.8260832050976656
 30
0.0
 11
4916.7500121389211927
 21
-4.8485465053088141
 31
0.0
  0
LINE
  5
26311
  8
0
 10
4916.7500121389211927
 20
-4.8485465053088141
 30
0.0
 11
4915.7793279583211188
 21
-4.7636226437088141
 31
0.0
  0
LINE
  5
26312
  8
0
 10
4915.8342118675209349
 20
-4.136096906808814
 30
0.0
 11
4915.8075546224208665
 21
-4.1584649914088141
 31
0.0
  0
LINE
  5
26313
  8
0
 10
4915.8075546224208665
 20
-4.1584649914088141
 30
0.0
 11
4915.7580308291508118
 21
-4.737059081552907
 31
0.0
  0
LINE
  5
26314
  8
0
 10
4915.7580308291508118
 20
-4.737059081552907
 30
0.0
 11
4915.7793279583211188
 21
-4.7636226437088141
 31
0.0
  0
LINE
  5
26319
  8
0
 10
4925.138460268621202
 20
-1.402662548608814
 30
0.0
 11
4925.138460268621202
 21
-3.725497041708814
 31
0.0
  0
ARC
  5
2631A
  8
0
 10
4925.1581450432522615
 20
-1.4026622864400551
 30
0.0
 40
0.0196847746330257
 50
89.9992293470336762
 51
180.0007630853654064
  0
LINE
  5
26327
  8
0
  6
CONTINUOUS
 10
4916.8194884669937892
 20
-4.3348646798279367
 30
0.0
 11
4916.6961286405730789
 21
-4.2115048534067556
 31
0.0
1001
GRADIENTCOLOR1ACI
1070
     5
1001
GRADIENTCOLOR2ACI
1070
     2
1001
ACAD
1010
0.0
1020
0.0
1030
0.0
  0
LINE
  5
26328
  8
0
  6
CONTINUOUS
 10
4916.7950001345097917
 20
-4.4871530426415509
 30
0.0
 11
4916.5024031620541791
 21
-4.1945560701849001
 31
0.0
1001
GRADIENTCOLOR1ACI
1070
     5
1001
GRADIENTCOLOR2ACI
1070
     2
1001
ACAD
1010
0.0
1020
0.0
1030
0.0
  0
LINE
  5
26329
  8
0
  6
CONTINUOUS
 10
4916.7904792115086821
 20
-4.6594088149355972
 30
0.0
 11
4916.3086776835361889
 21
-4.1776072869630418
 31
0.0
1001
GRADIENTCOLOR1ACI
1070
     5
1001
GRADIENTCOLOR2ACI
1070
     2
1001
ACAD
1010
0.0
1020
0.0
1030
0.0
  0
LINE
  5
2632A
  8
0
  6
CONTINUOUS
 10
4916.7759745837656737
 20
-4.8216808824894262
 30
0.0
 11
4916.1149522050172891
 21
-4.1606585037411854
 31
0.0
1001
GRADIENTCOLOR1ACI
1070
     5
1001
GRADIENTCOLOR2ACI
1070
     2
1001
ACAD
1010
0.0
1020
0.0
1030
0.0
  0
LINE
  5
2632B
  8
0
  6
CONTINUOUS
 10
4916.614179713975318
 20
-4.8366627079961537
 30
0.0
 11
4915.9212267264992988
 21
-4.1437097205193281
 31
0.0
1001
GRADIENTCOLOR1ACI
1070
     5
1001
GRADIENTCOLOR2ACI
1070
     2
1001
ACAD
1010
0.0
1020
0.0
1030
0.0
  0
LINE
  5
2632C
  8
0
  6
CONTINUOUS
 10
4916.4204542354882506
 20
-4.8197139248056571
 30
0.0
 11
4915.803742532672004
 21
-4.2030022219888474
 31
0.0
1001
GRADIENTCOLOR1ACI
1070
     5
1001
GRADIENTCOLOR2ACI
1070
     2
1001
ACAD
1010
0.0
1020
0.0
1030
0.0
  0
LINE
  5
2632D
  8
0
  6
CONTINUOUS
 10
4916.2267287570011831
 20
-4.8027651416151578
 30
0.0
 11
4915.7898046195123243
 21
-4.3658410041261702
 31
0.0
1001
GRADIENTCOLOR1ACI
1070
     5
1001
GRADIENTCOLOR2ACI
1070
     2
1001
ACAD
1010
0.0
1020
0.0
1030
0.0
  0
LINE
  5
2632E
  8
0
  6
CONTINUOUS
 10
4916.0330032785141157
 20
-4.785816358424662
 30
0.0
 11
4915.775866706353554
 21
-4.5286797862634911
 31
0.0
1001
GRADIENTCOLOR1ACI
1070
     5
1001
GRADIENTCOLOR2ACI
1070
     2
1001
ACAD
1010
0.0
1020
0.0
1030
0.0
  0
LINE
  5
2632F
  8
0
  6
CONTINUOUS
 10
4915.8392778000270482
 20
-4.7688675752341654
 30
0.0
 11
4915.7619287931938743
 21
-4.6915185684008138
 31
0.0
1001
GRADIENTCOLOR1ACI
1070
     5
1001
GRADIENTCOLOR2ACI
1070
     2
1001
ACAD
1010
0.0
1020
0.0
1030
0.0
  0
ATTDEF
  5
2634F
  8
DEFPOINTS
 10
4925.3747708414039153
 20
-2.5606498641603239
 30
0.0
 40
0.001
  1
P32833-00
  3

  2
MODELNUMBER
 70
     0
1001
ACDBATTR
1070
     0
1070
     1
  0
ATTDEF
  5
26350
  8
DEFPOINTS
 10
4925.3747708414039153
 20
-2.5623165308269891
 30
0.0
 40
0.001
  1
AILERON
  3

  2
TRADENAME
 70
     0
1001
ACDBATTR
1070
     0
1070
     1
  0
ATTDEF
  5
26351
  8
DEFPOINTS
 10
4925.3747708414039153
 20
-2.5639831974936542
 30
0.0
 40
0.001
  1
BATH SPOUT
  3

  2
PRODUCT
 70
     0
1001
ACDBATTR
1070
     0
1070
     1
  0
ENDSEC
  0
EOF
