  0
SECTION
  2
HEADER
  9
$ACADVER
  1
AC1009
  9
$INSBASE
 10
6735.9982590869922205
 20
159.3918950465017019
 30
0.0
  9
$EXTMIN
 10
6733.2029834964414476
 20
150.1950396022016889
 30
0.0
  9
$EXTMAX
 10
6738.793534677540265
 20
159.3964415623582909
 30
0.0
  9
$LIMMIN
 10
0.0
 20
0.0
  9
$LIMMAX
 10
11.6929133858000007
 20
8.2677165353999982
  9
$ORTHOMODE
 70
     0
  9
$REGENMODE
 70
     1
  9
$FILLMODE
 70
     1
  9
$QTEXTMODE
 70
     0
  9
$MIRRTEXT
 70
     0
  9
$DRAGMODE
 70
     2
  9
$LTSCALE
 40
0.6431102362
  9
$OSMODE
 70
  4095
  9
$ATTMODE
 70
     1
  9
$TEXTSIZE
 40
0.2
  9
$TRACEWID
 40
0.05
  9
$TEXTSTYLE
  7
STANDARD
  9
$CLAYER
  8
0
  9
$CELTYPE
  6
BYLAYER
  9
$CECOLOR
 62
   256
  9
$DIMSCALE
 40
1.0
  9
$DIMASZ
 40
0.1875
  9
$DIMEXO
 40
0.0625
  9
$DIMDLI
 40
0.4443307087
  9
$DIMRND
 40
0.0
  9
$DIMDLE
 40
0.0
  9
$DIMEXE
 40
0.125
  9
$DIMTP
 40
0.01
  9
$DIMTM
 40
0.01
  9
$DIMTXT
 40
2.0
  9
$DIMCEN
 40
0.1052362205
  9
$DIMTSZ
 40
0.0
  9
$DIMTOL
 70
     1
  9
$DIMLIM
 70
     0
  9
$DIMTIH
 70
     1
  9
$DIMTOH
 70
     1
  9
$DIMSE1
 70
     0
  9
$DIMSE2
 70
     0
  9
$DIMTAD
 70
     0
  9
$DIMZIN
 70
     0
  9
$DIMBLK
  1

  9
$DIMASO
 70
     1
  9
$DIMSHO
 70
     1
  9
$DIMPOST
  1
\X
  9
$DIMAPOST
  1

  9
$DIMALT
 70
     1
  9
$DIMALTD
 70
     2
  9
$DIMALTF
 40
25.3999999999999986
  9
$DIMLFAC
 40
1.0
  9
$DIMTOFL
 70
     0
  9
$DIMTVP
 40
0.0
  9
$DIMTIX
 70
     0
  9
$DIMSOXD
 70
     0
  9
$DIMSAH
 70
     0
  9
$DIMBLK1
  1

  9
$DIMBLK2
  1

  9
$DIMSTYLE
  2
STANDARD
  9
$DIMCLRD
 70
     0
  9
$DIMCLRE
 70
     0
  9
$DIMCLRT
 70
     0
  9
$DIMTFAC
 40
1.0
  9
$DIMGAP
 40
0.09
  9
$LUNITS
 70
     2
  9
$LUPREC
 70
     4
  9
$SKETCHINC
 40
0.1
  9
$FILLETRAD
 40
0.0
  9
$AUNITS
 70
     0
  9
$AUPREC
 70
     0
  9
$MENU
  1
.
  9
$ELEVATION
 40
0.0
  9
$PELEVATION
 40
0.0
  9
$THICKNESS
 40
0.0
  9
$LIMCHECK
 70
     0
  9
$BLIPMODE
 70
     0
  9
$CHAMFERA
 40
0.0
  9
$CHAMFERB
 40
0.0
  9
$SKPOLY
 70
     0
  9
$TDCREATE
 40
2458060.468368056230247
  9
$TDUPDATE
 40
2460537.5031481478363276
  9
$TDINDWG
 40
0.981233912
  9
$TDUSRTIMER
 40
0.981233912
  9
$USRTIMER
 70
     1
  9
$ANGBASE
 50
0.0
  9
$ANGDIR
 70
     0
  9
$PDMODE
 70
     0
  9
$PDSIZE
 40
0.3125
  9
$PLINEWID
 40
0.0
  9
$COORDS
 70
     1
  9
$SPLFRAME
 70
     0
  9
$SPLINETYPE
 70
     6
  9
$SPLINESEGS
 70
     8
  9
$ATTDIA
 70
     1
  9
$ATTREQ
 70
     1
  9
$HANDLING
 70
     1
  9
$HANDSEED
  5
3110B
  9
$SURFTAB1
 70
     6
  9
$SURFTAB2
 70
     6
  9
$SURFTYPE
 70
     6
  9
$SURFU
 70
     6
  9
$SURFV
 70
     6
  9
$UCSNAME
  2

  9
$UCSORG
 10
0.0
 20
0.0
 30
0.0
  9
$UCSXDIR
 10
1.0
 20
0.0
 30
0.0
  9
$UCSYDIR
 10
0.0
 20
1.0
 30
0.0
  9
$PUCSNAME
  2

  9
$PUCSORG
 10
0.0
 20
0.0
 30
0.0
  9
$PUCSXDIR
 10
1.0
 20
0.0
 30
0.0
  9
$PUCSYDIR
 10
0.0
 20
1.0
 30
0.0
  9
$USERI1
 70
     0
  9
$USERI2
 70
     0
  9
$USERI3
 70
     0
  9
$USERI4
 70
     0
  9
$USERI5
 70
     0
  9
$USERR1
 40
0.0
  9
$USERR2
 40
0.0
  9
$USERR3
 40
0.0
  9
$USERR4
 40
0.0
  9
$USERR5
 40
0.0
  9
$WORLDVIEW
 70
     1
  9
$SHADEDGE
 70
     3
  9
$SHADEDIF
 70
    70
  9
$TILEMODE
 70
     1
  9
$MAXACTVP
 70
    64
  9
$PLIMCHECK
 70
     0
  9
$PEXTMIN
 10
1.0000000000000000E+20
 20
1.0000000000000000E+20
 30
1.0000000000000000E+20
  9
$PEXTMAX
 10
-1.0000000000000000E+20
 20
-1.0000000000000000E+20
 30
-1.0000000000000000E+20
  9
$PLIMMIN
 10
0.0
 20
0.0
  9
$PLIMMAX
 10
12.0
 20
9.0
  9
$UNITMODE
 70
     0
  9
$VISRETAIN
 70
     1
  9
$PLINEGEN
 70
     0
  9
$PSLTSCALE
 70
     1
  0
ENDSEC
  0
SECTION
  2
TABLES
  0
TABLE
  2
VPORT
 70
     1
  0
VPORT
  2
*ACTIVE
 70
     0
 10
0.0
 20
0.0
 11
1.0
 21
1.0
 12
2824.6329026416788111
 22
22.2161354797409416
 13
0.0
 23
0.0
 14
1.0
 24
1.0
 15
0.0
 25
0.0
 16
0.0
 26
0.0
 36
60.4960186965801583
 17
3911.3653564453120453
 27
132.5796051025390057
 37
0.0
 40
9.2806657831889332
 41
2.558981233243967
 42
50.0
 43
0.0
 44
0.0
 50
0.0
 51
0.0
 71
     0
 72
   100
 73
     1
 74
     1
 75
     0
 76
     0
 77
     0
 78
     0
  0
ENDTAB
  0
TABLE
  2
LTYPE
 70
     2
  0
LTYPE
  2
CONTINUOUS
 70
     0
  3
Solid line
 72
    65
 73
     0
 40
0.0
  0
LTYPE
  2
PHANTOM2
 70
     0
  3
___ _ _ ___ _ _ ___ _ _ ___ _ _
 72
    65
 73
     6
 40
1.25
 49
0.625
 49
-0.125
 49
0.125
 49
-0.125
 49
0.125
 49
-0.125
  0
ENDTAB
  0
TABLE
  2
LAYER
 70
     2
  0
LAYER
  2
0
 70
     0
 62
   255
  6
CONTINUOUS
  0
LAYER
  2
DEFPOINTS
 70
     0
 62
     7
  6
CONTINUOUS
  0
ENDTAB
  0
TABLE
  2
STYLE
 70
     1
  0
STYLE
  2
STANDARD
 70
     0
 40
0.0
 41
0.8
 50
0.0
 71
     0
 42
0.2
  3
txt
  4

  0
ENDTAB
  0
TABLE
  2
VIEW
 70
     1
  0
ENDTAB
  0
TABLE
  2
UCS
 70
     0
  0
ENDTAB
  0
TABLE
  2
APPID
 70
    11
  0
APPID
  2
ACAD
 70
     0
  0
APPID
  2
ACAD_MLEADERVER
 70
     0
  0
APPID
  2
ACAD_EXEMPT_FROM_CAD_STANDARDS
 70
     0
  0
APPID
  2
ACAD_NAV_VCDISPLAY
 70
     0
  0
APPID
  2
ACAECLAYERSTANDARD
 70
     0
  0
APPID
  2
ACCMTRANSPARENCY
 70
     0
  0
APPID
  2
ACAD_DSTYLE_DIMJAG
 70
     0
  0
APPID
  2
ACAD_DSTYLE_DIMTALN
 70
     0
  0
APPID
  2
ACDBATTR
 70
     0
  0
APPID
  2
ACADANNOTATIVE
 70
     0
  0
APPID
  2
DCO15
 70
     0
  0
ENDTAB
  0
TABLE
  2
DIMSTYLE
 70
     1
  0
DIMSTYLE
  2
STANDARD
 70
     0
  3

  4

  5

  6

  7

 40
1.0
 41
0.1875
 42
0.0625
 43
0.38
 44
0.125
 45
0.0
 46
0.0
 47
0.01
 48
0.01
140
0.15625
141
0.09
142
0.0
143
25.3999999999999986
144
1.0
145
0.0
146
1.0
147
0.09
 71
     1
 72
     0
 73
     1
 74
     1
 75
     0
 76
     0
 77
     0
 78
     4
170
     0
171
     2
172
     0
173
     0
174
     0
175
     0
176
     0
177
     0
178
     0
  0
ENDTAB
  0
ENDSEC
  0
SECTION
  2
BLOCKS
  0
BLOCK
  8
0
  2
$MODEL_SPACE
 70
     0
 10
0.0
 20
0.0
 30
0.0
  3
$MODEL_SPACE
  1

  0
ENDBLK
  5
21
  8
0
  0
BLOCK
 67
     1
  8
0
  2
$PAPER_SPACE
 70
     0
 10
0.0
 20
0.0
 30
0.0
  3
$PAPER_SPACE
  1

  0
ENDBLK
  5
1D
 67
     1
  8
0
  0
BLOCK
  8
0
  2
_FILLED
 70
     0
 10
0.0
 20
0.0
 30
0.0
  3
_FILLED
  1

  0
SOLID
  5
2FDD9
  8
0
  6
BYBLOCK
 62
     0
 10
0.0
 20
0.0
 30
0.0
 11
-1.0
 21
0.1666666667
 31
0.0
 12
-1.0
 22
-0.1666666667
 32
0.0
 13
-1.0
 23
-0.1666666667
 33
0.0
  0
ENDBLK
  5
2FDDA
  8
0
  6
BYBLOCK
 62
     0
  0
ENDSEC
  0
SECTION
  2
ENTITIES
  0
ATTDEF
  5
26A5B
  8
DEFPOINTS
 10
6735.9975728586932746
 20
159.3954415623582008
 30
0.0
 40
0.001
  1
P32938-00
  3

  2
MODELNUMBER
 70
     0
1001
ACDBATTR
1070
     0
1070
     1
  0
ATTDEF
  5
26A5C
  8
DEFPOINTS
 10
6735.9974470490360545
 20
159.393774721979014
 30
0.0
 40
0.001
  1

  3

  2
TRADENAME
 70
     0
1001
ACDBATTR
1070
     0
1070
     1
  0
ATTDEF
  5
26A5D
  8
DEFPOINTS
 10
6735.9975728586932746
 20
159.3921082290248989
 30
0.0
 40
0.001
  1
SHOWERHEAD
  3

  2
PRODUCT
 70
     0
1001
ACDBATTR
1070
     0
1070
     1
  0
LINE
  5
31005
  8
0
 10
6733.2029834964414476
 20
150.1950396022016889
 30
0.0
 11
6733.2029834964414476
 21
154.8066360530017107
 31
0.0
  0
LINE
  5
31006
  8
0
 10
6733.2029834964414476
 20
150.1950396022016889
 30
0.0
 11
6738.793534677540265
 21
150.1950396022016889
 31
0.0
  0
LINE
  5
31007
  8
0
 10
6735.5848732601407391
 20
154.0855230312022002
 30
0.0
 11
6735.5848732601407391
 21
158.9981942591016946
 31
0.0
  0
LINE
  5
31008
  8
0
 10
6733.2029834964414476
 20
154.8066360530017107
 30
0.0
 11
6735.5848732601407391
 21
154.8066360530017107
 31
0.0
  0
LINE
  5
31009
  8
0
 10
6733.2029834964414476
 20
150.5240253867017088
 30
0.0
 11
6738.793534677540265
 21
150.5240253867017088
 31
0.0
  0
ARC
  5
3100A
  8
0
 10
6735.9967327984177246
 20
154.3340832833922036
 30
0.0
 40
0.5234322193660034
 50
248.0000222026588972
 51
270.1670703756649914
  0
ARC
  5
3100B
  8
0
 10
6735.956520484187422
 20
154.2345542020509868
 30
0.0
 40
0.4160866640391578
 50
227.3318098743201858
 51
248.0000222026588972
  0
ARC
  5
3100C
  8
0
 10
6735.8800287356316403
 20
154.1515684924769971
 30
0.0
 40
0.3032256185428206
 50
199.6946608196550983
 51
227.3318098743201858
  0
ARC
  5
3100D
  8
0
 10
6735.8086107308208739
 20
154.1260046527602867
 30
0.0
 40
0.2273702211596496
 50
184.4926475600335039
 51
199.6946608196550983
  0
ARC
  5
3100E
  8
0
 10
6735.8508010782607016
 20
154.12931965758969
 30
0.0
 40
0.2696906024682852
 50
170.4177911469282094
 51
184.4926475600335039
  0
ARC
  5
3100F
  8
0
 10
6735.9961523832262174
 20
154.3422934532673878
 30
0.0
 40
0.5575221213709237
 50
240.497427165432498
 51
270.2165035558642785
  0
ARC
  5
31010
  8
0
 10
6735.9026935034416965
 20
154.17672012936589
 30
0.0
 40
0.3673931437256632
 50
202.3964231990379972
 51
240.4665057521922051
  0
ARC
  5
31011
  8
0
 10
6735.7837263236096987
 20
154.1263814651763084
 30
0.0
 40
0.238223102618953
 50
170.5939419380106017
 51
202.1045332504887995
  0
ARC
  5
31012
  8
0
 10
6735.8707539772040036
 20
154.1171806016367043
 30
0.0
 40
0.3256250208514531
 50
151.4378088426155102
 51
171.4994150196810097
  0
LINE
  5
31013
  8
0
 10
6735.5455032209920319
 20
154.1263814651763084
 30
0.0
 11
6735.5455032209920319
 21
153.5941159513922969
 31
0.0
  0
LINE
  5
31014
  8
0
 10
6734.8762118428412577
 20
159.2331072706494126
 30
0.0
 11
6734.8762118428412577
 21
159.3918950465017019
 31
0.0
  0
ARC
  5
31015
  8
0
 10
6735.9944743290998304
 20
153.8235451192416861
 30
0.0
 40
0.5639483862742867
 50
243.5423976025635113
 51
270.3845250451788047
  0
ARC
  5
31016
  8
0
 10
6735.9119972477174088
 20
153.657814683244311
 30
0.0
 40
0.3788293803102207
 50
202.3515867653104863
 51
243.5423976025635113
  0
ARC
  5
31017
  8
0
 10
6735.7601979291521275
 20
153.5953975231732898
 30
0.0
 40
0.2146985331542146
 50
180.3420102092972002
 51
202.3515867653104863
  0
ARC
  5
31018
  8
0
 10
6735.9974360627757051
 20
153.6763787596308077
 30
0.0
 40
0.4292585252284479
 50
243.6689029492781913
 51
270.1098541723999915
  0
ARC
  5
31019
  8
0
 10
6735.9947550980887172
 20
153.6355574228394971
 30
0.0
 40
0.5552881079141521
 50
233.7844981972702101
 51
270.3615512419431184
  0
ARC
  5
3101A
  8
0
 10
6735.8587733228932848
 20
153.449867323169002
 30
0.0
 40
0.3251319515734332
 50
191.9826743088536034
 51
233.7844981972702101
  0
ARC
  5
3101B
  8
0
 10
6735.7944991759941331
 20
153.4362257441962072
 30
0.0
 40
0.2594261022426289
 50
157.7703357429674895
 51
191.9826743088536034
  0
ARC
  5
3101C
  8
0
 10
6735.8038130858321892
 20
153.4072844054016116
 30
0.0
 40
0.2676560569346182
 50
155.6199351705878939
 51
178.9749313802589938
  0
ARC
  5
3101D
  8
0
 10
6735.9959012314966458
 20
153.7151138482510078
 30
0.0
 40
0.7555262492703316
 50
241.767492339561187
 51
270.1788096547344935
  0
ARC
  5
3101E
  8
0
 10
6735.8827267006790862
 20
153.5043314873194049
 30
0.0
 40
0.5162822773376812
 50
209.7368283721631883
 51
241.767492339561187
  0
ARC
  5
3101F
  8
0
 10
6735.7430554732536621
 20
153.4245453961270869
 30
0.0
 40
0.3554287038069162
 50
171.5526327700102058
 51
209.7368283721631883
  0
ARC
  5
31020
  8
0
 10
6735.7838841259499532
 20
153.4184818513784876
 30
0.0
 40
0.3967051553967859
 50
142.3816601515848959
 51
171.5526327700085005
  0
ARC
  5
31021
  8
0
 10
6735.8934494532331883
 20
153.3340493067485113
 30
0.0
 40
0.5350287453421013
 50
130.5666319765034018
 51
142.3816601515848959
  0
LINE
  5
31022
  8
0
 10
6735.7521960948415654
 20
152.2255955686017046
 30
0.0
 11
6736.2443220791410567
 21
152.2255955686017046
 31
0.0
  0
ARC
  5
31023
  8
0
 10
6735.9909058072362313
 20
153.2280211330796078
 30
0.0
 40
0.721455447813713
 50
232.1707203541562023
 51
270.5839850426235103
  0
ARC
  5
31024
  8
0
 10
6735.8063698825899337
 20
152.9903697226322947
 30
0.0
 40
0.4205705854953614
 50
199.6388050549699074
 51
232.1707203541562023
  0
ARC
  5
31025
  8
0
 10
6735.7844298124064153
 20
152.9812784334272919
 30
0.0
 40
0.3968530611991905
 50
180.9096860430545064
 51
199.4671972096886066
  0
LINE
  5
31026
  8
0
 10
6735.3876267694477065
 20
153.4245453961270869
 30
0.0
 11
6735.3876267694477065
 21
152.9749778554983095
 31
0.0
  0
LINE
  5
31027
  8
0
 10
6735.8588187617551739
 20
152.4660082572017075
 30
0.0
 11
6736.1376994122274482
 21
152.4660082572017075
 31
0.0
  0
LINE
  5
31028
  8
0
 10
6735.7521960948415654
 20
152.2255955686017046
 30
0.0
 11
6735.7521960948415654
 21
152.440701658402503
 31
0.0
  0
ARC
  5
31029
  8
0
 10
6735.7611104838351821
 20
152.4400971542227126
 30
0.0
 40
0.0089348618592469
 50
129.5606790172662954
 51
176.1205873154000869
  0
ARC
  5
3102A
  8
0
 10
6735.7805320233037492
 20
152.4165877145053116
 30
0.0
 40
0.0394289588477186
 50
114.4113695314449046
 51
129.5606790172662954
  0
ARC
  5
3102B
  8
0
 10
6735.79225228685209
 20
152.3907641591360971
 30
0.0
 40
0.067787742135183
 50
105.6163536947206012
 51
114.4113695314449046
  0
ARC
  5
3102C
  8
0
 10
6735.826367053154172
 20
152.2687133036542946
 30
0.0
 40
0.1945166993775002
 50
99.3921123183135649
 51
105.6163536947206012
  0
ARC
  5
3102D
  8
0
 10
6735.8441960994077817
 20
152.1609246770682944
 30
0.0
 40
0.3037699048756779
 50
93.6096680793572347
 51
99.3921123183135649
  0
ARC
  5
3102E
  8
0
 10
6735.9945693409235901
 20
149.7772289938548909
 30
0.0
 40
2.692203957122953
 50
92.8902843554744351
 51
93.6096680793572347
  0
ARC
  5
3102F
  8
0
 10
6735.7682165828400684
 20
152.8897337746221865
 30
0.0
 40
0.4100621062018268
 50
158.0740390870192016
 51
182.336212347081414
  0
ARC
  5
31030
  8
0
 10
6735.7139285079329056
 20
152.8875189726641963
 30
0.0
 40
0.3557288712077141
 50
182.336212347081414
 51
206.188430349291508
  0
ARC
  5
31031
  8
0
 10
6735.8619639511407513
 20
152.9603243146418095
 30
0.0
 40
0.5206988995942159
 50
206.188430349291508
 51
230.8675644493042114
  0
ARC
  5
31032
  8
0
 10
6735.9332841966388514
 20
153.0479824199705092
 30
0.0
 40
0.6337056288090177
 50
230.8675644493042114
 51
253.3956812375961931
  0
LINE
  5
31033
  8
0
 10
6735.3581544766402658
 20
152.8897337746221865
 30
0.0
 11
6735.3581544766402658
 21
152.6779840192016877
 31
0.0
  0
ARC
  5
31034
  8
0
 10
6735.7445516980369575
 20
152.6779840192016877
 30
0.0
 40
0.3863972213985263
 50
180.0
 51
212.9470082240555939
  0
ARC
  5
31035
  8
0
 10
6735.9029556328141553
 20
152.7806445719276098
 30
0.0
 40
0.5751589644460406
 50
212.9470082240555939
 51
254.804223917229109
  0
LINE
  5
31036
  8
0
 10
6735.8662078284405652
 20
153.2743771238245927
 30
0.0
 11
6735.8662078284405652
 21
153.4253172649017074
 31
0.0
  0
ARC
  5
31037
  8
0
 10
6735.9979866810763269
 20
153.9935743791725997
 30
0.0
 40
0.583336792874806
 50
256.943883313015192
 51
270.0267559103045869
  0
LINE
  5
31038
  8
0
 10
6735.344650380485291
 20
158.9981942591016946
 30
0.0
 11
6736.6518677934973311
 21
158.9981942591016946
 31
0.0
  0
LINE
  5
31039
  8
0
 10
6734.8762118428412577
 20
159.3918950465017019
 30
0.0
 11
6737.1203063311413644
 21
159.3918950465017019
 31
0.0
  0
LINE
  5
3103A
  8
0
 10
6734.911791182397792
 20
159.1788892982388859
 30
0.0
 11
6735.3133292979646285
 21
159.0046953685989877
 31
0.0
  0
ARC
  5
3103B
  8
0
 10
6734.935311842840747
 20
159.2331072706494126
 30
0.0
 40
0.0591
 50
180.0000000000032117
 51
246.5479960324732929
  0
ARC
  5
3103C
  8
0
 10
6735.344650380485291
 20
159.0768942591016923
 30
0.0
 40
0.0787
 50
246.5479960324720139
 51
270.0
  0
ARC
  5
3103D
  8
0
 10
6735.9817193701910583
 20
151.3345132513368867
 30
0.0
 40
3.4198261268070338
 50
96.6644339055588517
 51
107.1211760415738041
  0
ARC
  5
3103E
  8
0
 10
6735.8672550711316944
 20
151.7060965538771029
 30
0.0
 40
3.0310122555444821
 50
107.1211760415738041
 51
122.9682007035610951
  0
ARC
  5
3103F
  8
0
 10
6735.4871674559226449
 20
152.2920919138391866
 30
0.0
 40
2.332544534649994
 50
122.9682007035610951
 51
142.2463385156339086
  0
ARC
  5
31040
  8
0
 10
6735.09132112460793
 20
152.5986293552267057
 30
0.0
 40
1.8318854480568949
 50
142.2463385156339086
 51
163.1288727759325923
  0
ARC
  5
31041
  8
0
 10
6734.869069588585262
 20
152.6660322169969106
 30
0.0
 40
1.599637970052705
 50
163.1288727759325923
 51
193.699866410600805
  0
ARC
  5
31042
  8
0
 10
6735.0440255412695478
 20
152.7086814487815047
 30
0.0
 40
1.7797172369102769
 50
193.699866410600805
 51
216.6442451186480866
  0
ARC
  5
31043
  8
0
 10
6735.5407876395138373
 20
153.0782050757829893
 30
0.0
 40
2.3988458933005998
 50
216.6442451186480866
 51
246.1127442570154926
  0
ARC
  5
31044
  8
0
 10
6735.9321202351684406
 20
153.8019641948532126
 30
0.0
 40
3.2197270970205798
 50
244.9606942863443919
 51
258.7100631060753244
  0
ARC
  5
31045
  8
0
 10
6735.9965207766217645
 20
154.095037252309595
 30
0.0
 40
3.5197416037614779
 50
258.6160020201742782
 51
270.0282969214712239
  0
ARC
  5
31046
  8
0
 10
6735.9912091937449077
 20
155.1919062686496886
 30
0.0
 40
0.4727112116137071
 50
224.4676309963018923
 51
270.8545261764725751
  0
ARC
  5
31047
  8
0
 10
6735.8277295476764266
 20
155.0314367130025914
 30
0.0
 40
0.2436346458816001
 50
184.5811402798881886
 51
224.4676309963018923
  0
LINE
  5
31048
  8
0
 10
6738.793534677540265
 20
150.1950396022016889
 30
0.0
 11
6738.793534677540265
 21
154.8066360530017107
 31
0.0
  0
LINE
  5
31049
  8
0
 10
6736.411644913840064
 20
154.0855230312022002
 30
0.0
 11
6736.411644913840064
 21
158.9981942591016946
 31
0.0
  0
LINE
  5
3104A
  8
0
 10
6738.793534677540265
 20
154.8066360530017107
 30
0.0
 11
6736.411644913840064
 21
154.8066360530017107
 31
0.0
  0
ARC
  5
3104B
  8
0
 10
6735.9997853755648975
 20
154.3340832833922036
 30
0.0
 40
0.5234322193660034
 50
269.8329296243350086
 51
291.9999777973411028
  0
ARC
  5
3104C
  8
0
 10
6736.0399976897970191
 20
154.2345542020509868
 30
0.0
 40
0.4160866640391578
 50
291.9999777973411028
 51
312.6681901256798142
  0
ARC
  5
3104D
  8
0
 10
6736.1164894383509818
 20
154.1515684924769971
 30
0.0
 40
0.3032256185428206
 50
312.6681901256798142
 51
340.3053391803449017
  0
ARC
  5
3104E
  8
0
 10
6736.1879074431608387
 20
154.1260046527602867
 30
0.0
 40
0.2273702211596496
 50
340.3053391803449017
 51
355.5073524399664961
  0
ARC
  5
3104F
  8
0
 10
6736.1457170957219205
 20
154.12931965758969
 30
0.0
 40
0.2696906024682852
 50
355.5073524399664961
 51
9.5822088530717284
  0
ARC
  5
31050
  8
0
 10
6736.0003657907573142
 20
154.3422934532673878
 30
0.0
 40
0.5575221213709237
 50
269.7834964441357215
 51
299.502572834567502
  0
ARC
  5
31051
  8
0
 10
6736.0938246705409256
 20
154.17672012936589
 30
0.0
 40
0.3673931437256632
 50
299.5334942478078233
 51
337.6035768009618891
  0
ARC
  5
31052
  8
0
 10
6736.2127918503720139
 20
154.1263814651763084
 30
0.0
 40
0.238223102618953
 50
337.8954667495111153
 51
9.4060580619894214
  0
ARC
  5
31053
  8
0
 10
6736.125764196777709
 20
154.1171806016367043
 30
0.0
 40
0.3256250208514531
 50
8.5005849803190259
 51
28.5621911573845217
  0
LINE
  5
31054
  8
0
 10
6736.4510149529924092
 20
154.1263814651763084
 30
0.0
 11
6736.4510149529924092
 21
153.5941159513922969
 31
0.0
  0
LINE
  5
31055
  8
0
 10
6737.1203063311413644
 20
159.2331072706494126
 30
0.0
 11
6737.1203063311413644
 21
159.3918950465017019
 31
0.0
  0
ARC
  5
31056
  8
0
 10
6736.0020438448837012
 20
153.8235451192416861
 30
0.0
 40
0.5639483862742867
 50
269.6154749548210816
 51
296.4576023974365171
  0
ARC
  5
31057
  8
0
 10
6736.0845209262652133
 20
153.657814683244311
 30
0.0
 40
0.3788293803102207
 50
296.4576023974365171
 51
337.6484132346894853
  0
ARC
  5
31058
  8
0
 10
6736.2363202448314041
 20
153.5953975231732898
 30
0.0
 40
0.2146985331542146
 50
337.6484132346894853
 51
359.6579897907027998
  0
ARC
  5
31059
  8
0
 10
6735.9990821112060075
 20
153.6763787596308077
 30
0.0
 40
0.4292585252284479
 50
269.8901458276000085
 51
296.331097050721894
  0
ARC
  5
3105A
  8
0
 10
6736.0017630758929954
 20
153.6355574228394971
 30
0.0
 40
0.5552881079141521
 50
269.6384487580568816
 51
306.2155018027298183
  0
ARC
  5
3105B
  8
0
 10
6736.1377448510911563
 20
153.449867323169002
 30
0.0
 40
0.3251319515734332
 50
306.2155018027298183
 51
348.017325691146425
  0
ARC
  5
3105C
  8
0
 10
6736.20201899798667
 20
153.4362257441962072
 30
0.0
 40
0.2594261022426289
 50
348.017325691146425
 51
22.2296642570325105
  0
ARC
  5
3105D
  8
0
 10
6736.1927050881504329
 20
153.4072844054016116
 30
0.0
 40
0.2676560569346182
 50
1.0250686197409811
 51
24.3800648294120883
  0
ARC
  5
3105E
  8
0
 10
6736.0006169424850668
 20
153.7151138482510078
 30
0.0
 40
0.7555262492703316
 50
269.8211903452655065
 51
298.2325076604387846
  0
ARC
  5
3105F
  8
0
 10
6736.1137914733053549
 20
153.5043314873194049
 30
0.0
 40
0.5162822773376812
 50
298.2325076604387846
 51
330.2631716278368117
  0
ARC
  5
31060
  8
0
 10
6736.2534627007280505
 20
153.4245453961270869
 30
0.0
 40
0.3554287038069162
 50
330.2631716278368117
 51
8.4473672299898368
  0
ARC
  5
31061
  8
0
 10
6736.21263404803085
 20
153.4184818513784876
 30
0.0
 40
0.3967051553967859
 50
8.4473672299914462
 51
37.618339848415097
  0
ARC
  5
31062
  8
0
 10
6736.1030687207494339
 20
153.3340493067485113
 30
0.0
 40
0.5350287453421013
 50
37.618339848415097
 51
49.4333680234965271
  0
ARC
  5
31063
  8
0
 10
6736.0056123667473003
 20
153.2280211330796078
 30
0.0
 40
0.721455447813713
 50
269.4160149573764897
 51
307.8292796458438261
  0
ARC
  5
31064
  8
0
 10
6736.1901482913917789
 20
152.9903697226322947
 30
0.0
 40
0.4205705854953614
 50
307.8292796458438261
 51
340.361194945029979
  0
ARC
  5
31065
  8
0
 10
6736.2120883615752973
 20
152.9812784334272919
 30
0.0
 40
0.3968530611991905
 50
340.5328027903113934
 51
359.090313956945522
  0
LINE
  5
31066
  8
0
 10
6736.6088914045330966
 20
153.4245453961270869
 30
0.0
 11
6736.6088914045330966
 21
152.9749778554983095
 31
0.0
  0
LINE
  5
31067
  8
0
 10
6736.2443220791410567
 20
152.2255955686017046
 30
0.0
 11
6736.2443220791410567
 21
152.440701658402503
 31
0.0
  0
ARC
  5
31068
  8
0
 10
6736.23540769014744
 20
152.4400971542227126
 30
0.0
 40
0.0089348618592469
 50
3.8794126845999282
 51
50.439320982733669
  0
ARC
  5
31069
  8
0
 10
6736.2159861506788729
 20
152.4165877145053116
 30
0.0
 40
0.0394289588477186
 50
50.439320982733669
 51
65.5886304685550812
  0
ARC
  5
3106A
  8
0
 10
6736.2042658871296226
 20
152.3907641591360971
 30
0.0
 40
0.067787742135183
 50
65.5886304685550812
 51
74.3836463052793704
  0
ARC
  5
3106B
  8
0
 10
6736.1701511208284501
 20
152.2687133036542946
 30
0.0
 40
0.1945166993775002
 50
74.3836463052793704
 51
80.6078876816864494
  0
ARC
  5
3106C
  8
0
 10
6736.1523220745730214
 20
152.1609246770682944
 30
0.0
 40
0.3037699048756779
 50
80.6078876816864494
 51
86.3903319206427796
  0
ARC
  5
3106D
  8
0
 10
6736.0019488330581225
 20
149.7772289938548909
 30
0.0
 40
2.692203957122953
 50
86.3903319206427796
 51
87.1097156445255649
  0
ARC
  5
3106E
  8
0
 10
6736.2283015911398252
 20
152.8897337746221865
 30
0.0
 40
0.4100621062018268
 50
357.6637876529184723
 51
21.9259609129807984
  0
ARC
  5
3106F
  8
0
 10
6736.2825896660497165
 20
152.8875189726641963
 30
0.0
 40
0.3557288712077141
 50
333.8115696507084067
 51
357.6637876529184723
  0
ARC
  5
31070
  8
0
 10
6736.1345542228427803
 20
152.9603243146418095
 30
0.0
 40
0.5206988995942159
 50
309.1324355506959023
 51
333.8115696507084067
  0
ARC
  5
31071
  8
0
 10
6736.0632339773437707
 20
153.0479824199705092
 30
0.0
 40
0.6337056288090177
 50
286.6043187624038069
 51
309.1324355506959023
  0
LINE
  5
31072
  8
0
 10
6736.6383636973441753
 20
152.8897337746221865
 30
0.0
 11
6736.6383636973441753
 21
152.6779840192016877
 31
0.0
  0
ARC
  5
31073
  8
0
 10
6736.2519664759438456
 20
152.6779840192016877
 30
0.0
 40
0.3863972213985263
 50
327.0529917759444061
 51
0.0
  0
ARC
  5
31074
  8
0
 10
6736.0935625411702858
 20
152.7806445719276098
 30
0.0
 40
0.5751589644460406
 50
285.1957760827709194
 51
327.0529917759444061
  0
LINE
  5
31075
  8
0
 10
6736.1303103455411474
 20
153.2743771238245927
 30
0.0
 11
6736.1303103455411474
 21
153.4253172649017074
 31
0.0
  0
ARC
  5
31076
  8
0
 10
6735.9985314929053857
 20
153.9935743791725997
 30
0.0
 40
0.583336792874806
 50
269.9732440896954131
 51
283.056116686984808
  0
LINE
  5
31077
  8
0
 10
6737.0847269915857396
 20
159.1788892982388859
 30
0.0
 11
6736.6831888760179936
 21
159.0046953685989877
 31
0.0
  0
ARC
  5
31078
  8
0
 10
6737.0612063311409656
 20
159.2331072706494126
 30
0.0
 40
0.0591
 50
293.4520039675267071
 51
359.9999999999968168
  0
ARC
  5
31079
  8
0
 10
6736.6518677934973311
 20
159.0768942591016923
 30
0.0
 40
0.0787
 50
270.0
 51
293.4520039675280145
  0
ARC
  5
3107A
  8
0
 10
6736.0147988037906543
 20
151.3345132513368867
 30
0.0
 40
3.4198261268070338
 50
72.878823958426139
 51
83.3355660944411625
  0
ARC
  5
3107B
  8
0
 10
6736.1292631028500182
 20
151.7060965538771029
 30
0.0
 40
3.0310122555444821
 50
57.0317992964389333
 51
72.878823958426139
  0
ARC
  5
3107C
  8
0
 10
6736.5093507180581582
 20
152.2920919138391866
 30
0.0
 40
2.332544534649994
 50
37.7536614843660701
 51
57.0317992964389333
  0
ARC
  5
3107D
  8
0
 10
6736.9051970493737826
 20
152.5986293552267057
 30
0.0
 40
1.8318854480568949
 50
16.8711272240673509
 51
37.7536614843660701
  0
ARC
  5
3107E
  8
0
 10
6737.1274485853973601
 20
152.6660322169969106
 30
0.0
 40
1.599637970052705
 50
346.300133589399195
 51
16.8711272240673509
  0
ARC
  5
3107F
  8
0
 10
6736.9524926327121648
 20
152.7086814487815047
 30
0.0
 40
1.7797172369102769
 50
323.3557548813517997
 51
346.300133589399195
  0
ARC
  5
31080
  8
0
 10
6736.4557305344669658
 20
153.0782050757829893
 30
0.0
 40
2.3988458933005998
 50
293.8872557429846211
 51
323.3557548813517997
  0
ARC
  5
31081
  8
0
 10
6736.064397938815091
 20
153.8019641948532126
 30
0.0
 40
3.2197270970205798
 50
281.2899368939246756
 51
295.0393057136556081
  0
ARC
  5
31082
  8
0
 10
6735.9999973973608576
 20
154.095037252309595
 30
0.0
 40
3.5197416037614779
 50
269.9717030785287193
 51
281.3839979798257218
  0
ARC
  5
31083
  8
0
 10
6736.0053089802386239
 20
155.1919062686496886
 30
0.0
 40
0.4727112116137071
 50
269.1454738235274249
 51
315.5323690036980793
  0
ARC
  5
31084
  8
0
 10
6736.168788626305286
 20
155.0314367130025914
 30
0.0
 40
0.2436346458816001
 50
315.5323690036980793
 51
355.4188597201101061
  0
LINE
  5
31085
  8
0
 10
6734.911791182397792
 20
159.1788892982388859
 30
0.0
 11
6737.0847269915857396
 21
159.1788892982388859
 31
0.0
  0
ARC
  5
31087
  8
0
 10
6733.9751395510102157
 20
153.7337169694565944
 30
0.0
 40
0.1858160984482784
 50
89.4729350918057662
 51
116.7589985921260052
  0
ARC
  5
31088
  8
0
 10
6733.9503572210041966
 20
153.7828650049098087
 30
0.0
 40
0.1307734488986859
 50
116.7589985921260052
 51
148.5624978325975007
  0
ARC
  5
31089
  8
0
 10
6733.9148760008729369
 20
153.8045547236355901
 30
0.0
 40
0.0891878638907369
 50
148.5624978325975007
 51
218.9083539173450959
  0
ARC
  5
3108A
  8
0
 10
6733.9632169063615947
 20
153.8435725557635863
 30
0.0
 40
0.1513106002068997
 50
218.9083539173450959
 51
253.2821568403647916
  0
ARC
  5
3108B
  8
0
 10
6733.9751512176771939
 20
153.8833067254292075
 30
0.0
 40
0.1927983336422332
 50
253.2821568403647916
 51
295.5318541484322736
  0
ARC
  5
3108C
  8
0
 10
6734.0034717188018476
 20
153.8240164135663974
 30
0.0
 40
0.1270914704941387
 50
295.5318541484322736
 51
331.1929682991345771
  0
ARC
  5
3108D
  8
0
 10
6734.0391186427086723
 20
153.8044136539095916
 30
0.0
 40
0.0864101311572944
 50
331.1929682991345771
 51
15.5596249284066506
  0
ARC
  5
3108E
  8
0
 10
6734.0203861177624276
 20
153.7991976656107056
 30
0.0
 40
0.105855285433453
 50
15.5596249284066506
 51
50.1583274266846288
  0
ARC
  5
3108F
  8
0
 10
6733.9828558876570241
 20
153.7542190455818911
 30
0.0
 40
0.1644350979245747
 50
50.1583274266846288
 51
69.9198637625348312
  0
ARC
  5
31090
  8
0
 10
6733.9779179189081333
 20
153.7407109026445937
 30
0.0
 40
0.1788174990101139
 50
69.9198637625348312
 51
90.3425467644405558
  0
ARC
  5
31091
  8
0
 10
6733.9688725352898473
 20
151.4814751312293026
 30
0.0
 40
0.1858160984482784
 50
89.4729350918057662
 51
116.7589985921260052
  0
ARC
  5
31092
  8
0
 10
6733.9440902052838283
 20
151.5306231666824033
 30
0.0
 40
0.1307734488986859
 50
116.7589985921260052
 51
148.5624978325975007
  0
ARC
  5
31093
  8
0
 10
6733.908608985151659
 20
151.5523128854082131
 30
0.0
 40
0.0891878638907369
 50
148.5624978325975007
 51
218.9083539173450959
  0
ARC
  5
31094
  8
0
 10
6733.9569498906394074
 20
151.5913307175362092
 30
0.0
 40
0.1513106002068997
 50
218.9083539173450959
 51
253.2821568403647916
  0
ARC
  5
31095
  8
0
 10
6733.9688842019559161
 20
151.6310648872018021
 30
0.0
 40
0.1927983336422332
 50
253.2821568403647916
 51
295.5318541484322736
  0
ARC
  5
31096
  8
0
 10
6733.9972047030805697
 20
151.571774575338992
 30
0.0
 40
0.1270914704941387
 50
295.5318541484322736
 51
331.1929682991345771
  0
ARC
  5
31097
  8
0
 10
6734.0328516269883039
 20
151.5521718156822999
 30
0.0
 40
0.0864101311572944
 50
331.1929682991345771
 51
15.5596249284066506
  0
ARC
  5
31098
  8
0
 10
6734.0141191020420592
 20
151.5469558273833002
 30
0.0
 40
0.105855285433453
 50
15.5596249284066506
 51
50.1583274266846288
  0
ARC
  5
31099
  8
0
 10
6733.9765888719357463
 20
151.5019772073545141
 30
0.0
 40
0.1644350979245747
 50
50.1583274266846288
 51
69.9198637625348312
  0
ARC
  5
3109A
  8
0
 10
6733.9716509031850364
 20
151.4884690644171883
 30
0.0
 40
0.1788174990101139
 50
69.9198637625348312
 51
90.3425467644405558
  0
ARC
  5
3109B
  8
0
 10
6736.7715346280592712
 20
150.7835778872837977
 30
0.0
 40
0.1858160984482784
 50
89.4729350918057662
 51
116.7589985921260052
  0
ARC
  5
3109C
  8
0
 10
6736.7467522980532522
 20
150.8327259227368984
 30
0.0
 40
0.1307734488986859
 50
116.7589985921260052
 51
148.5624978325975007
  0
ARC
  5
3109D
  8
0
 10
6736.7112710779210829
 20
150.8544156414627082
 30
0.0
 40
0.0891878638907369
 50
148.5624978325975007
 51
218.9083539173450959
  0
ARC
  5
3109E
  8
0
 10
6736.7596119834097408
 20
150.8934334735905907
 30
0.0
 40
0.1513106002068997
 50
218.9083539173450959
 51
253.2821568403647916
  0
ARC
  5
3109F
  8
0
 10
6736.77154629472534
 20
150.9331676432562972
 30
0.0
 40
0.1927983336422332
 50
253.2821568403647916
 51
295.5318541484322736
  0
ARC
  5
310A0
  8
0
 10
6736.7998667958499937
 20
150.8738773313934018
 30
0.0
 40
0.1270914704941387
 50
295.5318541484322736
 51
331.1929682991345771
  0
ARC
  5
310A1
  8
0
 10
6736.8355137197577278
 20
150.8542745717367097
 30
0.0
 40
0.0864101311572944
 50
331.1929682991345771
 51
15.5596249284066506
  0
ARC
  5
310A2
  8
0
 10
6736.8167811948105737
 20
150.8490585834377953
 30
0.0
 40
0.105855285433453
 50
15.5596249284066506
 51
50.1583274266846288
  0
ARC
  5
310A3
  8
0
 10
6736.7792509647051702
 20
150.8040799634090092
 30
0.0
 40
0.1644350979245747
 50
50.1583274266846288
 51
69.9198637625348312
  0
ARC
  5
310A4
  8
0
 10
6736.7743129959535509
 20
150.7905718204717118
 30
0.0
 40
0.1788174990101139
 50
69.9198637625348312
 51
90.3425467644405558
  0
ARC
  5
310A5
  8
0
 10
6738.5026370663599664
 20
152.6002348724587989
 30
0.0
 40
0.1858160984482784
 50
89.4729350918057662
 51
116.7589985921260052
  0
ARC
  5
310A6
  8
0
 10
6738.4778547363548569
 20
152.6493829079120133
 30
0.0
 40
0.1307734488986859
 50
116.7589985921260052
 51
148.5624978325975007
  0
ARC
  5
310A7
  8
0
 10
6738.4423735162226876
 20
152.6710726266377947
 30
0.0
 40
0.0891878638907369
 50
148.5624978325975007
 51
218.9083539173450959
  0
ARC
  5
310A8
  8
0
 10
6738.4907144217113455
 20
152.7100904587657055
 30
0.0
 40
0.1513106002068997
 50
218.9083539173450959
 51
253.2821568403647916
  0
ARC
  5
310A9
  8
0
 10
6738.5026487330260352
 20
152.7498246284314121
 30
0.0
 40
0.1927983336422332
 50
253.2821568403647916
 51
295.5318541484322736
  0
ARC
  5
310AA
  8
0
 10
6738.5309692341515984
 20
152.690534316568602
 30
0.0
 40
0.1270914704941387
 50
295.5318541484322736
 51
331.1929682991345771
  0
ARC
  5
310AB
  8
0
 10
6738.566616158060242
 20
152.6709315569117962
 30
0.0
 40
0.0864101311572944
 50
331.1929682991345771
 51
15.5596249284066506
  0
ARC
  5
310AC
  8
0
 10
6738.5478836331130879
 20
152.6657155686129101
 30
0.0
 40
0.105855285433453
 50
15.5596249284066506
 51
50.1583274266846288
  0
ARC
  5
310AD
  8
0
 10
6738.5103534030067749
 20
152.6207369485840104
 30
0.0
 40
0.1644350979245747
 50
50.1583274266846288
 51
69.9198637625348312
  0
ARC
  5
310AE
  8
0
 10
6738.505415434257884
 20
152.607228805646713
 30
0.0
 40
0.1788174990101139
 50
69.9198637625348312
 51
90.3425467644405558
  0
ARC
  5
310AF
  8
0
 10
6736.7742512014256135
 20
154.4301359923784958
 30
0.0
 40
0.1858160984482784
 50
89.4729350918057662
 51
116.7589985921260052
  0
ARC
  5
310B0
  8
0
 10
6736.7494688714195945
 20
154.4792840278317101
 30
0.0
 40
0.1307734488986859
 50
116.7589985921260052
 51
148.5624978325975007
  0
ARC
  5
310B1
  8
0
 10
6736.7139876512883347
 20
154.5009737465574062
 30
0.0
 40
0.0891878638907369
 50
148.5624978325975007
 51
218.9083539173450959
  0
ARC
  5
310B2
  8
0
 10
6736.7623285567769926
 20
154.5399915786854024
 30
0.0
 40
0.1513106002068997
 50
218.9083539173450959
 51
253.2821568403647916
  0
ARC
  5
310B3
  8
0
 10
6736.7742628680925918
 20
154.5797257483509952
 30
0.0
 40
0.1927983336422332
 50
253.2821568403647916
 51
295.5318541484322736
  0
ARC
  5
310B4
  8
0
 10
6736.8025833692172455
 20
154.5204354364882136
 30
0.0
 40
0.1270914704941387
 50
295.5318541484322736
 51
331.1929682991345771
  0
ARC
  5
310B5
  8
0
 10
6736.8382302931249797
 20
154.500832676831493
 30
0.0
 40
0.0864101311572944
 50
331.1929682991345771
 51
15.5596249284066506
  0
ARC
  5
310B6
  8
0
 10
6736.8194977681778255
 20
154.4956166885324933
 30
0.0
 40
0.105855285433453
 50
15.5596249284066506
 51
50.1583274266846288
  0
ARC
  5
310B7
  8
0
 10
6736.7819675380733315
 20
154.4506380685037072
 30
0.0
 40
0.1644350979245747
 50
50.1583274266846288
 51
69.9198637625348312
  0
ARC
  5
310B8
  8
0
 10
6736.7770295693226217
 20
154.4371299255664098
 30
0.0
 40
0.1788174990101139
 50
69.9198637625348312
 51
90.3425467644405558
  0
ENDSEC
  0
EOF
