  0
SECTION
  2
HEADER
  9
$ACADVER
  1
AC1009
  9
$INSBASE
 10
6727.5995668645800833
 20
158.7468798501811023
 30
0.0
  9
$EXTMIN
 10
6724.8042912740802421
 20
153.1702971999208955
 30
0.0
  9
$EXTMAX
 10
6730.394842455080834
 20
159.8689270942811049
 30
0.0
  9
$LIMMIN
 10
0.0
 20
0.0
  9
$LIMMAX
 10
11.6929133858000007
 20
8.2677165353999982
  9
$ORTHOMODE
 70
     0
  9
$REGENMODE
 70
     1
  9
$FILLMODE
 70
     1
  9
$QTEXTMODE
 70
     0
  9
$MIRRTEXT
 70
     0
  9
$DRAGMODE
 70
     2
  9
$LTSCALE
 40
0.6431102362
  9
$OSMODE
 70
  4095
  9
$ATTMODE
 70
     1
  9
$TEXTSIZE
 40
0.2
  9
$TRACEWID
 40
0.05
  9
$TEXTSTYLE
  7
STANDARD
  9
$CLAYER
  8
0
  9
$CELTYPE
  6
BYLAYER
  9
$CECOLOR
 62
   256
  9
$DIMSCALE
 40
1.0
  9
$DIMASZ
 40
0.1875
  9
$DIMEXO
 40
0.0625
  9
$DIMDLI
 40
0.4443307087
  9
$DIMRND
 40
0.0
  9
$DIMDLE
 40
0.0
  9
$DIMEXE
 40
0.125
  9
$DIMTP
 40
0.01
  9
$DIMTM
 40
0.01
  9
$DIMTXT
 40
2.0
  9
$DIMCEN
 40
0.1052362205
  9
$DIMTSZ
 40
0.0
  9
$DIMTOL
 70
     1
  9
$DIMLIM
 70
     0
  9
$DIMTIH
 70
     1
  9
$DIMTOH
 70
     1
  9
$DIMSE1
 70
     0
  9
$DIMSE2
 70
     0
  9
$DIMTAD
 70
     0
  9
$DIMZIN
 70
     0
  9
$DIMBLK
  1

  9
$DIMASO
 70
     1
  9
$DIMSHO
 70
     1
  9
$DIMPOST
  1
\X
  9
$DIMAPOST
  1

  9
$DIMALT
 70
     1
  9
$DIMALTD
 70
     2
  9
$DIMALTF
 40
25.3999999999999986
  9
$DIMLFAC
 40
1.0
  9
$DIMTOFL
 70
     0
  9
$DIMTVP
 40
0.0
  9
$DIMTIX
 70
     0
  9
$DIMSOXD
 70
     0
  9
$DIMSAH
 70
     0
  9
$DIMBLK1
  1

  9
$DIMBLK2
  1

  9
$DIMSTYLE
  2
STANDARD
  9
$DIMCLRD
 70
     0
  9
$DIMCLRE
 70
     0
  9
$DIMCLRT
 70
     0
  9
$DIMTFAC
 40
1.0
  9
$DIMGAP
 40
0.09
  9
$LUNITS
 70
     2
  9
$LUPREC
 70
     4
  9
$SKETCHINC
 40
0.1
  9
$FILLETRAD
 40
0.0
  9
$AUNITS
 70
     0
  9
$AUPREC
 70
     0
  9
$MENU
  1
.
  9
$ELEVATION
 40
0.0
  9
$PELEVATION
 40
0.0
  9
$THICKNESS
 40
0.0
  9
$LIMCHECK
 70
     0
  9
$BLIPMODE
 70
     0
  9
$CHAMFERA
 40
0.0
  9
$CHAMFERB
 40
0.0
  9
$SKPOLY
 70
     0
  9
$TDCREATE
 40
2458060.468368056230247
  9
$TDUPDATE
 40
2460544.8312268517911434
  9
$TDINDWG
 40
0.9834908565
  9
$TDUSRTIMER
 40
0.9834908565
  9
$USRTIMER
 70
     1
  9
$ANGBASE
 50
0.0
  9
$ANGDIR
 70
     0
  9
$PDMODE
 70
     0
  9
$PDSIZE
 40
0.3125
  9
$PLINEWID
 40
0.0
  9
$COORDS
 70
     1
  9
$SPLFRAME
 70
     0
  9
$SPLINETYPE
 70
     6
  9
$SPLINESEGS
 70
     8
  9
$ATTDIA
 70
     1
  9
$ATTREQ
 70
     1
  9
$HANDLING
 70
     1
  9
$HANDSEED
  5
31D9F
  9
$SURFTAB1
 70
     6
  9
$SURFTAB2
 70
     6
  9
$SURFTYPE
 70
     6
  9
$SURFU
 70
     6
  9
$SURFV
 70
     6
  9
$UCSNAME
  2

  9
$UCSORG
 10
0.0
 20
0.0
 30
0.0
  9
$UCSXDIR
 10
1.0
 20
0.0
 30
0.0
  9
$UCSYDIR
 10
0.0
 20
1.0
 30
0.0
  9
$PUCSNAME
  2

  9
$PUCSORG
 10
0.0
 20
0.0
 30
0.0
  9
$PUCSXDIR
 10
1.0
 20
0.0
 30
0.0
  9
$PUCSYDIR
 10
0.0
 20
1.0
 30
0.0
  9
$USERI1
 70
     0
  9
$USERI2
 70
     0
  9
$USERI3
 70
     0
  9
$USERI4
 70
     0
  9
$USERI5
 70
     0
  9
$USERR1
 40
0.0
  9
$USERR2
 40
0.0
  9
$USERR3
 40
0.0
  9
$USERR4
 40
0.0
  9
$USERR5
 40
0.0
  9
$WORLDVIEW
 70
     1
  9
$SHADEDGE
 70
     3
  9
$SHADEDIF
 70
    70
  9
$TILEMODE
 70
     1
  9
$MAXACTVP
 70
    64
  9
$PLIMCHECK
 70
     0
  9
$PEXTMIN
 10
1.0000000000000000E+20
 20
1.0000000000000000E+20
 30
1.0000000000000000E+20
  9
$PEXTMAX
 10
-1.0000000000000000E+20
 20
-1.0000000000000000E+20
 30
-1.0000000000000000E+20
  9
$PLIMMIN
 10
0.0
 20
0.0
  9
$PLIMMAX
 10
12.0
 20
9.0
  9
$UNITMODE
 70
     0
  9
$VISRETAIN
 70
     1
  9
$PLINEGEN
 70
     0
  9
$PSLTSCALE
 70
     1
  0
ENDSEC
  0
SECTION
  2
TABLES
  0
TABLE
  2
VPORT
 70
     1
  0
VPORT
  2
*ACTIVE
 70
     0
 10
0.0
 20
0.0
 11
1.0
 21
1.0
 12
2816.2342104192680381
 22
23.9400070445619413
 13
0.0
 23
0.0
 14
1.0
 24
1.0
 15
0.0
 25
0.0
 16
0.0
 26
0.0
 36
60.4960186965801583
 17
3911.3653564453120453
 27
132.5796051025390057
 37
0.0
 40
6.7571619712066564
 41
2.558981233243967
 42
50.0
 43
0.0
 44
0.0
 50
0.0
 51
0.0
 71
     0
 72
   100
 73
     1
 74
     1
 75
     0
 76
     0
 77
     0
 78
     0
  0
ENDTAB
  0
TABLE
  2
LTYPE
 70
     2
  0
LTYPE
  2
CONTINUOUS
 70
     0
  3
Solid line
 72
    65
 73
     0
 40
0.0
  0
LTYPE
  2
PHANTOM2
 70
     0
  3
___ _ _ ___ _ _ ___ _ _ ___ _ _
 72
    65
 73
     6
 40
1.25
 49
0.625
 49
-0.125
 49
0.125
 49
-0.125
 49
0.125
 49
-0.125
  0
ENDTAB
  0
TABLE
  2
LAYER
 70
     2
  0
LAYER
  2
0
 70
     0
 62
   255
  6
CONTINUOUS
  0
LAYER
  2
DEFPOINTS
 70
     0
 62
     7
  6
CONTINUOUS
  0
ENDTAB
  0
TABLE
  2
STYLE
 70
     1
  0
STYLE
  2
STANDARD
 70
     0
 40
0.0
 41
0.8
 50
0.0
 71
     0
 42
0.2
  3
txt
  4

  0
ENDTAB
  0
TABLE
  2
VIEW
 70
     2
  0
ENDTAB
  0
TABLE
  2
UCS
 70
     0
  0
ENDTAB
  0
TABLE
  2
APPID
 70
    11
  0
APPID
  2
ACAD
 70
     0
  0
APPID
  2
ACAD_MLEADERVER
 70
     0
  0
APPID
  2
ACAD_EXEMPT_FROM_CAD_STANDARDS
 70
     0
  0
APPID
  2
ACAD_NAV_VCDISPLAY
 70
     0
  0
APPID
  2
ACAECLAYERSTANDARD
 70
     0
  0
APPID
  2
ACCMTRANSPARENCY
 70
     0
  0
APPID
  2
ACAD_DSTYLE_DIMJAG
 70
     0
  0
APPID
  2
ACAD_DSTYLE_DIMTALN
 70
     0
  0
APPID
  2
ACDBATTR
 70
     0
  0
APPID
  2
ACADANNOTATIVE
 70
     0
  0
APPID
  2
DCO15
 70
     0
  0
ENDTAB
  0
TABLE
  2
DIMSTYLE
 70
     1
  0
DIMSTYLE
  2
STANDARD
 70
     0
  3

  4

  5

  6

  7

 40
1.0
 41
0.1875
 42
0.0625
 43
0.38
 44
0.125
 45
0.0
 46
0.0
 47
0.01
 48
0.01
140
0.15625
141
0.09
142
0.0
143
25.3999999999999986
144
1.0
145
0.0
146
1.0
147
0.09
 71
     1
 72
     0
 73
     1
 74
     1
 75
     0
 76
     0
 77
     0
 78
     4
170
     0
171
     2
172
     0
173
     0
174
     0
175
     0
176
     0
177
     0
178
     0
  0
ENDTAB
  0
ENDSEC
  0
SECTION
  2
BLOCKS
  0
BLOCK
  8
0
  2
$MODEL_SPACE
 70
     0
 10
0.0
 20
0.0
 30
0.0
  3
$MODEL_SPACE
  1

  0
ENDBLK
  5
21
  8
0
  0
BLOCK
 67
     1
  8
0
  2
$PAPER_SPACE
 70
     0
 10
0.0
 20
0.0
 30
0.0
  3
$PAPER_SPACE
  1

  0
ENDBLK
  5
1D
 67
     1
  8
0
  0
BLOCK
  8
0
  2
_FILLED
 70
     0
 10
0.0
 20
0.0
 30
0.0
  3
_FILLED
  1

  0
SOLID
  5
2FDD9
  8
0
  6
BYBLOCK
 62
     0
 10
0.0
 20
0.0
 30
0.0
 11
-1.0
 21
0.1666666667
 31
0.0
 12
-1.0
 22
-0.1666666667
 32
0.0
 13
-1.0
 23
-0.1666666667
 33
0.0
  0
ENDBLK
  5
2FDDA
  8
0
  6
BYBLOCK
 62
     0
  0
ENDSEC
  0
SECTION
  2
ENTITIES
  0
ATTDEF
  5
26A5B
  8
DEFPOINTS
 10
6727.5936223513181176
 20
158.744656045560987
 30
0.0
 40
0.001
  1
P32939-00
  3

  2
MODELNUMBER
 70
     0
1001
ACDBATTR
1070
     0
1070
     1
  0
ATTDEF
  5
26A5C
  8
DEFPOINTS
 10
6727.593496541661807
 20
158.7429892051819138
 30
0.0
 40
0.001
  1

  3

  2
TRADENAME
 70
     0
1001
ACDBATTR
1070
     0
1070
     1
  0
ATTDEF
  5
26A5D
  8
DEFPOINTS
 10
6727.5936223513181176
 20
158.7413227122277135
 30
0.0
 40
0.001
  1
SHOWERHEAD
  3

  2
PRODUCT
 70
     0
1001
ACDBATTR
1070
     0
1070
     1
  0
LINE
  5
315C3
  8
0
 10
6724.8042912740811516
 20
155.4047565950486955
 30
0.0
 11
6724.8042912740811516
 21
154.9667735612630963
 31
0.0
  0
ARC
  5
315C4
  8
0
 10
6727.5995668645800833
 20
158.7468798501811023
 30
0.0
 40
0.4133858268
 50
0.0
 51
180.0
  0
ARC
  5
315C5
  8
0
 10
6727.5995668646319245
 20
158.7468798501811023
 30
0.0
 40
0.452755866
 50
335.9293965951757741
 51
204.0706034048226911
  0
ARC
  5
315C6
  8
0
 10
6727.5995668646319245
 20
158.7468798501811023
 30
0.0
 40
0.6838028590999996
 50
307.1957106917479905
 51
232.8042893082518958
  0
ARC
  5
315C7
  8
0
 10
6727.5995668645800833
 20
158.7468798501811023
 30
0.0
 40
1.1220472441
 50
291.6182724291123236
 51
248.3817275763811097
  0
LINE
  5
315C8
  8
0
 10
6727.1861810377786242
 20
158.7468798501811023
 30
0.0
 11
6727.1861810377786242
 21
157.2224805700741967
 31
0.0
  0
ARC
  5
315C9
  8
0
 10
6727.5930149135438114
 20
156.7745823398923051
 30
0.0
 40
0.623100276095065
 50
89.397519027846613
 51
118.9797320614289049
  0
ARC
  5
315CA
  8
0
 10
6727.4361501522416802
 20
157.0578100969783009
 30
0.0
 40
0.2993341325247009
 50
118.9797320614289049
 51
165.4707520785229065
  0
LINE
  5
315CB
  8
0
 10
6728.012952691479768
 20
158.7468798501811023
 30
0.0
 11
6728.012952691479768
 21
157.2224805700741967
 31
0.0
  0
ARC
  5
315CC
  8
0
 10
6727.6061188157173092
 20
156.7745823398923051
 30
0.0
 40
0.623100276095065
 50
61.0202679385711022
 51
90.6024809721533728
  0
ARC
  5
315CD
  8
0
 10
6727.7629835770203499
 20
157.0578100969783009
 30
0.0
 40
0.2993341325247009
 50
14.52924791927191
 51
61.0202679385711022
  0
ARC
  5
315CE
  8
0
 10
6727.5976854157979687
 20
156.337468317684511
 30
0.0
 40
0.0911201021540354
 50
88.8168720588193992
 51
120.3438859522290016
  0
ARC
  5
315CF
  8
0
 10
6727.5759835241933615
 20
156.3745414370069966
 30
0.0
 40
0.048162119479436
 50
120.3438859522290016
 51
142.6409015527264899
  0
ARC
  5
315D0
  8
0
 10
6727.5633203383231375
 20
156.3842088574278932
 30
0.0
 40
0.032230537826929
 50
142.6409015527264899
 51
226.3259653020716087
  0
ARC
  5
315D1
  8
0
 10
6727.5991061086970149
 20
156.2829570515166893
 30
0.0
 40
0.07934077095047
 50
89.6672641510954236
 51
115.1561577230656042
  0
ARC
  5
315D2
  8
0
 10
6727.5845035675538384
 20
156.3140511933380026
 30
0.0
 40
0.0449884804392454
 50
115.1563886431813017
 51
138.1633309578110129
  0
ARC
  5
315D3
  8
0
 10
6727.5718419620070563
 20
156.3253865649845125
 30
0.0
 40
0.0279941606418049
 50
138.1633309578110129
 51
181.5048097872195001
  0
ARC
  5
315D4
  8
0
 10
6727.5676962955876661
 20
156.3252776586346897
 30
0.0
 40
0.0238470639869637
 50
181.5048097872195001
 51
207.527768699148595
  0
ARC
  5
315D5
  8
0
 10
6727.587982496854238
 20
156.3358504858865956
 30
0.0
 40
0.0467231352827748
 50
207.527768699148595
 51
232.1700948409574892
  0
ARC
  5
315D6
  8
0
 10
6727.5846354455234177
 20
156.3315401406528906
 30
0.0
 40
0.0412658622785049
 50
232.1700948409585123
 51
244.8767284065474996
  0
ARC
  5
315D7
  8
0
 10
6727.6007601251249071
 20
156.3659262810946018
 30
0.0
 40
0.079244961092701
 50
244.8767284065474996
 51
259.7246551703494788
  0
ARC
  5
315D8
  8
0
 10
6727.5995404332188627
 20
156.3661785924622905
 30
0.0
 40
0.0792854363870778
 50
260.624493165157503
 51
270.0191007124340103
  0
ARC
  5
315D9
  8
0
 10
6727.5990655063651502
 20
156.2966381843914121
 30
0.0
 40
0.0402770249013154
 50
89.286778142406277
 51
119.5133889691672948
  0
ARC
  5
315DA
  8
0
 10
6727.5891911845856157
 20
156.3140814769841995
 30
0.0
 40
0.0202328066061988
 50
119.5133889691672948
 51
145.3923658269283976
  0
ARC
  5
315DB
  8
0
 10
6727.5836277895832609
 20
156.3179205002699064
 30
0.0
 40
0.0134734084263372
 50
145.3923658269283976
 51
219.3393962567222957
  0
ARC
  5
315DC
  8
0
 10
6727.5921335041239217
 20
156.3248921189920111
 30
0.0
 40
0.0244711649009719
 50
219.3393962567222957
 51
250.1518200742976887
  0
ARC
  5
315DD
  8
0
 10
6727.6005887457404242
 20
156.3483156360842088
 30
0.0
 40
0.0493740214388993
 50
250.1518200742976887
 51
268.8140796168418092
  0
LINE
  5
315DE
  8
0
 10
6727.5377019596799073
 20
156.4037666242811042
 30
0.0
 11
6727.5438478013666099
 21
156.3253865649845125
 31
0.0
  0
ARC
  5
315DF
  8
0
 10
6727.6014483134640614
 20
156.337468317684511
 30
0.0
 40
0.0911201021540354
 50
59.6561140477709486
 51
91.1831279411805866
  0
ARC
  5
315E0
  8
0
 10
6727.6231502050677591
 20
156.3745414370069966
 30
0.0
 40
0.048162119479436
 50
37.3590984472734533
 51
59.6561140477709486
  0
ARC
  5
315E1
  8
0
 10
6727.6358133909370736
 20
156.3842088574278932
 30
0.0
 40
0.032230537826929
 50
313.6740346979283913
 51
37.3590984472734533
  0
ARC
  5
315E2
  8
0
 10
6727.6000276205641057
 20
156.2829570515166893
 30
0.0
 40
0.079340770950467
 50
64.8438422769336853
 51
90.3327358489045906
  0
ARC
  5
315E3
  8
0
 10
6727.6146301617072822
 20
156.3140511933380026
 30
0.0
 40
0.0449884804392454
 50
41.8366690421890013
 51
64.8436113568186698
  0
ARC
  5
315E4
  8
0
 10
6727.6272917672531548
 20
156.3253865649845125
 30
0.0
 40
0.0279941606418049
 50
358.4951902127805852
 51
41.8366690421890013
  0
ARC
  5
315E5
  8
0
 10
6727.6314374336752735
 20
156.3252776586346897
 30
0.0
 40
0.0238470639869637
 50
332.4722313008514902
 51
358.4951902127805852
  0
ARC
  5
315E6
  8
0
 10
6727.6111512324077921
 20
156.3358504858865956
 30
0.0
 40
0.0467231352827748
 50
307.8299051590415161
 51
332.4722313008514902
  0
ARC
  5
315E7
  8
0
 10
6727.6144982837377029
 20
156.3315401406528906
 30
0.0
 40
0.0412658622785049
 50
295.1232715934525004
 51
307.8299051590415161
  0
ARC
  5
315E8
  8
0
 10
6727.598373604137123
 20
156.3659262810946018
 30
0.0
 40
0.079244961092701
 50
280.2753448296504075
 51
295.1232715934525004
  0
ARC
  5
315E9
  8
0
 10
6727.5995932960413484
 20
156.3661785924622905
 30
0.0
 40
0.0792854363870859
 50
269.9808992875659897
 51
279.375506834842497
  0
ARC
  5
315EA
  8
0
 10
6727.6000682228950609
 20
156.2966381843914121
 30
0.0
 40
0.0402770249013154
 50
60.4866110308327194
 51
90.7132218575937657
  0
ARC
  5
315EB
  8
0
 10
6727.6099425446736859
 20
156.3140814769841995
 30
0.0
 40
0.0202328066061988
 50
34.6076341730715882
 51
60.4866110308327194
  0
ARC
  5
315EC
  8
0
 10
6727.6155059396778597
 20
156.3179205002699064
 30
0.0
 40
0.0134734084263372
 50
320.6606037432777043
 51
34.6076341730715882
  0
ARC
  5
315ED
  8
0
 10
6727.6070002251362894
 20
156.3248921189920111
 30
0.0
 40
0.0244711649009719
 50
289.8481799257023113
 51
320.6606037432777043
  0
ARC
  5
315EE
  8
0
 10
6727.5985449835197869
 20
156.3483156360842088
 30
0.0
 40
0.0493740214388993
 50
271.1859203831583045
 51
289.8481799257023113
  0
LINE
  5
315EF
  8
0
 10
6727.6614317695821228
 20
156.4037666242811042
 30
0.0
 11
6727.6552859278954202
 21
156.3253865649845125
 31
0.0
  0
ARC
  5
315F0
  8
0
 10
6727.5976854157979687
 20
155.983175934385514
 30
0.0
 40
0.0911201021540354
 50
88.8168720588193992
 51
120.3438859522290016
  0
ARC
  5
315F1
  8
0
 10
6727.5759835241933615
 20
156.0202490537081133
 30
0.0
 40
0.048162119479436
 50
120.3438859522290016
 51
142.6409015527264899
  0
ARC
  5
315F2
  8
0
 10
6727.5633203383231375
 20
156.0299164741288962
 30
0.0
 40
0.032230537826929
 50
142.6409015527264899
 51
226.3259653020716087
  0
ARC
  5
315F3
  8
0
 10
6727.5991061086970149
 20
155.9286646682176922
 30
0.0
 40
0.07934077095047
 50
89.6672641510954236
 51
115.1561577230656042
  0
ARC
  5
315F4
  8
0
 10
6727.5845035675538384
 20
155.9597588100390055
 30
0.0
 40
0.0449884804392454
 50
115.1563886431813017
 51
138.1633309578110129
  0
ARC
  5
315F5
  8
0
 10
6727.5718419620070563
 20
155.971094181685487
 30
0.0
 40
0.0279941606418049
 50
138.1633309578110129
 51
181.5048097872195001
  0
ARC
  5
315F6
  8
0
 10
6727.5676962955876661
 20
155.9709852753356927
 30
0.0
 40
0.0238470639869637
 50
181.5048097872195001
 51
207.5277686991470887
  0
ARC
  5
315F7
  8
0
 10
6727.587982496854238
 20
155.9815581025877123
 30
0.0
 40
0.0467231352827748
 50
207.5277686991470887
 51
232.1700948409574892
  0
ARC
  5
315F8
  8
0
 10
6727.5846354455234177
 20
155.9772477573538936
 30
0.0
 40
0.0412658622785049
 50
232.1700948409585123
 51
244.8767284065474996
  0
ARC
  5
315F9
  8
0
 10
6727.6007601251249071
 20
156.01163389779569
 30
0.0
 40
0.079244961092701
 50
244.8767284065474996
 51
259.7246551703494788
  0
ARC
  5
315FA
  8
0
 10
6727.5995404332188627
 20
156.0118862091632934
 30
0.0
 40
0.0792854363870778
 50
260.624493165157503
 51
270.0191007124340103
  0
ARC
  5
315FB
  8
0
 10
6727.5990655063651502
 20
155.9423458010923866
 30
0.0
 40
0.0402770249013154
 50
89.286778142406277
 51
119.5133889691672948
  0
ARC
  5
315FC
  8
0
 10
6727.5891911845856157
 20
155.9597890936852878
 30
0.0
 40
0.0202328066061988
 50
119.5133889691672948
 51
145.3923658269283976
  0
ARC
  5
315FD
  8
0
 10
6727.5836277895832609
 20
155.9636281169709093
 30
0.0
 40
0.0134734084263372
 50
145.3923658269283976
 51
219.3393962567222957
  0
ARC
  5
315FE
  8
0
 10
6727.5921335041239217
 20
155.9705997356930141
 30
0.0
 40
0.0244711649009719
 50
219.3393962567222957
 51
250.1518200742976887
  0
ARC
  5
315FF
  8
0
 10
6727.6005887457404242
 20
155.994023252785297
 30
0.0
 40
0.0493740214388993
 50
250.1518200742976887
 51
268.8140796168418092
  0
LINE
  5
31600
  8
0
 10
6727.5377019596799073
 20
156.0494742409821072
 30
0.0
 11
6727.5438478013666099
 21
155.971094181685487
 31
0.0
  0
ARC
  5
31601
  8
0
 10
6727.6014483134640614
 20
155.983175934385514
 30
0.0
 40
0.0911201021540354
 50
59.6561140477709486
 51
91.1831279411805866
  0
ARC
  5
31602
  8
0
 10
6727.6231502050677591
 20
156.0202490537081133
 30
0.0
 40
0.048162119479436
 50
37.3590984472734533
 51
59.6561140477709486
  0
ARC
  5
31603
  8
0
 10
6727.6358133909370736
 20
156.0299164741288962
 30
0.0
 40
0.032230537826929
 50
313.6740346979283913
 51
37.3590984472734533
  0
ARC
  5
31604
  8
0
 10
6727.6000276205641057
 20
155.9286646682176922
 30
0.0
 40
0.079340770950467
 50
64.8438422769336853
 51
90.3327358489045906
  0
ARC
  5
31605
  8
0
 10
6727.6146301617072822
 20
155.9597588100390055
 30
0.0
 40
0.0449884804392454
 50
41.8366690421890013
 51
64.8436113568186698
  0
ARC
  5
31606
  8
0
 10
6727.6272917672531548
 20
155.971094181685487
 30
0.0
 40
0.0279941606418049
 50
358.4951902127805852
 51
41.8366690421890013
  0
ARC
  5
31607
  8
0
 10
6727.6314374336752735
 20
155.9709852753356927
 30
0.0
 40
0.0238470639869637
 50
332.4722313008514902
 51
358.4951902127805852
  0
ARC
  5
31608
  8
0
 10
6727.6111512324077921
 20
155.9815581025877123
 30
0.0
 40
0.0467231352827748
 50
307.8299051590415161
 51
332.4722313008514902
  0
ARC
  5
31609
  8
0
 10
6727.6144982837377029
 20
155.9772477573538936
 30
0.0
 40
0.0412658622785049
 50
295.1232715934525004
 51
307.8299051590415161
  0
ARC
  5
3160A
  8
0
 10
6727.598373604137123
 20
156.01163389779569
 30
0.0
 40
0.079244961092701
 50
280.2753448296504075
 51
295.1232715934525004
  0
ARC
  5
3160B
  8
0
 10
6727.5995932960413484
 20
156.0118862091632934
 30
0.0
 40
0.0792854363870859
 50
269.9808992875659897
 51
279.375506834842497
  0
ARC
  5
3160C
  8
0
 10
6727.6000682228950609
 20
155.9423458010923866
 30
0.0
 40
0.0402770249013154
 50
60.4866110308327194
 51
90.7132218575937657
  0
ARC
  5
3160D
  8
0
 10
6727.6099425446736859
 20
155.9597890936852878
 30
0.0
 40
0.0202328066061988
 50
34.6076341730715882
 51
60.4866110308327194
  0
ARC
  5
3160E
  8
0
 10
6727.6155059396778597
 20
155.9636281169709093
 30
0.0
 40
0.0134734084263372
 50
320.6606037432777043
 51
34.6076341730715882
  0
ARC
  5
3160F
  8
0
 10
6727.6070002251362894
 20
155.9705997356930141
 30
0.0
 40
0.0244711649009719
 50
289.8481799257023113
 51
320.6606037432777043
  0
ARC
  5
31610
  8
0
 10
6727.5985449835197869
 20
155.994023252785297
 30
0.0
 40
0.0493740214388993
 50
271.1859203831583045
 51
289.8481799257023113
  0
LINE
  5
31611
  8
0
 10
6727.6614317695821228
 20
156.0494742409821072
 30
0.0
 11
6727.6552859278954202
 21
155.971094181685487
 31
0.0
  0
ARC
  5
31612
  8
0
 10
6727.5976854157979687
 20
153.8574216346854939
 30
0.0
 40
0.0911201021540354
 50
88.8168720588193992
 51
120.3438859522290016
  0
ARC
  5
31613
  8
0
 10
6727.5759835241933615
 20
153.8944947540080932
 30
0.0
 40
0.048162119479436
 50
120.3438859522290016
 51
142.6409015527264899
  0
ARC
  5
31614
  8
0
 10
6727.5633203383231375
 20
153.9041621744289046
 30
0.0
 40
0.032230537826929
 50
142.6409015527264899
 51
226.3259653020716087
  0
ARC
  5
31615
  8
0
 10
6727.5991061086970149
 20
153.8029103685177006
 30
0.0
 40
0.07934077095047
 50
89.6672641510954236
 51
115.1561577230656042
  0
ARC
  5
31616
  8
0
 10
6727.5845035675538384
 20
153.8340045103390139
 30
0.0
 40
0.0449884804392454
 50
115.1563886431813017
 51
138.1633309578110129
  0
ARC
  5
31617
  8
0
 10
6727.5718419620070563
 20
153.8453398819856091
 30
0.0
 40
0.0279941606418049
 50
138.1633309578110129
 51
181.5048097872195001
  0
ARC
  5
31618
  8
0
 10
6727.5676962955876661
 20
153.845230975635701
 30
0.0
 40
0.0238470639869637
 50
181.5048097872195001
 51
207.527768699148595
  0
ARC
  5
31619
  8
0
 10
6727.587982496854238
 20
153.8558038028876922
 30
0.0
 40
0.0467231352827748
 50
207.527768699148595
 51
232.1700948409574892
  0
ARC
  5
3161A
  8
0
 10
6727.5846354455234177
 20
153.8514934576539019
 30
0.0
 40
0.0412658622785049
 50
232.1700948409585123
 51
244.8767284065474996
  0
ARC
  5
3161B
  8
0
 10
6727.6007601251249071
 20
153.8858795980956984
 30
0.0
 40
0.079244961092701
 50
244.8767284065474996
 51
259.7246551703494788
  0
ARC
  5
3161C
  8
0
 10
6727.5995404332188627
 20
153.8861319094633018
 30
0.0
 40
0.0792854363870778
 50
260.624493165157503
 51
270.0191007124340103
  0
ARC
  5
3161D
  8
0
 10
6727.5990655063651502
 20
153.816591501392395
 30
0.0
 40
0.0402770249013154
 50
89.286778142406277
 51
119.5133889691672948
  0
ARC
  5
3161E
  8
0
 10
6727.5891911845856157
 20
153.8340347939852109
 30
0.0
 40
0.0202328066061988
 50
119.5133889691672948
 51
145.3923658269283976
  0
ARC
  5
3161F
  8
0
 10
6727.5836277895832609
 20
153.837873817271003
 30
0.0
 40
0.0134734084263372
 50
145.3923658269283976
 51
219.3393962567222957
  0
ARC
  5
31620
  8
0
 10
6727.5921335041239217
 20
153.844845435992994
 30
0.0
 40
0.0244711649009719
 50
219.3393962567222957
 51
250.1518200742976887
  0
ARC
  5
31621
  8
0
 10
6727.6005887457404242
 20
153.8682689530853054
 30
0.0
 40
0.0493740214388993
 50
250.1518200742976887
 51
268.8140796168418092
  0
LINE
  5
31622
  8
0
 10
6727.5377019596799073
 20
153.9237199412820871
 30
0.0
 11
6727.5438478013666099
 21
153.8453398819856091
 31
0.0
  0
ARC
  5
31623
  8
0
 10
6727.6014483134640614
 20
153.8574216346854939
 30
0.0
 40
0.0911201021540354
 50
59.6561140477709486
 51
91.1831279411805866
  0
ARC
  5
31624
  8
0
 10
6727.6231502050677591
 20
153.8944947540080932
 30
0.0
 40
0.048162119479436
 50
37.3590984472734533
 51
59.6561140477709486
  0
ARC
  5
31625
  8
0
 10
6727.6358133909370736
 20
153.9041621744289046
 30
0.0
 40
0.032230537826929
 50
313.6740346979283913
 51
37.3590984472734533
  0
ARC
  5
31626
  8
0
 10
6727.6000276205641057
 20
153.8029103685177006
 30
0.0
 40
0.079340770950467
 50
64.8438422769336853
 51
90.3327358489045906
  0
ARC
  5
31627
  8
0
 10
6727.6146301617072822
 20
153.8340045103390139
 30
0.0
 40
0.0449884804392454
 50
41.8366690421890013
 51
64.8436113568186698
  0
ARC
  5
31628
  8
0
 10
6727.6272917672531548
 20
153.8453398819856091
 30
0.0
 40
0.0279941606418049
 50
358.4951902127805852
 51
41.8366690421890013
  0
ARC
  5
31629
  8
0
 10
6727.6314374336752735
 20
153.845230975635701
 30
0.0
 40
0.0238470639869637
 50
332.4722313008514902
 51
358.4951902127805852
  0
ARC
  5
3162A
  8
0
 10
6727.6111512324077921
 20
153.8558038028876922
 30
0.0
 40
0.0467231352827748
 50
307.8299051590415161
 51
332.4722313008514902
  0
ARC
  5
3162B
  8
0
 10
6727.6144982837377029
 20
153.8514934576539019
 30
0.0
 40
0.0412658622785049
 50
295.1232715934525004
 51
307.8299051590415161
  0
ARC
  5
3162C
  8
0
 10
6727.598373604137123
 20
153.8858795980956984
 30
0.0
 40
0.079244961092701
 50
280.2753448296504075
 51
295.1232715934525004
  0
ARC
  5
3162D
  8
0
 10
6727.5995932960413484
 20
153.8861319094633018
 30
0.0
 40
0.0792854363870859
 50
269.9808992875659897
 51
279.375506834842497
  0
ARC
  5
3162E
  8
0
 10
6727.6000682228950609
 20
153.816591501392395
 30
0.0
 40
0.0402770249013154
 50
60.4866110308327194
 51
90.7132218575937657
  0
ARC
  5
3162F
  8
0
 10
6727.6099425446736859
 20
153.8340347939852109
 30
0.0
 40
0.0202328066061988
 50
34.6076341730715882
 51
60.4866110308327194
  0
ARC
  5
31630
  8
0
 10
6727.6155059396778597
 20
153.837873817271003
 30
0.0
 40
0.0134734084263372
 50
320.6606037432777043
 51
34.6076341730715882
  0
ARC
  5
31631
  8
0
 10
6727.6070002251362894
 20
153.844845435992994
 30
0.0
 40
0.0244711649009719
 50
289.8481799257023113
 51
320.6606037432777043
  0
ARC
  5
31632
  8
0
 10
6727.5985449835197869
 20
153.8682689530853054
 30
0.0
 40
0.0493740214388993
 50
271.1859203831583045
 51
289.8481799257023113
  0
LINE
  5
31633
  8
0
 10
6727.6614317695821228
 20
153.9237199412820871
 30
0.0
 11
6727.6552859278954202
 21
153.8453398819856091
 31
0.0
  0
ARC
  5
31634
  8
0
 10
6727.5976854157479465
 20
153.5031292513855021
 30
0.0
 40
0.0911201021540354
 50
88.8168720588193992
 51
120.3438859522290016
  0
ARC
  5
31635
  8
0
 10
6727.5759835241433393
 20
153.5402023707079877
 30
0.0
 40
0.048162119479436
 50
120.3438859522290016
 51
142.6409015527264899
  0
ARC
  5
31636
  8
0
 10
6727.5633203382740248
 20
153.5498697911289128
 30
0.0
 40
0.032230537826929
 50
142.6409015527264899
 51
226.3259653020716087
  0
ARC
  5
31637
  8
0
 10
6727.5991061086469927
 20
153.4486179852177088
 30
0.0
 40
0.07934077095047
 50
89.6672641510954236
 51
115.1561577230656042
  0
ARC
  5
31638
  8
0
 10
6727.5845035675047257
 20
153.4797121270389937
 30
0.0
 40
0.0449884804392454
 50
115.1563886431813017
 51
138.1633309578110129
  0
ARC
  5
31639
  8
0
 10
6727.5718419619579436
 20
153.4910474986855036
 30
0.0
 40
0.0279941606418049
 50
138.1633309578110129
 51
181.5048097872195001
  0
ARC
  5
3163A
  8
0
 10
6727.5676962955367344
 20
153.4909385923357092
 30
0.0
 40
0.0238470639869637
 50
181.5048097872195001
 51
207.527768699148595
  0
ARC
  5
3163B
  8
0
 10
6727.5879824968042158
 20
153.5015114195877004
 30
0.0
 40
0.0467231352827748
 50
207.527768699148595
 51
232.1700948409574892
  0
ARC
  5
3163C
  8
0
 10
6727.5846354454733955
 20
153.4972010743539101
 30
0.0
 40
0.0412658622785049
 50
232.1700948409585123
 51
244.8767284065474996
  0
ARC
  5
3163D
  8
0
 10
6727.6007601250748849
 20
153.5315872147957066
 30
0.0
 40
0.079244961092701
 50
244.8767284065474996
 51
259.7246551703494788
  0
ARC
  5
3163E
  8
0
 10
6727.5995404331688405
 20
153.53183952616331
 30
0.0
 40
0.0792854363870778
 50
260.624493165157503
 51
270.0191007124340103
  0
ARC
  5
3163F
  8
0
 10
6727.599065506315128
 20
153.4622991180924032
 30
0.0
 40
0.0402770249013154
 50
89.286778142406277
 51
119.5133889691672948
  0
ARC
  5
31640
  8
0
 10
6727.5891911845355935
 20
153.4797424106851906
 30
0.0
 40
0.0202328066061988
 50
119.5133889691672948
 51
145.3923658269283976
  0
ARC
  5
31641
  8
0
 10
6727.5836277895341482
 20
153.4835814339708975
 30
0.0
 40
0.0134734084263372
 50
145.3923658269283976
 51
219.3393962567222957
  0
ARC
  5
31642
  8
0
 10
6727.5921335040738995
 20
153.4905530526930022
 30
0.0
 40
0.0244711649009719
 50
219.3393962567222957
 51
250.1518200742976887
  0
ARC
  5
31643
  8
0
 10
6727.6005887456913115
 20
153.5139765697853136
 30
0.0
 40
0.0493740214388993
 50
250.1518200742976887
 51
268.8140796168418092
  0
LINE
  5
31644
  8
0
 10
6727.5377019596298851
 20
153.5694275579820953
 30
0.0
 11
6727.5438478013165877
 21
153.4910474986855036
 31
0.0
  0
ARC
  5
31645
  8
0
 10
6727.6014483134140391
 20
153.5031292513855021
 30
0.0
 40
0.0911201021540354
 50
59.6561140477709486
 51
91.1831279411805866
  0
ARC
  5
31646
  8
0
 10
6727.6231502050177369
 20
153.5402023707079877
 30
0.0
 40
0.048162119479436
 50
37.3590984472734533
 51
59.6561140477709486
  0
ARC
  5
31647
  8
0
 10
6727.6358133908870514
 20
153.5498697911289128
 30
0.0
 40
0.032230537826929
 50
313.6740346979283913
 51
37.3590984472734533
  0
ARC
  5
31648
  8
0
 10
6727.6000276205140835
 20
153.4486179852177088
 30
0.0
 40
0.079340770950467
 50
64.8438422769336853
 51
90.3327358489045906
  0
ARC
  5
31649
  8
0
 10
6727.61463016165726
 20
153.4797121270389937
 30
0.0
 40
0.0449884804392454
 50
41.8366690421890013
 51
64.8436113568186698
  0
ARC
  5
3164A
  8
0
 10
6727.6272917672031326
 20
153.4910474986855036
 30
0.0
 40
0.0279941606418049
 50
358.4951902127805852
 51
41.8366690421890013
  0
ARC
  5
3164B
  8
0
 10
6727.6314374336243418
 20
153.4909385923357092
 30
0.0
 40
0.0238470639869637
 50
332.4722313008514902
 51
358.4951902127805852
  0
ARC
  5
3164C
  8
0
 10
6727.6111512323577699
 20
153.5015114195877004
 30
0.0
 40
0.0467231352827748
 50
307.8299051590415161
 51
332.4722313008514902
  0
ARC
  5
3164D
  8
0
 10
6727.6144982836876807
 20
153.4972010743539101
 30
0.0
 40
0.0412658622785049
 50
295.1232715934525004
 51
307.8299051590415161
  0
ARC
  5
3164E
  8
0
 10
6727.5983736040852818
 20
153.5315872147957066
 30
0.0
 40
0.079244961092701
 50
280.2753448296504075
 51
295.1232715934525004
  0
ARC
  5
3164F
  8
0
 10
6727.5995932959913262
 20
153.53183952616331
 30
0.0
 40
0.0792854363870859
 50
269.9808992875659897
 51
279.375506834842497
  0
ARC
  5
31650
  8
0
 10
6727.6000682228450387
 20
153.4622991180924032
 30
0.0
 40
0.0402770249013154
 50
60.4866110308327194
 51
90.7132218575937657
  0
ARC
  5
31651
  8
0
 10
6727.6099425446236637
 20
153.4797424106851906
 30
0.0
 40
0.0202328066061988
 50
34.6076341730715882
 51
60.4866110308327194
  0
ARC
  5
31652
  8
0
 10
6727.6155059396278375
 20
153.4835814339708975
 30
0.0
 40
0.0134734084263372
 50
320.6606037432777043
 51
34.6076341730715882
  0
ARC
  5
31653
  8
0
 10
6727.6070002250862672
 20
153.4905530526930022
 30
0.0
 40
0.0244711649009719
 50
289.8481799257023113
 51
320.6606037432777043
  0
ARC
  5
31654
  8
0
 10
6727.5985449834706742
 20
153.5139765697853136
 30
0.0
 40
0.0493740214388993
 50
271.1859203831583045
 51
289.8481799257023113
  0
LINE
  5
31655
  8
0
 10
6727.6614317695321006
 20
153.5694275579820953
 30
0.0
 11
6727.655285927845398
 21
153.4910474986855036
 31
0.0
  0
ARC
  5
31656
  8
0
 10
6726.9166583165388147
 20
156.2681066745059866
 30
0.0
 40
0.0911201021540354
 50
88.8168720588193992
 51
120.3438859522290016
  0
ARC
  5
31657
  8
0
 10
6726.8949564249342075
 20
156.3051797938285858
 30
0.0
 40
0.048162119479436
 50
120.3438859522290016
 51
142.6409015527264899
  0
ARC
  5
31658
  8
0
 10
6726.8822932390639835
 20
156.3148472142493972
 30
0.0
 40
0.032230537826929
 50
142.6409015527264899
 51
226.3259653020716087
  0
ARC
  5
31659
  8
0
 10
6726.9180790094378608
 20
156.2135954083381932
 30
0.0
 40
0.07934077095047
 50
89.6672641510954236
 51
115.1561577230656042
  0
ARC
  5
3165A
  8
0
 10
6726.9034764682955938
 20
156.2446895501595066
 30
0.0
 40
0.0449884804392454
 50
115.1563886431813017
 51
138.1633309578110129
  0
ARC
  5
3165B
  8
0
 10
6726.8908148627479022
 20
156.256024921805988
 30
0.0
 40
0.0279941606418049
 50
138.1633309578110129
 51
181.5048097872195001
  0
ARC
  5
3165C
  8
0
 10
6726.8866691963276025
 20
156.2559160154561937
 30
0.0
 40
0.0238470639869637
 50
181.5048097872195001
 51
207.5277686991470887
  0
ARC
  5
3165D
  8
0
 10
6726.9069553975950839
 20
156.2664888427082133
 30
0.0
 40
0.0467231352827748
 50
207.5277686991470887
 51
232.1700948409574892
  0
ARC
  5
3165E
  8
0
 10
6726.9036083462642637
 20
156.2621784974743946
 30
0.0
 40
0.0412658622785049
 50
232.1700948409585123
 51
244.8767284065474996
  0
ARC
  5
3165F
  8
0
 10
6726.919733025865753
 20
156.296564637916191
 30
0.0
 40
0.079244961092701
 50
244.8767284065474996
 51
259.7246551703494788
  0
ARC
  5
31660
  8
0
 10
6726.9185133339597087
 20
156.2968169492837944
 30
0.0
 40
0.0792854363870778
 50
260.624493165157503
 51
270.0191007124340103
  0
ARC
  5
31661
  8
0
 10
6726.9180384071059962
 20
156.2272765412128877
 30
0.0
 40
0.0402770249013154
 50
89.286778142406277
 51
119.5133889691672948
  0
ARC
  5
31662
  8
0
 10
6726.9081640853273711
 20
156.2447198338057888
 30
0.0
 40
0.0202328066061988
 50
119.5133889691672948
 51
145.3923658269283976
  0
ARC
  5
31663
  8
0
 10
6726.9026006903241068
 20
156.2485588570914956
 30
0.0
 40
0.0134734084263372
 50
145.3923658269283976
 51
219.3393962567222957
  0
ARC
  5
31664
  8
0
 10
6726.9111064048665867
 20
156.2555304758134866
 30
0.0
 40
0.0244711649009719
 50
219.3393962567222957
 51
250.1518200742976887
  0
ARC
  5
31665
  8
0
 10
6726.9195616464812701
 20
156.278953992905798
 30
0.0
 40
0.0493740214388993
 50
250.1518200742976887
 51
268.8140796168418092
  0
LINE
  5
31666
  8
0
 10
6726.8566748604207532
 20
156.3344049811026082
 30
0.0
 11
6726.8628207021083654
 21
156.256024921805988
 31
0.0
  0
ARC
  5
31667
  8
0
 10
6726.9204212142058168
 20
156.2681066745059866
 30
0.0
 40
0.0911201021540354
 50
59.6561140477709486
 51
91.1831279411805866
  0
ARC
  5
31668
  8
0
 10
6726.942123105808605
 20
156.3051797938285858
 30
0.0
 40
0.048162119479436
 50
37.3590984472734533
 51
59.6561140477709486
  0
ARC
  5
31669
  8
0
 10
6726.9547862916779195
 20
156.3148472142493972
 30
0.0
 40
0.032230537826929
 50
313.6740346979283913
 51
37.3590984472734533
  0
ARC
  5
3166A
  8
0
 10
6726.9190005213058612
 20
156.2135954083381932
 30
0.0
 40
0.079340770950467
 50
64.8438422769336853
 51
90.3327358489045906
  0
ARC
  5
3166B
  8
0
 10
6726.9336030624481282
 20
156.2446895501595066
 30
0.0
 40
0.0449884804392454
 50
41.8366690421890013
 51
64.8436113568186698
  0
ARC
  5
3166C
  8
0
 10
6726.9462646679940008
 20
156.256024921805988
 30
0.0
 40
0.0279941606418049
 50
358.4951902127805852
 51
41.8366690421890013
  0
ARC
  5
3166D
  8
0
 10
6726.9504103344143005
 20
156.2559160154561937
 30
0.0
 40
0.0238470639869637
 50
332.4722313008514902
 51
358.4951902127805852
  0
ARC
  5
3166E
  8
0
 10
6726.9301241331486381
 20
156.2664888427082133
 30
0.0
 40
0.0467231352827748
 50
307.8299051590415161
 51
332.4722313008514902
  0
ARC
  5
3166F
  8
0
 10
6726.9334711844785488
 20
156.2621784974743946
 30
0.0
 40
0.0412658622785049
 50
295.1232715934525004
 51
307.8299051590415161
  0
ARC
  5
31670
  8
0
 10
6726.91734650487615
 20
156.296564637916191
 30
0.0
 40
0.079244961092701
 50
280.2753448296504075
 51
295.1232715934525004
  0
ARC
  5
31671
  8
0
 10
6726.9185661967840133
 20
156.2968169492837944
 30
0.0
 40
0.0792854363870859
 50
269.9808992875659897
 51
279.375506834842497
  0
ARC
  5
31672
  8
0
 10
6726.9190411236377258
 20
156.2272765412128877
 30
0.0
 40
0.0402770249013154
 50
60.4866110308327194
 51
90.7132218575937657
  0
ARC
  5
31673
  8
0
 10
6726.9289154454163508
 20
156.2447198338057888
 30
0.0
 40
0.0202328066061988
 50
34.6076341730715882
 51
60.4866110308327194
  0
ARC
  5
31674
  8
0
 10
6726.9344788404187057
 20
156.2485588570914956
 30
0.0
 40
0.0134734084263372
 50
320.6606037432777043
 51
34.6076341730715882
  0
ARC
  5
31675
  8
0
 10
6726.9259731258771353
 20
156.2555304758134866
 30
0.0
 40
0.0244711649009719
 50
289.8481799257023113
 51
320.6606037432777043
  0
ARC
  5
31676
  8
0
 10
6726.9175178842606329
 20
156.278953992905798
 30
0.0
 40
0.0493740214388993
 50
271.1859203831583045
 51
289.8481799257023113
  0
LINE
  5
31677
  8
0
 10
6726.9804046703229687
 20
156.3344049811026082
 30
0.0
 11
6726.9742588286362661
 21
156.256024921805988
 31
0.0
  0
ARC
  5
31678
  8
0
 10
6727.0869533474951822
 20
155.9308847531264917
 30
0.0
 40
0.0911201021540354
 50
88.8168720588193992
 51
120.3438859522290016
  0
ARC
  5
31679
  8
0
 10
6727.0652514558896655
 20
155.9679578724490057
 30
0.0
 40
0.048162119479436
 50
120.3438859522290016
 51
142.6409015527264899
  0
ARC
  5
3167A
  8
0
 10
6727.0525882700230795
 20
155.9776252928699023
 30
0.0
 40
0.032230537826929
 50
142.6409015527264899
 51
226.3259653020716087
  0
ARC
  5
3167B
  8
0
 10
6727.0883740403951379
 20
155.8763734869586983
 30
0.0
 40
0.07934077095047
 50
89.6672641510954236
 51
115.1561577230656042
  0
ARC
  5
3167C
  8
0
 10
6727.0737714992519614
 20
155.9074676287800116
 30
0.0
 40
0.0449884804392454
 50
115.1563886431813017
 51
138.1633309578110129
  0
ARC
  5
3167D
  8
0
 10
6727.0611098937051793
 20
155.9188030004264931
 30
0.0
 40
0.0279941606418049
 50
138.1633309578110129
 51
181.5048097872195001
  0
ARC
  5
3167E
  8
0
 10
6727.0569642272839701
 20
155.9186940940766988
 30
0.0
 40
0.0238470639869637
 50
181.5048097872195001
 51
207.5277686991470887
  0
ARC
  5
3167F
  8
0
 10
6727.077250428552361
 20
155.9292669213286899
 30
0.0
 40
0.0467231352827748
 50
207.5277686991470887
 51
232.1700948409574892
  0
ARC
  5
31680
  8
0
 10
6727.0739033772197217
 20
155.9249565760948997
 30
0.0
 40
0.0412658622785049
 50
232.1700948409585123
 51
244.8767284065474996
  0
ARC
  5
31681
  8
0
 10
6727.0900280568230301
 20
155.9593427165366961
 30
0.0
 40
0.079244961092701
 50
244.8767284065474996
 51
259.7246551703494788
  0
ARC
  5
31682
  8
0
 10
6727.0888083649169857
 20
155.9595950279042995
 30
0.0
 40
0.0792854363870778
 50
260.624493165157503
 51
270.0191007124340103
  0
ARC
  5
31683
  8
0
 10
6727.0883334380632732
 20
155.8900546198333927
 30
0.0
 40
0.0402770249013154
 50
89.286778142406277
 51
119.5133889691672948
  0
ARC
  5
31684
  8
0
 10
6727.0784591162846482
 20
155.9074979124262086
 30
0.0
 40
0.0202328066061988
 50
119.5133889691672948
 51
145.3923658269283976
  0
ARC
  5
31685
  8
0
 10
6727.0728957212813839
 20
155.911336935711887
 30
0.0
 40
0.0134734084263372
 50
145.3923658269283976
 51
219.3393962567222957
  0
ARC
  5
31686
  8
0
 10
6727.0814014358238637
 20
155.9183085544339917
 30
0.0
 40
0.0244711649009719
 50
219.3393962567222957
 51
250.1518200742976887
  0
ARC
  5
31687
  8
0
 10
6727.0898566774367282
 20
155.9417320715263031
 30
0.0
 40
0.0493740214388993
 50
250.1518200742976887
 51
268.8140796168418092
  0
LINE
  5
31688
  8
0
 10
6727.0269698913780303
 20
155.9971830597231133
 30
0.0
 11
6727.0331157330638234
 21
155.9188030004264931
 31
0.0
  0
ARC
  5
31689
  8
0
 10
6727.0907162451621844
 20
155.9308847531264917
 30
0.0
 40
0.0911201021540354
 50
59.6561140477709486
 51
91.1831279411805866
  0
ARC
  5
3168A
  8
0
 10
6727.1124181367658821
 20
155.9679578724490057
 30
0.0
 40
0.048162119479436
 50
37.3590984472734533
 51
59.6561140477709486
  0
ARC
  5
3168B
  8
0
 10
6727.1250813226342871
 20
155.9776252928699023
 30
0.0
 40
0.032230537826929
 50
313.6740346979283913
 51
37.3590984472734533
  0
ARC
  5
3168C
  8
0
 10
6727.0892955522622287
 20
155.8763734869586983
 30
0.0
 40
0.079340770950467
 50
64.8438422769336853
 51
90.3327358489045906
  0
ARC
  5
3168D
  8
0
 10
6727.1038980934054052
 20
155.9074676287800116
 30
0.0
 40
0.0449884804392454
 50
41.8366690421890013
 51
64.8436113568186698
  0
ARC
  5
3168E
  8
0
 10
6727.1165596989521873
 20
155.9188030004264931
 30
0.0
 40
0.0279941606418049
 50
358.4951902127805852
 51
41.8366690421890013
  0
ARC
  5
3168F
  8
0
 10
6727.120705365370668
 20
155.9186940940766988
 30
0.0
 40
0.0238470639869637
 50
332.4722313008514902
 51
358.4951902127805852
  0
ARC
  5
31690
  8
0
 10
6727.1004191641059151
 20
155.9292669213286899
 30
0.0
 40
0.0467231352827748
 50
307.8299051590415161
 51
332.4722313008514902
  0
ARC
  5
31691
  8
0
 10
6727.1037662154349164
 20
155.9249565760948997
 30
0.0
 40
0.0412658622785049
 50
295.1232715934525004
 51
307.8299051590415161
  0
ARC
  5
31692
  8
0
 10
6727.087641535833427
 20
155.9593427165366961
 30
0.0
 40
0.079244961092701
 50
280.2753448296504075
 51
295.1232715934525004
  0
ARC
  5
31693
  8
0
 10
6727.0888612277385619
 20
155.9595950279042995
 30
0.0
 40
0.0792854363870859
 50
269.9808992875659897
 51
279.375506834842497
  0
ARC
  5
31694
  8
0
 10
6727.0893361545950029
 20
155.8900546198333927
 30
0.0
 40
0.0402770249013154
 50
60.4866110308327194
 51
90.7132218575937657
  0
ARC
  5
31695
  8
0
 10
6727.0992104763718089
 20
155.9074979124262086
 30
0.0
 40
0.0202328066061988
 50
34.6076341730715882
 51
60.4866110308327194
  0
ARC
  5
31696
  8
0
 10
6727.1047738713759827
 20
155.911336935711887
 30
0.0
 40
0.0134734084263372
 50
320.6606037432777043
 51
34.6076341730715882
  0
ARC
  5
31697
  8
0
 10
6727.0962681568344124
 20
155.9183085544339917
 30
0.0
 40
0.0244711649009719
 50
289.8481799257023113
 51
320.6606037432777043
  0
ARC
  5
31698
  8
0
 10
6727.0878129152179099
 20
155.9417320715263031
 30
0.0
 40
0.0493740214388993
 50
271.1859203831583045
 51
289.8481799257023113
  0
LINE
  5
31699
  8
0
 10
6727.1506997012784268
 20
155.9971830597231133
 30
0.0
 11
6727.1445538595917242
 21
155.9188030004264931
 31
0.0
  0
ARC
  5
3169A
  8
0
 10
6727.2574563855268934
 20
155.5941156181775114
 30
0.0
 40
0.0911201021540354
 50
88.8168720588193992
 51
120.3438859522290016
  0
ARC
  5
3169B
  8
0
 10
6727.2357544939241052
 20
155.6311887374999969
 30
0.0
 40
0.048162119479436
 50
120.3438859522290016
 51
142.6409015527264899
  0
ARC
  5
3169C
  8
0
 10
6727.2230913080538812
 20
155.6408561579208936
 30
0.0
 40
0.032230537826929
 50
142.6409015527264899
 51
226.3259653020716087
  0
ARC
  5
3169D
  8
0
 10
6727.2588770784277585
 20
155.5396043520096896
 30
0.0
 40
0.07934077095047
 50
89.6672641510954236
 51
115.1561577230656042
  0
ARC
  5
3169E
  8
0
 10
6727.244274537286401
 20
155.5706984938310029
 30
0.0
 40
0.0449884804392454
 50
115.1563886431813017
 51
138.1633309578110129
  0
ARC
  5
3169F
  8
0
 10
6727.2316129317378
 20
155.5820338654775128
 30
0.0
 40
0.0279941606418049
 50
138.1633309578110129
 51
181.5048097872195001
  0
ARC
  5
316A0
  8
0
 10
6727.2274672653184098
 20
155.58192495912769
 30
0.0
 40
0.0238470639869637
 50
181.5048097872195001
 51
207.5277686991470887
  0
ARC
  5
316A1
  8
0
 10
6727.2477534665849817
 20
155.5924977863797096
 30
0.0
 40
0.0467231352827748
 50
207.5277686991470887
 51
232.1700948409574892
  0
ARC
  5
316A2
  8
0
 10
6727.2444064152541614
 20
155.5881874411458909
 30
0.0
 40
0.0412658622785049
 50
232.1700948409585123
 51
244.8767284065474996
  0
ARC
  5
316A3
  8
0
 10
6727.2605310948556507
 20
155.6225735815876021
 30
0.0
 40
0.079244961092701
 50
244.8767284065474996
 51
259.7246551703494788
  0
ARC
  5
316A4
  8
0
 10
6727.2593114029496064
 20
155.6228258929552908
 30
0.0
 40
0.0792854363870778
 50
260.624493165157503
 51
270.0191007124340103
  0
ARC
  5
316A5
  8
0
 10
6727.2588364760958939
 20
155.5532854848844124
 30
0.0
 40
0.0402770249013154
 50
89.286778142406277
 51
119.5133889691672948
  0
ARC
  5
316A6
  8
0
 10
6727.2489621543172689
 20
155.5707287774771999
 30
0.0
 40
0.0202328066061988
 50
119.5133889691672948
 51
145.3923658269283976
  0
ARC
  5
316A7
  8
0
 10
6727.2433987593140046
 20
155.5745678007629067
 30
0.0
 40
0.0134734084263372
 50
145.3923658269283976
 51
219.3393962567222957
  0
ARC
  5
316A8
  8
0
 10
6727.2519044738555749
 20
155.5815394194850114
 30
0.0
 40
0.0244711649009719
 50
219.3393962567222957
 51
250.1518200742976887
  0
ARC
  5
316A9
  8
0
 10
6727.2603597154711679
 20
155.6049629365772091
 30
0.0
 40
0.0493740214388993
 50
250.1518200742976887
 51
268.8140796168418092
  0
LINE
  5
316AA
  8
0
 10
6727.197472929410651
 20
155.6604139247741045
 30
0.0
 11
6727.2036187710982631
 21
155.5820338654775128
 31
0.0
  0
ARC
  5
316AB
  8
0
 10
6727.2612192831938955
 20
155.5941156181775114
 30
0.0
 40
0.0911201021540354
 50
59.6561140477709486
 51
91.1831279411805866
  0
ARC
  5
316AC
  8
0
 10
6727.2829211747994123
 20
155.6311887374999969
 30
0.0
 40
0.048162119479436
 50
37.3590984472734533
 51
59.6561140477709486
  0
ARC
  5
316AD
  8
0
 10
6727.2955843606678172
 20
155.6408561579208936
 30
0.0
 40
0.032230537826929
 50
313.6740346979283913
 51
37.3590984472734533
  0
ARC
  5
316AE
  8
0
 10
6727.2597985902948494
 20
155.5396043520096896
 30
0.0
 40
0.079340770950467
 50
64.8438422769336853
 51
90.3327358489045906
  0
ARC
  5
316AF
  8
0
 10
6727.2744011314380259
 20
155.5706984938310029
 30
0.0
 40
0.0449884804392454
 50
41.8366690421890013
 51
64.8436113568186698
  0
ARC
  5
316B0
  8
0
 10
6727.2870627369838985
 20
155.5820338654775128
 30
0.0
 40
0.0279941606418049
 50
358.4951902127805852
 51
41.8366690421890013
  0
ARC
  5
316B1
  8
0
 10
6727.2912084034041982
 20
155.58192495912769
 30
0.0
 40
0.0238470639869637
 50
332.4722313008514902
 51
358.4951902127805852
  0
ARC
  5
316B2
  8
0
 10
6727.2709222021394453
 20
155.5924977863797096
 30
0.0
 40
0.0467231352827748
 50
307.8299051590415161
 51
332.4722313008514902
  0
ARC
  5
316B3
  8
0
 10
6727.274269253469356
 20
155.5881874411458909
 30
0.0
 40
0.0412658622785049
 50
295.1232715934525004
 51
307.8299051590415161
  0
ARC
  5
316B4
  8
0
 10
6727.2581445738660477
 20
155.6225735815876021
 30
0.0
 40
0.079244961092701
 50
280.2753448296504075
 51
295.1232715934525004
  0
ARC
  5
316B5
  8
0
 10
6727.2593642657730015
 20
155.6228258929552908
 30
0.0
 40
0.0792854363870859
 50
269.9808992875659897
 51
279.375506834842497
  0
ARC
  5
316B6
  8
0
 10
6727.2598391926258046
 20
155.5532854848844124
 30
0.0
 40
0.0402770249013154
 50
60.4866110308327194
 51
90.7132218575937657
  0
ARC
  5
316B7
  8
0
 10
6727.2697135144062486
 20
155.5707287774771999
 30
0.0
 40
0.0202328066061988
 50
34.6076341730715882
 51
60.4866110308327194
  0
ARC
  5
316B8
  8
0
 10
6727.2752769094076939
 20
155.5745678007629067
 30
0.0
 40
0.0134734084263372
 50
320.6606037432777043
 51
34.6076341730715882
  0
ARC
  5
316B9
  8
0
 10
6727.266771194867033
 20
155.5815394194850114
 30
0.0
 40
0.0244711649009719
 50
289.8481799257023113
 51
320.6606037432777043
  0
ARC
  5
316BA
  8
0
 10
6727.2583159532514401
 20
155.6049629365772091
 30
0.0
 40
0.0493740214388993
 50
271.1859203831583045
 51
289.8481799257023113
  0
LINE
  5
316BB
  8
0
 10
6727.3212027393110475
 20
155.6604139247741045
 30
0.0
 11
6727.3150568976261638
 21
155.5820338654775128
 31
0.0
  0
ARC
  5
316BC
  8
0
 10
6726.6257599359250889
 20
155.7795167040540889
 30
0.0
 40
0.0911201021540354
 50
88.8168720588193992
 51
120.3438859522290016
  0
ARC
  5
316BD
  8
0
 10
6726.6040580443195722
 20
155.8165898233766029
 30
0.0
 40
0.048162119479436
 50
120.3438859522290016
 51
142.6409015527264899
  0
ARC
  5
316BE
  8
0
 10
6726.5913948584511672
 20
155.8262572437973859
 30
0.0
 40
0.032230537826929
 50
142.6409015527264899
 51
226.3259653020716087
  0
ARC
  5
316BF
  8
0
 10
6726.6271806288241351
 20
155.7250054378862103
 30
0.0
 40
0.07934077095047
 50
89.6672641510954236
 51
115.1561577230656042
  0
ARC
  5
316C0
  8
0
 10
6726.6125780876809586
 20
155.7560995797074952
 30
0.0
 40
0.0449884804392454
 50
115.1563886431813017
 51
138.1633309578110129
  0
ARC
  5
316C1
  8
0
 10
6726.599916482135086
 20
155.7674349513540903
 30
0.0
 40
0.0279941606418049
 50
138.1633309578110129
 51
181.5048097872195001
  0
ARC
  5
316C2
  8
0
 10
6726.5957708157138768
 20
155.7673260450042108
 30
0.0
 40
0.0238470639869637
 50
181.5048097872195001
 51
207.5277686991470887
  0
ARC
  5
316C3
  8
0
 10
6726.6160570169822677
 20
155.7778988722562019
 30
0.0
 40
0.0467231352827748
 50
207.5277686991470887
 51
232.1700948409574892
  0
ARC
  5
316C4
  8
0
 10
6726.6127099656496284
 20
155.7735885270224969
 30
0.0
 40
0.0412658622785049
 50
232.1700948409585123
 51
244.8767284065474996
  0
ARC
  5
316C5
  8
0
 10
6726.6288346452529368
 20
155.8079746674642081
 30
0.0
 40
0.079244961092701
 50
244.8767284065474996
 51
259.7246551703494788
  0
ARC
  5
316C6
  8
0
 10
6726.6276149533468924
 20
155.8082269788318968
 30
0.0
 40
0.0792854363870778
 50
260.624493165157503
 51
270.0191007124340103
  0
ARC
  5
316C7
  8
0
 10
6726.6271400264931799
 20
155.73868657076099
 30
0.0
 40
0.0402770249013154
 50
89.286778142406277
 51
119.5133889691672948
  0
ARC
  5
316C8
  8
0
 10
6726.6172657047136454
 20
155.7561298633538058
 30
0.0
 40
0.0202328066061988
 50
119.5133889691672948
 51
145.3923658269283976
  0
ARC
  5
316C9
  8
0
 10
6726.6117023097103811
 20
155.759968886639399
 30
0.0
 40
0.0134734084263372
 50
145.3923658269283976
 51
219.3393962567222957
  0
ARC
  5
316CA
  8
0
 10
6726.6202080242519514
 20
155.7669405053615037
 30
0.0
 40
0.0244711649009719
 50
219.3393962567222957
 51
250.1518200742976887
  0
ARC
  5
316CB
  8
0
 10
6726.6286632658666349
 20
155.7903640224537867
 30
0.0
 40
0.0493740214388993
 50
250.1518200742976887
 51
268.8140796168418092
  0
LINE
  5
316CC
  8
0
 10
6726.565776479807937
 20
155.8458150106507105
 30
0.0
 11
6726.5719223214937301
 21
155.7674349513540903
 31
0.0
  0
ARC
  5
316CD
  8
0
 10
6726.629522833592091
 20
155.7795167040540889
 30
0.0
 40
0.0911201021540354
 50
59.6561140477709486
 51
91.1831279411805866
  0
ARC
  5
316CE
  8
0
 10
6726.6512247251948793
 20
155.8165898233766029
 30
0.0
 40
0.048162119479436
 50
37.3590984472734533
 51
59.6561140477709486
  0
ARC
  5
316CF
  8
0
 10
6726.6638879110641938
 20
155.8262572437973859
 30
0.0
 40
0.032230537826929
 50
313.6740346979283913
 51
37.3590984472734533
  0
ARC
  5
316D0
  8
0
 10
6726.6281021406912259
 20
155.7250054378862103
 30
0.0
 40
0.079340770950467
 50
64.8438422769336853
 51
90.3327358489045906
  0
ARC
  5
316D1
  8
0
 10
6726.6427046818353119
 20
155.7560995797074952
 30
0.0
 40
0.0449884804392454
 50
41.8366690421890013
 51
64.8436113568186698
  0
ARC
  5
316D2
  8
0
 10
6726.655366287380275
 20
155.7674349513540903
 30
0.0
 40
0.0279941606418049
 50
358.4951902127805852
 51
41.8366690421890013
  0
ARC
  5
316D3
  8
0
 10
6726.6595119538005747
 20
155.7673260450042108
 30
0.0
 40
0.0238470639869637
 50
332.4722313008514902
 51
358.4951902127805852
  0
ARC
  5
316D4
  8
0
 10
6726.6392257525349123
 20
155.7778988722562019
 30
0.0
 40
0.0467231352827748
 50
307.8299051590415161
 51
332.4722313008514902
  0
ARC
  5
316D5
  8
0
 10
6726.6425728038648231
 20
155.7735885270224969
 30
0.0
 40
0.0412658622785049
 50
295.1232715934525004
 51
307.8299051590415161
  0
ARC
  5
316D6
  8
0
 10
6726.6264481242633337
 20
155.8079746674642081
 30
0.0
 40
0.079244961092701
 50
280.2753448296504075
 51
295.1232715934525004
  0
ARC
  5
316D7
  8
0
 10
6726.6276678161693781
 20
155.8082269788318968
 30
0.0
 40
0.0792854363870859
 50
269.9808992875659897
 51
279.375506834842497
  0
ARC
  5
316D8
  8
0
 10
6726.6281427430230906
 20
155.73868657076099
 30
0.0
 40
0.0402770249013154
 50
60.4866110308327194
 51
90.7132218575937657
  0
ARC
  5
316D9
  8
0
 10
6726.6380170648017156
 20
155.7561298633538058
 30
0.0
 40
0.0202328066061988
 50
34.6076341730715882
 51
60.4866110308327194
  0
ARC
  5
316DA
  8
0
 10
6726.6435804598058894
 20
155.759968886639399
 30
0.0
 40
0.0134734084263372
 50
320.6606037432777043
 51
34.6076341730715882
  0
ARC
  5
316DB
  8
0
 10
6726.6350747452643191
 20
155.7669405053615037
 30
0.0
 40
0.0244711649009719
 50
289.8481799257023113
 51
320.6606037432777043
  0
ARC
  5
316DC
  8
0
 10
6726.6266195036469071
 20
155.7903640224537867
 30
0.0
 40
0.0493740214388993
 50
271.1859203831583045
 51
289.8481799257023113
  0
LINE
  5
316DD
  8
0
 10
6726.6895062897083335
 20
155.8458150106507105
 30
0.0
 11
6726.6833604480216309
 21
155.7674349513540903
 31
0.0
  0
ARC
  5
316DE
  8
0
 10
6726.3016044889609475
 20
156.0666393499001003
 30
0.0
 40
0.0911201021540354
 50
88.8168720588193992
 51
120.3438859522290016
  0
ARC
  5
316DF
  8
0
 10
6726.2799025973581593
 20
156.1037124692225859
 30
0.0
 40
0.048162119479436
 50
120.3438859522290016
 51
142.6409015527264899
  0
ARC
  5
316E0
  8
0
 10
6726.2672394114879353
 20
156.113379889643511
 30
0.0
 40
0.032230537826929
 50
142.6409015527264899
 51
226.3259653020716087
  0
ARC
  5
316E1
  8
0
 10
6726.3030251818599936
 20
156.0121280837321933
 30
0.0
 40
0.07934077095047
 50
89.6672641510954236
 51
115.1561577230656042
  0
ARC
  5
316E2
  8
0
 10
6726.2884226407177266
 20
156.0432222255535919
 30
0.0
 40
0.0449884804392454
 50
115.1563886431813017
 51
138.1633309578110129
  0
ARC
  5
316E3
  8
0
 10
6726.2757610351709445
 20
156.0545575972001018
 30
0.0
 40
0.0279941606418049
 50
138.1633309578110129
 51
181.5048097872195001
  0
ARC
  5
316E4
  8
0
 10
6726.2716153687506448
 20
156.0544486908503075
 30
0.0
 40
0.0238470639869637
 50
181.5048097872195001
 51
207.5277686991470887
  0
ARC
  5
316E5
  8
0
 10
6726.2919015700181262
 20
156.0650215181022133
 30
0.0
 40
0.0467231352827748
 50
207.5277686991470887
 51
232.1700948409574892
  0
ARC
  5
316E6
  8
0
 10
6726.2885545186882155
 20
156.0607111728685084
 30
0.0
 40
0.0412658622785049
 50
232.1700948409585123
 51
244.8767284065474996
  0
ARC
  5
316E7
  8
0
 10
6726.3046791982887953
 20
156.0950973133101911
 30
0.0
 40
0.079244961092701
 50
244.8767284065474996
 51
259.7246551703494788
  0
ARC
  5
316E8
  8
0
 10
6726.3034595063836605
 20
156.0953496246779082
 30
0.0
 40
0.0792854363870778
 50
260.624493165157503
 51
270.0191007124340103
  0
ARC
  5
316E9
  8
0
 10
6726.3029845795290385
 20
156.0258092166070014
 30
0.0
 40
0.0402770249013154
 50
89.286778142406277
 51
119.5133889691672948
  0
ARC
  5
316EA
  8
0
 10
6726.2931102577513229
 20
156.0432525091997888
 30
0.0
 40
0.0202328066061988
 50
119.5133889691672948
 51
145.3923658269283976
  0
ARC
  5
316EB
  8
0
 10
6726.2875468627471491
 20
156.0470915324854957
 30
0.0
 40
0.0134734084263372
 50
145.3923658269283976
 51
219.3393962567222957
  0
ARC
  5
316EC
  8
0
 10
6726.29605257728781
 20
156.0540631512076004
 30
0.0
 40
0.0244711649009719
 50
219.3393962567222957
 51
250.1518200742976887
  0
ARC
  5
316ED
  8
0
 10
6726.3045078189043124
 20
156.0774866682999118
 30
0.0
 40
0.0493740214388993
 50
250.1518200742976887
 51
268.8140796168418092
  0
LINE
  5
316EE
  8
0
 10
6726.241621032844705
 20
156.1329376564966935
 30
0.0
 11
6726.2477668745286792
 21
156.0545575972001018
 31
0.0
  0
ARC
  5
316EF
  8
0
 10
6726.3053673866279496
 20
156.0666393499001003
 30
0.0
 40
0.0911201021540354
 50
59.6561140477709486
 51
91.1831279411805866
  0
ARC
  5
316F0
  8
0
 10
6726.3270692782307378
 20
156.1037124692225859
 30
0.0
 40
0.048162119479436
 50
37.3590984472734533
 51
59.6561140477709486
  0
ARC
  5
316F1
  8
0
 10
6726.3397324641009618
 20
156.113379889643511
 30
0.0
 40
0.032230537826929
 50
313.6740346979283913
 51
37.3590984472734533
  0
ARC
  5
316F2
  8
0
 10
6726.3039466937289035
 20
156.0121280837321933
 30
0.0
 40
0.079340770950467
 50
64.8438422769336853
 51
90.3327358489045906
  0
ARC
  5
316F3
  8
0
 10
6726.3185492348711705
 20
156.0432222255535919
 30
0.0
 40
0.0449884804392454
 50
41.8366690421890013
 51
64.8436113568186698
  0
ARC
  5
316F4
  8
0
 10
6726.3312108404170431
 20
156.0545575972001018
 30
0.0
 40
0.0279941606418049
 50
358.4951902127805852
 51
41.8366690421890013
  0
ARC
  5
316F5
  8
0
 10
6726.3353565068382522
 20
156.0544486908503075
 30
0.0
 40
0.0238470639869637
 50
332.4722313008514902
 51
358.4951902127805852
  0
ARC
  5
316F6
  8
0
 10
6726.3150703055707709
 20
156.0650215181022133
 30
0.0
 40
0.0467231352827748
 50
307.8299051590415161
 51
332.4722313008514902
  0
ARC
  5
316F7
  8
0
 10
6726.3184173569006816
 20
156.0607111728685084
 30
0.0
 40
0.0412658622785049
 50
295.1232715934525004
 51
307.8299051590415161
  0
ARC
  5
316F8
  8
0
 10
6726.3022926773001018
 20
156.0950973133101911
 30
0.0
 40
0.079244961092701
 50
280.2753448296504075
 51
295.1232715934525004
  0
ARC
  5
316F9
  8
0
 10
6726.3035123692052366
 20
156.0953496246779082
 30
0.0
 40
0.0792854363870859
 50
269.9808992875659897
 51
279.375506834842497
  0
ARC
  5
316FA
  8
0
 10
6726.3039872960598586
 20
156.0258092166070014
 30
0.0
 40
0.0402770249013154
 50
60.4866110308327194
 51
90.7132218575937657
  0
ARC
  5
316FB
  8
0
 10
6726.3138616178375742
 20
156.0432525091997888
 30
0.0
 40
0.0202328066061988
 50
34.6076341730715882
 51
60.4866110308327194
  0
ARC
  5
316FC
  8
0
 10
6726.319425012841748
 20
156.0470915324854957
 30
0.0
 40
0.0134734084263372
 50
320.6606037432777043
 51
34.6076341730715882
  0
ARC
  5
316FD
  8
0
 10
6726.3109192983010871
 20
156.0540631512076004
 30
0.0
 40
0.0244711649009719
 50
289.8481799257023113
 51
320.6606037432777043
  0
ARC
  5
316FE
  8
0
 10
6726.3024640566836752
 20
156.0774866682999118
 30
0.0
 40
0.0493740214388993
 50
271.1859203831583045
 51
289.8481799257023113
  0
LINE
  5
316FF
  8
0
 10
6726.3653508427441921
 20
156.1329376564966935
 30
0.0
 11
6726.3592050010602179
 21
156.0545575972001018
 31
0.0
  0
ARC
  5
31700
  8
0
 10
6725.8135877182985496
 20
155.7533875574638103
 30
0.0
 40
0.0911201021540354
 50
88.8168720588193992
 51
120.3438859522290016
  0
ARC
  5
31701
  8
0
 10
6725.7918858266957614
 20
155.7904606767862958
 30
0.0
 40
0.048162119479436
 50
120.3438859522290016
 51
142.6409015527264899
  0
ARC
  5
31702
  8
0
 10
6725.7792226408273564
 20
155.8001280972071925
 30
0.0
 40
0.032230537826929
 50
142.6409015527264899
 51
226.3259653020716087
  0
ARC
  5
31703
  8
0
 10
6725.8150084111994147
 20
155.6988762912959885
 30
0.0
 40
0.07934077095047
 50
89.6672641510954236
 51
115.1561577230656042
  0
ARC
  5
31704
  8
0
 10
6725.8004058700571477
 20
155.7299704331173018
 30
0.0
 40
0.0449884804392454
 50
115.1563886431813017
 51
138.1633309578110129
  0
ARC
  5
31705
  8
0
 10
6725.7877442645112751
 20
155.7413058047638117
 30
0.0
 40
0.0279941606418049
 50
138.1633309578110129
 51
181.5048097872195001
  0
ARC
  5
31706
  8
0
 10
6725.7835985980891564
 20
155.7411968984139889
 30
0.0
 40
0.0238470639869637
 50
181.5048097872195001
 51
207.5277686991470887
  0
ARC
  5
31707
  8
0
 10
6725.8038847993557283
 20
155.7517697256658948
 30
0.0
 40
0.0467231352827748
 50
207.5277686991470887
 51
232.1700948409574892
  0
ARC
  5
31708
  8
0
 10
6725.8005377480258176
 20
155.7474593804321898
 30
0.0
 40
0.0412658622785049
 50
232.1700948409585123
 51
244.8767284065474996
  0
ARC
  5
31709
  8
0
 10
6725.8166624276273069
 20
155.781845520873901
 30
0.0
 40
0.079244961092701
 50
244.8767284065474996
 51
259.7246551703494788
  0
ARC
  5
3170A
  8
0
 10
6725.8154427357221721
 20
155.7820978322415897
 30
0.0
 40
0.0792854363870778
 50
260.624493165157503
 51
270.0191007124340103
  0
ARC
  5
3170B
  8
0
 10
6725.8149678088666406
 20
155.7125574241707113
 30
0.0
 40
0.0402770249013154
 50
89.286778142406277
 51
119.5133889691672948
  0
ARC
  5
3170C
  8
0
 10
6725.805093487088925
 20
155.7300007167634988
 30
0.0
 40
0.0202328066061988
 50
119.5133889691672948
 51
145.3923658269283976
  0
ARC
  5
3170D
  8
0
 10
6725.7995300920856607
 20
155.7338397400492056
 30
0.0
 40
0.0134734084263372
 50
145.3923658269283976
 51
219.3393962567222957
  0
ARC
  5
3170E
  8
0
 10
6725.8080358066281406
 20
155.7408113587713103
 30
0.0
 40
0.0244711649009719
 50
219.3393962567222957
 51
250.1518200742976887
  0
ARC
  5
3170F
  8
0
 10
6725.816491048242824
 20
155.764234875863508
 30
0.0
 40
0.0493740214388993
 50
250.1518200742976887
 51
268.8140796168418092
  0
LINE
  5
31710
  8
0
 10
6725.7536042621841261
 20
155.8196858640604034
 30
0.0
 11
6725.7597501038681003
 21
155.7413058047638117
 31
0.0
  0
ARC
  5
31711
  8
0
 10
6725.8173506159655517
 20
155.7533875574638103
 30
0.0
 40
0.0911201021540354
 50
59.6561140477709486
 51
91.1831279411805866
  0
ARC
  5
31712
  8
0
 10
6725.8390525075701589
 20
155.7904606767862958
 30
0.0
 40
0.048162119479436
 50
37.3590984472734533
 51
59.6561140477709486
  0
ARC
  5
31713
  8
0
 10
6725.8517156934403829
 20
155.8001280972071925
 30
0.0
 40
0.032230537826929
 50
313.6740346979283913
 51
37.3590984472734533
  0
ARC
  5
31714
  8
0
 10
6725.8159299230674151
 20
155.6988762912959885
 30
0.0
 40
0.079340770950467
 50
64.8438422769336853
 51
90.3327358489045906
  0
ARC
  5
31715
  8
0
 10
6725.8305324642087726
 20
155.7299704331173018
 30
0.0
 40
0.0449884804392454
 50
41.8366690421890013
 51
64.8436113568186698
  0
ARC
  5
31716
  8
0
 10
6725.8431940697555547
 20
155.7413058047638117
 30
0.0
 40
0.0279941606418049
 50
358.4951902127805852
 51
41.8366690421890013
  0
ARC
  5
31717
  8
0
 10
6725.8473397361758543
 20
155.7411968984139889
 30
0.0
 40
0.0238470639869637
 50
332.4722313008514902
 51
358.4951902127805852
  0
ARC
  5
31718
  8
0
 10
6725.827053534910192
 20
155.7517697256658948
 30
0.0
 40
0.0467231352827748
 50
307.8299051590415161
 51
332.4722313008514902
  0
ARC
  5
31719
  8
0
 10
6725.8304005862391932
 20
155.7474593804321898
 30
0.0
 40
0.0412658622785049
 50
295.1232715934525004
 51
307.8299051590415161
  0
ARC
  5
3171A
  8
0
 10
6725.8142759066386134
 20
155.781845520873901
 30
0.0
 40
0.079244961092701
 50
280.2753448296504075
 51
295.1232715934525004
  0
ARC
  5
3171B
  8
0
 10
6725.8154955985428387
 20
155.7820978322415897
 30
0.0
 40
0.0792854363870859
 50
269.9808992875659897
 51
279.375506834842497
  0
ARC
  5
3171C
  8
0
 10
6725.8159705253992797
 20
155.7125574241707113
 30
0.0
 40
0.0402770249013154
 50
60.4866110308327194
 51
90.7132218575937657
  0
ARC
  5
3171D
  8
0
 10
6725.8258448471760858
 20
155.7300007167634988
 30
0.0
 40
0.0202328066061988
 50
34.6076341730715882
 51
60.4866110308327194
  0
ARC
  5
3171E
  8
0
 10
6725.8314082421802595
 20
155.7338397400492056
 30
0.0
 40
0.0134734084263372
 50
320.6606037432777043
 51
34.6076341730715882
  0
ARC
  5
3171F
  8
0
 10
6725.8229025276386892
 20
155.7408113587713103
 30
0.0
 40
0.0244711649009719
 50
289.8481799257023113
 51
320.6606037432777043
  0
ARC
  5
31720
  8
0
 10
6725.8144472860230962
 20
155.764234875863508
 30
0.0
 40
0.0493740214388993
 50
271.1859203831583045
 51
289.8481799257023113
  0
LINE
  5
31721
  8
0
 10
6725.8773340720817941
 20
155.8196858640604034
 30
0.0
 11
6725.87118823039782
 21
155.7413058047638117
 31
0.0
  0
ARC
  5
31722
  8
0
 10
6726.2598482776393212
 20
155.5446912453695916
 30
0.0
 40
0.0911201021540354
 50
88.8168720588193992
 51
120.3438859522290016
  0
ARC
  5
31723
  8
0
 10
6726.2381463860374424
 20
155.5817643646921056
 30
0.0
 40
0.048162119479436
 50
120.3438859522290016
 51
142.6409015527264899
  0
ARC
  5
31724
  8
0
 10
6726.2254832001690374
 20
155.5914317851130022
 30
0.0
 40
0.032230537826929
 50
142.6409015527264899
 51
226.3259653020716087
  0
ARC
  5
31725
  8
0
 10
6726.2612689705401863
 20
155.4901799792017982
 30
0.0
 40
0.07934077095047
 50
89.6672641510954236
 51
115.1561577230656042
  0
ARC
  5
31726
  8
0
 10
6726.2466664293979193
 20
155.5212741210231115
 30
0.0
 40
0.0449884804392454
 50
115.1563886431813017
 51
138.1633309578110129
  0
ARC
  5
31727
  8
0
 10
6726.2340048238529562
 20
155.532609492669593
 30
0.0
 40
0.0279941606418049
 50
138.1633309578110129
 51
181.5048097872195001
  0
ARC
  5
31728
  8
0
 10
6726.2298591574308375
 20
155.5325005863197987
 30
0.0
 40
0.0238470639869637
 50
181.5048097872195001
 51
207.5277686991470887
  0
ARC
  5
31729
  8
0
 10
6726.2501453586974094
 20
155.5430734135717046
 30
0.0
 40
0.0467231352827748
 50
207.5277686991470887
 51
232.1700948409574892
  0
ARC
  5
3172A
  8
0
 10
6726.2467983073684081
 20
155.5387630683379996
 30
0.0
 40
0.0412658622785049
 50
232.1700948409585123
 51
244.8767284065474996
  0
ARC
  5
3172B
  8
0
 10
6726.2629229869680785
 20
155.5731492087797108
 30
0.0
 40
0.079244961092701
 50
244.8767284065474996
 51
259.7246551703494788
  0
ARC
  5
3172C
  8
0
 10
6726.2617032950638531
 20
155.5734015201473994
 30
0.0
 40
0.0792854363870778
 50
260.624493165157503
 51
270.0191007124340103
  0
ARC
  5
3172D
  8
0
 10
6726.2612283682083216
 20
155.5038611120764926
 30
0.0
 40
0.0402770249013154
 50
89.286778142406277
 51
119.5133889691672948
  0
ARC
  5
3172E
  8
0
 10
6726.2513540464306061
 20
155.5213044046693085
 30
0.0
 40
0.0202328066061988
 50
119.5133889691672948
 51
145.3923658269283976
  0
ARC
  5
3172F
  8
0
 10
6726.2457906514273418
 20
155.5251434279549869
 30
0.0
 40
0.0134734084263372
 50
145.3923658269283976
 51
219.3393962567222957
  0
ARC
  5
31730
  8
0
 10
6726.2542963659689121
 20
155.5321150466770916
 30
0.0
 40
0.0244711649009719
 50
219.3393962567222957
 51
250.1518200742976887
  0
ARC
  5
31731
  8
0
 10
6726.2627516075854146
 20
155.555538563769403
 30
0.0
 40
0.0493740214388993
 50
250.1518200742976887
 51
268.8140796168418092
  0
LINE
  5
31732
  8
0
 10
6726.1998648215230787
 20
155.6109895519662132
 30
0.0
 11
6726.2060106632106908
 21
155.532609492669593
 31
0.0
  0
ARC
  5
31733
  8
0
 10
6726.2636111753081423
 20
155.5446912453695916
 30
0.0
 40
0.0911201021540354
 50
59.6561140477709486
 51
91.1831279411805866
  0
ARC
  5
31734
  8
0
 10
6726.2853130669109305
 20
155.5817643646921056
 30
0.0
 40
0.048162119479436
 50
37.3590984472734533
 51
59.6561140477709486
  0
ARC
  5
31735
  8
0
 10
6726.297976252780245
 20
155.5914317851130022
 30
0.0
 40
0.032230537826929
 50
313.6740346979283913
 51
37.3590984472734533
  0
ARC
  5
31736
  8
0
 10
6726.2621904824081867
 20
155.4901799792017982
 30
0.0
 40
0.079340770950467
 50
64.8438422769336853
 51
90.3327358489045906
  0
ARC
  5
31737
  8
0
 10
6726.2767930235513631
 20
155.5212741210231115
 30
0.0
 40
0.0449884804392454
 50
41.8366690421890013
 51
64.8436113568186698
  0
ARC
  5
31738
  8
0
 10
6726.2894546290981452
 20
155.532609492669593
 30
0.0
 40
0.0279941606418049
 50
358.4951902127805852
 51
41.8366690421890013
  0
ARC
  5
31739
  8
0
 10
6726.2936002955166259
 20
155.5325005863197987
 30
0.0
 40
0.0238470639869637
 50
332.4722313008514902
 51
358.4951902127805852
  0
ARC
  5
3173A
  8
0
 10
6726.2733140942509635
 20
155.5430734135717046
 30
0.0
 40
0.0467231352827748
 50
307.8299051590415161
 51
332.4722313008514902
  0
ARC
  5
3173B
  8
0
 10
6726.2766611455817838
 20
155.5387630683379996
 30
0.0
 40
0.0412658622785049
 50
295.1232715934525004
 51
307.8299051590415161
  0
ARC
  5
3173C
  8
0
 10
6726.2605364659802945
 20
155.5731492087797108
 30
0.0
 40
0.079244961092701
 50
280.2753448296504075
 51
295.1232715934525004
  0
ARC
  5
3173D
  8
0
 10
6726.2617561578854293
 20
155.5734015201473994
 30
0.0
 40
0.0792854363870859
 50
269.9808992875659897
 51
279.375506834842497
  0
ARC
  5
3173E
  8
0
 10
6726.2622310847400513
 20
155.5038611120764926
 30
0.0
 40
0.0402770249013154
 50
60.4866110308327194
 51
90.7132218575937657
  0
ARC
  5
3173F
  8
0
 10
6726.2721054065177668
 20
155.5213044046693085
 30
0.0
 40
0.0202328066061988
 50
34.6076341730715882
 51
60.4866110308327194
  0
ARC
  5
31740
  8
0
 10
6726.2776688015219406
 20
155.5251434279549869
 30
0.0
 40
0.0134734084263372
 50
320.6606037432777043
 51
34.6076341730715882
  0
ARC
  5
31741
  8
0
 10
6726.2691630869812798
 20
155.5321150466770916
 30
0.0
 40
0.0244711649009719
 50
289.8481799257023113
 51
320.6606037432777043
  0
ARC
  5
31742
  8
0
 10
6726.2607078453656868
 20
155.555538563769403
 30
0.0
 40
0.0493740214388993
 50
271.1859203831583045
 51
289.8481799257023113
  0
LINE
  5
31743
  8
0
 10
6726.3235946314225657
 20
155.6109895519662132
 30
0.0
 11
6726.3174487897385916
 21
155.532609492669593
 31
0.0
  0
ARC
  5
31744
  8
0
 10
6725.5014244839840103
 20
155.3577967818494017
 30
0.0
 40
0.0911201021540354
 50
88.8168720588193992
 51
120.3438859522290016
  0
ARC
  5
31745
  8
0
 10
6725.4797225923812221
 20
155.3948699011720009
 30
0.0
 40
0.048162119479436
 50
120.3438859522290016
 51
142.6409015527264899
  0
ARC
  5
31746
  8
0
 10
6725.4670594065109981
 20
155.4045373215928123
 30
0.0
 40
0.032230537826929
 50
142.6409015527264899
 51
226.3259653020716087
  0
ARC
  5
31747
  8
0
 10
6725.5028451768830564
 20
155.3032855156816083
 30
0.0
 40
0.07934077095047
 50
89.6672641510954236
 51
115.1561577230656042
  0
ARC
  5
31748
  8
0
 10
6725.4882426357407894
 20
155.3343796575028932
 30
0.0
 40
0.0449884804392454
 50
115.1563886431813017
 51
138.1633309578110129
  0
ARC
  5
31749
  8
0
 10
6725.4755810301940073
 20
155.3457150291494884
 30
0.0
 40
0.0279941606418049
 50
138.1633309578110129
 51
181.5048097872195001
  0
ARC
  5
3174A
  8
0
 10
6725.4714353637737076
 20
155.3456061227996088
 30
0.0
 40
0.0238470639869637
 50
181.5048097872195001
 51
207.5277686991470887
  0
ARC
  5
3174B
  8
0
 10
6725.491721565041189
 20
155.3561789500515999
 30
0.0
 40
0.0467231352827748
 50
207.5277686991470887
 51
232.1700948409574892
  0
ARC
  5
3174C
  8
0
 10
6725.4883745137112783
 20
155.3518686048178097
 30
0.0
 40
0.0412658622785049
 50
232.1700948409585123
 51
244.8767284065474996
  0
ARC
  5
3174D
  8
0
 10
6725.5044991933118581
 20
155.3862547452596061
 30
0.0
 40
0.079244961092701
 50
244.8767284065474996
 51
259.7246551703494788
  0
ARC
  5
3174E
  8
0
 10
6725.5032795014067233
 20
155.3865070566272095
 30
0.0
 40
0.0792854363870778
 50
260.624493165157503
 51
270.0191007124340103
  0
ARC
  5
3174F
  8
0
 10
6725.5028045745521013
 20
155.3169666485563027
 30
0.0
 40
0.0402770249013154
 50
89.286778142406277
 51
119.5133889691672948
  0
ARC
  5
31750
  8
0
 10
6725.4929302527743857
 20
155.3344099411492039
 30
0.0
 40
0.0202328066061988
 50
119.5133889691672948
 51
145.3923658269283976
  0
ARC
  5
31751
  8
0
 10
6725.4873668577702119
 20
155.3382489644349107
 30
0.0
 40
0.0134734084263372
 50
145.3923658269283976
 51
219.3393962567222957
  0
ARC
  5
31752
  8
0
 10
6725.4958725723108728
 20
155.3452205831569017
 30
0.0
 40
0.0244711649009719
 50
219.3393962567222957
 51
250.1518200742976887
  0
ARC
  5
31753
  8
0
 10
6725.5043278139273752
 20
155.3686441002492131
 30
0.0
 40
0.0493740214388993
 50
250.1518200742976887
 51
268.8140796168418092
  0
LINE
  5
31754
  8
0
 10
6725.4414410278677678
 20
155.4240950884459949
 30
0.0
 11
6725.447586869551742
 21
155.3457150291494884
 31
0.0
  0
ARC
  5
31755
  8
0
 10
6725.5051873816510124
 20
155.3577967818494017
 30
0.0
 40
0.0911201021540354
 50
59.6561140477709486
 51
91.1831279411805866
  0
ARC
  5
31756
  8
0
 10
6725.5268892732538006
 20
155.3948699011720009
 30
0.0
 40
0.048162119479436
 50
37.3590984472734533
 51
59.6561140477709486
  0
ARC
  5
31757
  8
0
 10
6725.5395524591240246
 20
155.4045373215928123
 30
0.0
 40
0.032230537826929
 50
313.6740346979283913
 51
37.3590984472734533
  0
ARC
  5
31758
  8
0
 10
6725.5037666887519663
 20
155.3032855156816083
 30
0.0
 40
0.079340770950467
 50
64.8438422769336853
 51
90.3327358489045906
  0
ARC
  5
31759
  8
0
 10
6725.5183692298942333
 20
155.3343796575028932
 30
0.0
 40
0.0449884804392454
 50
41.8366690421890013
 51
64.8436113568186698
  0
ARC
  5
3175A
  8
0
 10
6725.5310308354401059
 20
155.3457150291494884
 30
0.0
 40
0.0279941606418049
 50
358.4951902127805852
 51
41.8366690421890013
  0
ARC
  5
3175B
  8
0
 10
6725.535176501861315
 20
155.3456061227996088
 30
0.0
 40
0.0238470639869637
 50
332.4722313008514902
 51
358.4951902127805852
  0
ARC
  5
3175C
  8
0
 10
6725.5148903005938337
 20
155.3561789500515999
 30
0.0
 40
0.0467231352827748
 50
307.8299051590415161
 51
332.4722313008514902
  0
ARC
  5
3175D
  8
0
 10
6725.5182373519237444
 20
155.3518686048178097
 30
0.0
 40
0.0412658622785049
 50
295.1232715934525004
 51
307.8299051590415161
  0
ARC
  5
3175E
  8
0
 10
6725.5021126723231646
 20
155.3862547452596061
 30
0.0
 40
0.079244961092701
 50
280.2753448296504075
 51
295.1232715934525004
  0
ARC
  5
3175F
  8
0
 10
6725.5033323642282994
 20
155.3865070566272095
 30
0.0
 40
0.0792854363870859
 50
269.9808992875659897
 51
279.375506834842497
  0
ARC
  5
31760
  8
0
 10
6725.5038072910829214
 20
155.3169666485563027
 30
0.0
 40
0.0402770249013154
 50
60.4866110308327194
 51
90.7132218575937657
  0
ARC
  5
31761
  8
0
 10
6725.513681612860637
 20
155.3344099411492039
 30
0.0
 40
0.0202328066061988
 50
34.6076341730715882
 51
60.4866110308327194
  0
ARC
  5
31762
  8
0
 10
6725.5192450078648108
 20
155.3382489644349107
 30
0.0
 40
0.0134734084263372
 50
320.6606037432777043
 51
34.6076341730715882
  0
ARC
  5
31763
  8
0
 10
6725.5107392933241499
 20
155.3452205831569017
 30
0.0
 40
0.0244711649009719
 50
289.8481799257023113
 51
320.6606037432777043
  0
ARC
  5
31764
  8
0
 10
6725.502284051706738
 20
155.3686441002492131
 30
0.0
 40
0.0493740214388993
 50
271.1859203831583045
 51
289.8481799257023113
  0
LINE
  5
31765
  8
0
 10
6725.5651708377672549
 20
155.4240950884459949
 30
0.0
 11
6725.5590249960823712
 21
155.3457150291494884
 31
0.0
  0
ARC
  5
31766
  8
0
 10
6727.4274513783693692
 20
155.2571770604799894
 30
0.0
 40
0.0911201021540354
 50
88.8168720588193992
 51
120.3438859522290016
  0
ARC
  5
31767
  8
0
 10
6727.4057494867656715
 20
155.2942501798025035
 30
0.0
 40
0.048162119479436
 50
120.3438859522290016
 51
142.6409015527264899
  0
ARC
  5
31768
  8
0
 10
6727.3930863008972665
 20
155.3039176002234001
 30
0.0
 40
0.032230537826929
 50
142.6409015527264899
 51
226.3259653020716087
  0
ARC
  5
31769
  8
0
 10
6727.4288720712693248
 20
155.2026657943121108
 30
0.0
 40
0.07934077095047
 50
89.6672641510954236
 51
115.1561577230656042
  0
ARC
  5
3176A
  8
0
 10
6727.4142695301261483
 20
155.2337599361335094
 30
0.0
 40
0.0449884804392454
 50
115.1563886431813017
 51
138.1633309578110129
  0
ARC
  5
3176B
  8
0
 10
6727.4016079245802757
 20
155.2450953077799909
 30
0.0
 40
0.0279941606418049
 50
138.1633309578110129
 51
181.5048097872195001
  0
ARC
  5
3176C
  8
0
 10
6727.397462258159976
 20
155.2449864014301113
 30
0.0
 40
0.0238470639869637
 50
181.5048097872195001
 51
207.5277686991470887
  0
ARC
  5
3176D
  8
0
 10
6727.4177484594256384
 20
155.2555592286821025
 30
0.0
 40
0.0467231352827748
 50
207.5277686991470887
 51
232.1700948409574892
  0
ARC
  5
3176E
  8
0
 10
6727.4144014080957277
 20
155.2512488834483122
 30
0.0
 40
0.0412658622785049
 50
232.1700948409585123
 51
244.8767284065474996
  0
ARC
  5
3176F
  8
0
 10
6727.430526087697217
 20
155.2856350238901086
 30
0.0
 40
0.079244961092701
 50
244.8767284065474996
 51
259.7246551703494788
  0
ARC
  5
31770
  8
0
 10
6727.4293063957929917
 20
155.2858873352577973
 30
0.0
 40
0.0792854363870778
 50
260.624493165157503
 51
270.0191007124340103
  0
ARC
  5
31771
  8
0
 10
6727.4288314689365507
 20
155.2163469271868905
 30
0.0
 40
0.0402770249013154
 50
89.286778142406277
 51
119.5133889691672948
  0
ARC
  5
31772
  8
0
 10
6727.4189571471588351
 20
155.2337902197797064
 30
0.0
 40
0.0202328066061988
 50
119.5133889691672948
 51
145.3923658269283976
  0
ARC
  5
31773
  8
0
 10
6727.4133937521546613
 20
155.2376292430654132
 30
0.0
 40
0.0134734084263372
 50
145.3923658269283976
 51
219.3393962567222957
  0
ARC
  5
31774
  8
0
 10
6727.4218994666971412
 20
155.2446008617874043
 30
0.0
 40
0.0244711649009719
 50
219.3393962567222957
 51
250.1518200742976887
  0
ARC
  5
31775
  8
0
 10
6727.4303547083118247
 20
155.2680243788796872
 30
0.0
 40
0.0493740214388993
 50
250.1518200742976887
 51
268.8140796168418092
  0
LINE
  5
31776
  8
0
 10
6727.3674679222531267
 20
155.3234753670766111
 30
0.0
 11
6727.3736137639389199
 21
155.2450953077799909
 31
0.0
  0
ARC
  5
31777
  8
0
 10
6727.4312142760372808
 20
155.2571770604799894
 30
0.0
 40
0.0911201021540354
 50
59.6561140477709486
 51
91.1831279411805866
  0
ARC
  5
31778
  8
0
 10
6727.4529161676391595
 20
155.2942501798025035
 30
0.0
 40
0.048162119479436
 50
37.3590984472734533
 51
59.6561140477709486
  0
ARC
  5
31779
  8
0
 10
6727.4655793535093835
 20
155.3039176002234001
 30
0.0
 40
0.032230537826929
 50
313.6740346979283913
 51
37.3590984472734533
  0
ARC
  5
3177A
  8
0
 10
6727.4297935831373252
 20
155.2026657943121108
 30
0.0
 40
0.079340770950467
 50
64.8438422769336853
 51
90.3327358489045906
  0
ARC
  5
3177B
  8
0
 10
6727.4443961242795922
 20
155.2337599361335094
 30
0.0
 40
0.0449884804392454
 50
41.8366690421890013
 51
64.8436113568186698
  0
ARC
  5
3177C
  8
0
 10
6727.4570577298245553
 20
155.2450953077799909
 30
0.0
 40
0.0279941606418049
 50
358.4951902127805852
 51
41.8366690421890013
  0
ARC
  5
3177D
  8
0
 10
6727.4612033962466739
 20
155.2449864014301113
 30
0.0
 40
0.0238470639869637
 50
332.4722313008514902
 51
358.4951902127805852
  0
ARC
  5
3177E
  8
0
 10
6727.4409171949801021
 20
155.2555592286821025
 30
0.0
 40
0.0467231352827748
 50
307.8299051590415161
 51
332.4722313008514902
  0
ARC
  5
3177F
  8
0
 10
6727.4442642463100128
 20
155.2512488834483122
 30
0.0
 40
0.0412658622785049
 50
295.1232715934525004
 51
307.8299051590415161
  0
ARC
  5
31780
  8
0
 10
6727.428139566709433
 20
155.2856350238901086
 30
0.0
 40
0.079244961092701
 50
280.2753448296504075
 51
295.1232715934525004
  0
ARC
  5
31781
  8
0
 10
6727.4293592586127488
 20
155.2858873352577973
 30
0.0
 40
0.0792854363870859
 50
269.9808992875659897
 51
279.375506834842497
  0
ARC
  5
31782
  8
0
 10
6727.4298341854691898
 20
155.2163469271868905
 30
0.0
 40
0.0402770249013154
 50
60.4866110308327194
 51
90.7132218575937657
  0
ARC
  5
31783
  8
0
 10
6727.4397085072469054
 20
155.2337902197797064
 30
0.0
 40
0.0202328066061988
 50
34.6076341730715882
 51
60.4866110308327194
  0
ARC
  5
31784
  8
0
 10
6727.4452719022510792
 20
155.2376292430654132
 30
0.0
 40
0.0134734084263372
 50
320.6606037432777043
 51
34.6076341730715882
  0
ARC
  5
31785
  8
0
 10
6727.4367661877085993
 20
155.2446008617874043
 30
0.0
 40
0.0244711649009719
 50
289.8481799257023113
 51
320.6606037432777043
  0
ARC
  5
31786
  8
0
 10
6727.4283109460920969
 20
155.2680243788796872
 30
0.0
 40
0.0493740214388993
 50
271.1859203831583045
 51
289.8481799257023113
  0
LINE
  5
31787
  8
0
 10
6727.4911977321526138
 20
155.3234753670766111
 30
0.0
 11
6727.4850518904677301
 21
155.2450953077799909
 31
0.0
  0
ARC
  5
31788
  8
0
 10
6726.7059071184921777
 20
155.3368772075548065
 30
0.0
 40
0.0911201021540354
 50
88.8168720588193992
 51
120.3438859522290016
  0
ARC
  5
31789
  8
0
 10
6726.684205226886661
 20
155.3739503268772921
 30
0.0
 40
0.048162119479436
 50
120.3438859522290016
 51
142.6409015527264899
  0
ARC
  5
3178A
  8
0
 10
6726.6715420410173465
 20
155.3836177472981035
 30
0.0
 40
0.032230537826929
 50
142.6409015527264899
 51
226.3259653020716087
  0
ARC
  5
3178B
  8
0
 10
6726.7073278113912238
 20
155.2823659413868995
 30
0.0
 40
0.07934077095047
 50
89.6672641510954236
 51
115.1561577230656042
  0
ARC
  5
3178C
  8
0
 10
6726.6927252702489568
 20
155.3134600832082981
 30
0.0
 40
0.0449884804392454
 50
115.1563886431813017
 51
138.1633309578110129
  0
ARC
  5
3178D
  8
0
 10
6726.6800636647012652
 20
155.324795454854808
 30
0.0
 40
0.0279941606418049
 50
138.1633309578110129
 51
181.5048097872195001
  0
ARC
  5
3178E
  8
0
 10
6726.675917998281875
 20
155.3246865485050137
 30
0.0
 40
0.0238470639869637
 50
181.5048097872195001
 51
207.5277686991470887
  0
ARC
  5
3178F
  8
0
 10
6726.6962041995484469
 20
155.3352593757568911
 30
0.0
 40
0.0467231352827748
 50
207.5277686991470887
 51
232.1700948409574892
  0
ARC
  5
31790
  8
0
 10
6726.6928571482176267
 20
155.3309490305231009
 30
0.0
 40
0.0412658622785049
 50
232.1700948409585123
 51
244.8767284065474996
  0
ARC
  5
31791
  8
0
 10
6726.708981827819116
 20
155.3653351709648973
 30
0.0
 40
0.079244961092701
 50
244.8767284065474996
 51
259.7246551703494788
  0
ARC
  5
31792
  8
0
 10
6726.7077621359130717
 20
155.3655874823325007
 30
0.0
 40
0.0792854363870778
 50
260.624493165157503
 51
270.0191007124340103
  0
ARC
  5
31793
  8
0
 10
6726.7072872090593592
 20
155.2960470742617076
 30
0.0
 40
0.0402770249013154
 50
89.286778142406277
 51
119.5133889691672948
  0
ARC
  5
31794
  8
0
 10
6726.6974128872798246
 20
155.3134903668544951
 30
0.0
 40
0.0202328066061988
 50
119.5133889691672948
 51
145.3923658269283976
  0
ARC
  5
31795
  8
0
 10
6726.6918494922783793
 20
155.3173293901402019
 30
0.0
 40
0.0134734084263372
 50
145.3923658269283976
 51
219.3393962567222957
  0
ARC
  5
31796
  8
0
 10
6726.7003552068190402
 20
155.3243010088621929
 30
0.0
 40
0.0244711649009719
 50
219.3393962567222957
 51
250.1518200742976887
  0
ARC
  5
31797
  8
0
 10
6726.7088104484337236
 20
155.3477245259545043
 30
0.0
 40
0.0493740214388993
 50
250.1518200742976887
 51
268.8140796168418092
  0
LINE
  5
31798
  8
0
 10
6726.6459236623741162
 20
155.4031755141513997
 30
0.0
 11
6726.6520695040608189
 21
155.324795454854808
 31
0.0
  0
ARC
  5
31799
  8
0
 10
6726.7096700161591798
 20
155.3368772075548065
 30
0.0
 40
0.0911201021540354
 50
59.6561140477709486
 51
91.1831279411805866
  0
ARC
  5
3179A
  8
0
 10
6726.731371907761968
 20
155.3739503268772921
 30
0.0
 40
0.048162119479436
 50
37.3590984472734533
 51
59.6561140477709486
  0
ARC
  5
3179B
  8
0
 10
6726.7440350936312825
 20
155.3836177472981035
 30
0.0
 40
0.032230537826929
 50
313.6740346979283913
 51
37.3590984472734533
  0
ARC
  5
3179C
  8
0
 10
6726.7082493232583147
 20
155.2823659413868995
 30
0.0
 40
0.079340770950467
 50
64.8438422769336853
 51
90.3327358489045906
  0
ARC
  5
3179D
  8
0
 10
6726.7228518644005817
 20
155.3134600832082981
 30
0.0
 40
0.0449884804392454
 50
41.8366690421890013
 51
64.8436113568186698
  0
ARC
  5
3179E
  8
0
 10
6726.7355134699473638
 20
155.324795454854808
 30
0.0
 40
0.0279941606418049
 50
358.4951902127805852
 51
41.8366690421890013
  0
ARC
  5
3179F
  8
0
 10
6726.7396591363685729
 20
155.3246865485050137
 30
0.0
 40
0.0238470639869637
 50
332.4722313008514902
 51
358.4951902127805852
  0
ARC
  5
317A0
  8
0
 10
6726.7193729351020011
 20
155.3352593757568911
 30
0.0
 40
0.0467231352827748
 50
307.8299051590415161
 51
332.4722313008514902
  0
ARC
  5
317A1
  8
0
 10
6726.7227199864319118
 20
155.3309490305231009
 30
0.0
 40
0.0412658622785049
 50
295.1232715934525004
 51
307.8299051590415161
  0
ARC
  5
317A2
  8
0
 10
6726.706595306831332
 20
155.3653351709648973
 30
0.0
 40
0.079244961092701
 50
280.2753448296504075
 51
295.1232715934525004
  0
ARC
  5
317A3
  8
0
 10
6726.7078149987355573
 20
155.365587482332586
 30
0.0
 40
0.0792854363870859
 50
269.9808992875659897
 51
279.375506834842497
  0
ARC
  5
317A4
  8
0
 10
6726.7082899255910888
 20
155.2960470742617076
 30
0.0
 40
0.0402770249013154
 50
60.4866110308327194
 51
90.7132218575937657
  0
ARC
  5
317A5
  8
0
 10
6726.7181642473688044
 20
155.3134903668544951
 30
0.0
 40
0.0202328066061988
 50
34.6076341730715882
 51
60.4866110308327194
  0
ARC
  5
317A6
  8
0
 10
6726.7237276423720687
 20
155.3173293901402019
 30
0.0
 40
0.0134734084263372
 50
320.6606037432777043
 51
34.6076341730715882
  0
ARC
  5
317A7
  8
0
 10
6726.7152219278295888
 20
155.3243010088621929
 30
0.0
 40
0.0244711649009719
 50
289.8481799257023113
 51
320.6606037432777043
  0
ARC
  5
317A8
  8
0
 10
6726.7067666862149053
 20
155.3477245259545043
 30
0.0
 40
0.0493740214388993
 50
271.1859203831583045
 51
289.8481799257023113
  0
LINE
  5
317A9
  8
0
 10
6726.7696534722763317
 20
155.4031755141513997
 30
0.0
 11
6726.7635076305896291
 21
155.324795454854808
 31
0.0
  0
ARC
  5
317AA
  8
0
 10
6726.0258570052037612
 20
155.2490415549549994
 30
0.0
 40
0.0911201021540354
 50
88.8168720588193992
 51
120.3438859522290016
  0
ARC
  5
317AB
  8
0
 10
6726.004155113599154
 20
155.2861146742775986
 30
0.0
 40
0.048162119479436
 50
120.3438859522290016
 51
142.6409015527264899
  0
ARC
  5
317AC
  8
0
 10
6725.991491927730749
 20
155.29578209469841
 30
0.0
 40
0.032230537826929
 50
142.6409015527264899
 51
226.3259653020716087
  0
ARC
  5
317AD
  8
0
 10
6726.0272776981037168
 20
155.194530288787206
 30
0.0
 40
0.07934077095047
 50
89.6672641510954236
 51
115.1561577230656042
  0
ARC
  5
317AE
  8
0
 10
6726.0126751569596308
 20
155.2256244306084909
 30
0.0
 40
0.0449884804392454
 50
115.1563886431813017
 51
138.1633309578110129
  0
ARC
  5
317AF
  8
0
 10
6726.0000135514146677
 20
155.2369598022550008
 30
0.0
 40
0.0279941606418049
 50
138.1633309578110129
 51
181.5048097872195001
  0
ARC
  5
317B0
  8
0
 10
6725.9958678849943681
 20
155.2368508959052065
 30
0.0
 40
0.0238470639869637
 50
181.5048097872195001
 51
207.5277686991470887
  0
ARC
  5
317B1
  8
0
 10
6726.016154086259121
 20
155.2474237231571976
 30
0.0
 40
0.0467231352827748
 50
207.5277686991470887
 51
232.1700948409574892
  0
ARC
  5
317B2
  8
0
 10
6726.0128070349301197
 20
155.2431133779234074
 30
0.0
 40
0.0412658622785049
 50
232.1700948409585123
 51
244.8767284065474996
  0
ARC
  5
317B3
  8
0
 10
6726.028931714531609
 20
155.2774995183652038
 30
0.0
 40
0.079244961092701
 50
244.8767284065474996
 51
259.7246551703494788
  0
ARC
  5
317B4
  8
0
 10
6726.0277120226255647
 20
155.2777518297328072
 30
0.0
 40
0.0792854363870778
 50
260.624493165157503
 51
270.0191007124340103
  0
ARC
  5
317B5
  8
0
 10
6726.0272370957718522
 20
155.2082114216619004
 30
0.0
 40
0.0402770249013154
 50
89.286778142406277
 51
119.5133889691672948
  0
ARC
  5
317B6
  8
0
 10
6726.0173627739932272
 20
155.2256547142548015
 30
0.0
 40
0.0202328066061988
 50
119.5133889691672948
 51
145.3923658269283976
  0
ARC
  5
317B7
  8
0
 10
6726.0117993789908724
 20
155.2294937375403947
 30
0.0
 40
0.0134734084263372
 50
145.3923658269283976
 51
219.3393962567222957
  0
ARC
  5
317B8
  8
0
 10
6726.0203050935306237
 20
155.2364653562624994
 30
0.0
 40
0.0244711649009719
 50
219.3393962567222957
 51
250.1518200742976887
  0
ARC
  5
317B9
  8
0
 10
6726.0287603351471262
 20
155.2598888733548108
 30
0.0
 40
0.0493740214388993
 50
250.1518200742976887
 51
268.8140796168418092
  0
LINE
  5
317BA
  8
0
 10
6725.9658735490866093
 20
155.3153398615515925
 30
0.0
 11
6725.9720193907733119
 21
155.2369598022550008
 31
0.0
  0
ARC
  5
317BB
  8
0
 10
6726.0296199028707633
 20
155.2490415549549994
 30
0.0
 40
0.0911201021540354
 50
59.6561140477709486
 51
91.1831279411805866
  0
ARC
  5
317BC
  8
0
 10
6726.0513217944753706
 20
155.2861146742775986
 30
0.0
 40
0.048162119479436
 50
37.3590984472734533
 51
59.6561140477709486
  0
ARC
  5
317BD
  8
0
 10
6726.0639849803437755
 20
155.29578209469841
 30
0.0
 40
0.032230537826929
 50
313.6740346979283913
 51
37.3590984472734533
  0
ARC
  5
317BE
  8
0
 10
6726.0281992099698982
 20
155.194530288787206
 30
0.0
 40
0.079340770950467
 50
64.8438422769336853
 51
90.3327358489045906
  0
ARC
  5
317BF
  8
0
 10
6726.0428017511130747
 20
155.2256244306084909
 30
0.0
 40
0.0449884804392454
 50
41.8366690421890013
 51
64.8436113568186698
  0
ARC
  5
317C0
  8
0
 10
6726.0554633566598568
 20
155.2369598022550008
 30
0.0
 40
0.0279941606418049
 50
358.4951902127805852
 51
41.8366690421890013
  0
ARC
  5
317C1
  8
0
 10
6726.059609023081066
 20
155.2368508959052065
 30
0.0
 40
0.0238470639869637
 50
332.4722313008514902
 51
358.4951902127805852
  0
ARC
  5
317C2
  8
0
 10
6726.0393228218126751
 20
155.2474237231571976
 30
0.0
 40
0.0467231352827748
 50
307.8299051590415161
 51
332.4722313008514902
  0
ARC
  5
317C3
  8
0
 10
6726.0426698731453143
 20
155.2431133779234074
 30
0.0
 40
0.0412658622785049
 50
295.1232715934525004
 51
307.8299051590415161
  0
ARC
  5
317C4
  8
0
 10
6726.026545193542006
 20
155.2774995183652038
 30
0.0
 40
0.079244961092701
 50
280.2753448296504075
 51
295.1232715934525004
  0
ARC
  5
317C5
  8
0
 10
6726.0277648854480503
 20
155.2777518297328072
 30
0.0
 40
0.0792854363870859
 50
269.9808992875659897
 51
279.375506834842497
  0
ARC
  5
317C6
  8
0
 10
6726.0282398123017629
 20
155.2082114216619004
 30
0.0
 40
0.0402770249013154
 50
60.4866110308327194
 51
90.7132218575937657
  0
ARC
  5
317C7
  8
0
 10
6726.0381141340812974
 20
155.2256547142548015
 30
0.0
 40
0.0202328066061988
 50
34.6076341730715882
 51
60.4866110308327194
  0
ARC
  5
317C8
  8
0
 10
6726.0436775290836522
 20
155.2294937375403947
 30
0.0
 40
0.0134734084263372
 50
320.6606037432777043
 51
34.6076341730715882
  0
ARC
  5
317C9
  8
0
 10
6726.0351718145429913
 20
155.2364653562624994
 30
0.0
 40
0.0244711649009719
 50
289.8481799257023113
 51
320.6606037432777043
  0
ARC
  5
317CA
  8
0
 10
6726.0267165729283079
 20
155.2598888733548108
 30
0.0
 40
0.0493740214388993
 50
271.1859203831583045
 51
289.8481799257023113
  0
LINE
  5
317CB
  8
0
 10
6726.0896033589870058
 20
155.3153398615515925
 30
0.0
 11
6726.0834575173012126
 21
155.2369598022550008
 31
0.0
  0
ARC
  5
317CC
  8
0
 10
6725.3919744254098987
 20
154.9202170000347962
 30
0.0
 40
0.0911201021540354
 50
88.8168720588193992
 51
120.3438859522290016
  0
ARC
  5
317CD
  8
0
 10
6725.370272533806201
 20
154.9572901193573102
 30
0.0
 40
0.048162119479436
 50
120.3438859522290016
 51
142.6409015527264899
  0
ARC
  5
317CE
  8
0
 10
6725.3576093479368865
 20
154.9669575397780932
 30
0.0
 40
0.032230537826929
 50
142.6409015527264899
 51
226.3259653020716087
  0
ARC
  5
317CF
  8
0
 10
6725.3933951183098543
 20
154.8657057338668892
 30
0.0
 40
0.07934077095047
 50
89.6672641510954236
 51
115.1561577230656042
  0
ARC
  5
317D0
  8
0
 10
6725.3787925771666778
 20
154.8967998756882025
 30
0.0
 40
0.0449884804392454
 50
115.1563886431813017
 51
138.1633309578110129
  0
ARC
  5
317D1
  8
0
 10
6725.3661309716208052
 20
154.9081352473347977
 30
0.0
 40
0.0279941606418049
 50
138.1633309578110129
 51
181.5048097872195001
  0
ARC
  5
317D2
  8
0
 10
6725.361985305199596
 20
154.9080263409848897
 30
0.0
 40
0.0238470639869637
 50
181.5048097872195001
 51
207.5277686991470887
  0
ARC
  5
317D3
  8
0
 10
6725.3822715064670774
 20
154.9185991682369092
 30
0.0
 40
0.0467231352827748
 50
207.5277686991470887
 51
232.1700948409574892
  0
ARC
  5
317D4
  8
0
 10
6725.3789244551371667
 20
154.9142888230030906
 30
0.0
 40
0.0412658622785049
 50
232.1700948409585123
 51
244.8767284065474996
  0
ARC
  5
317D5
  8
0
 10
6725.3950491347377465
 20
154.948674963444887
 30
0.0
 40
0.079244961092701
 50
244.8767284065474996
 51
259.7246551703494788
  0
ARC
  5
317D6
  8
0
 10
6725.3938294428326117
 20
154.9489272748124904
 30
0.0
 40
0.0792854363870778
 50
260.624493165157503
 51
270.0191007124340103
  0
ARC
  5
317D7
  8
0
 10
6725.3933545159779896
 20
154.879386866741612
 30
0.0
 40
0.0402770249013154
 50
89.286778142406277
 51
119.5133889691672948
  0
ARC
  5
317D8
  8
0
 10
6725.3834801941993646
 20
154.8968301593345132
 30
0.0
 40
0.0202328066061988
 50
119.5133889691672948
 51
145.3923658269283976
  0
ARC
  5
317D9
  8
0
 10
6725.3779167991961003
 20
154.9006691826201916
 30
0.0
 40
0.0134734084263372
 50
145.3923658269283976
 51
219.3393962567222957
  0
ARC
  5
317DA
  8
0
 10
6725.3864225137376707
 20
154.907640801342211
 30
0.0
 40
0.0244711649009719
 50
219.3393962567222957
 51
250.1518200742976887
  0
ARC
  5
317DB
  8
0
 10
6725.3948777553532636
 20
154.931064318434494
 30
0.0
 40
0.0493740214388993
 50
250.1518200742976887
 51
268.8140796168418092
  0
LINE
  5
317DC
  8
0
 10
6725.3319909692927467
 20
154.9865153066313042
 30
0.0
 11
6725.3381368109794494
 21
154.9081352473347977
 31
0.0
  0
ARC
  5
317DD
  8
0
 10
6725.3957373230769008
 20
154.9202170000347962
 30
0.0
 40
0.0911201021540354
 50
59.6561140477709486
 51
91.1831279411805866
  0
ARC
  5
317DE
  8
0
 10
6725.417439214679689
 20
154.9572901193573102
 30
0.0
 40
0.048162119479436
 50
37.3590984472734533
 51
59.6561140477709486
  0
ARC
  5
317DF
  8
0
 10
6725.430102400549913
 20
154.9669575397780932
 30
0.0
 40
0.032230537826929
 50
313.6740346979283913
 51
37.3590984472734533
  0
ARC
  5
317E0
  8
0
 10
6725.3943166301760357
 20
154.8657057338668892
 30
0.0
 40
0.079340770950467
 50
64.8438422769336853
 51
90.3327358489045906
  0
ARC
  5
317E1
  8
0
 10
6725.4089191713210312
 20
154.8967998756882025
 30
0.0
 40
0.0449884804392454
 50
41.8366690421890013
 51
64.8436113568186698
  0
ARC
  5
317E2
  8
0
 10
6725.4215807768659943
 20
154.9081352473347977
 30
0.0
 40
0.0279941606418049
 50
358.4951902127805852
 51
41.8366690421890013
  0
ARC
  5
317E3
  8
0
 10
6725.4257264432881129
 20
154.9080263409848897
 30
0.0
 40
0.0238470639869637
 50
332.4722313008514902
 51
358.4951902127805852
  0
ARC
  5
317E4
  8
0
 10
6725.4054402420197221
 20
154.9185991682369092
 30
0.0
 40
0.0467231352827748
 50
307.8299051590415161
 51
332.4722313008514902
  0
ARC
  5
317E5
  8
0
 10
6725.4087872933514518
 20
154.9142888230030906
 30
0.0
 40
0.0412658622785049
 50
295.1232715934525004
 51
307.8299051590415161
  0
ARC
  5
317E6
  8
0
 10
6725.392662613749053
 20
154.948674963444887
 30
0.0
 40
0.079244961092701
 50
280.2753448296504075
 51
295.1232715934525004
  0
ARC
  5
317E7
  8
0
 10
6725.3938823056541878
 20
154.9489272748124904
 30
0.0
 40
0.0792854363870859
 50
269.9808992875659897
 51
279.375506834842497
  0
ARC
  5
317E8
  8
0
 10
6725.3943572325088098
 20
154.879386866741612
 30
0.0
 40
0.0402770249013154
 50
60.4866110308327194
 51
90.7132218575937657
  0
ARC
  5
317E9
  8
0
 10
6725.4042315542874348
 20
154.8968301593345132
 30
0.0
 40
0.0202328066061988
 50
34.6076341730715882
 51
60.4866110308327194
  0
ARC
  5
317EA
  8
0
 10
6725.4097949492897897
 20
154.9006691826201916
 30
0.0
 40
0.0134734084263372
 50
320.6606037432777043
 51
34.6076341730715882
  0
ARC
  5
317EB
  8
0
 10
6725.4012892347491288
 20
154.907640801342211
 30
0.0
 40
0.0244711649009719
 50
289.8481799257023113
 51
320.6606037432777043
  0
ARC
  5
317EC
  8
0
 10
6725.3928339931326263
 20
154.931064318434494
 30
0.0
 40
0.0493740214388993
 50
271.1859203831583045
 51
289.8481799257023113
  0
LINE
  5
317ED
  8
0
 10
6725.4557207791931432
 20
154.9865153066313042
 30
0.0
 11
6725.4495749375082596
 21
154.9081352473347977
 31
0.0
  0
ARC
  5
317EE
  8
0
 10
6725.9438644854371887
 20
154.9206423291105068
 30
0.0
 40
0.0911201021540354
 50
88.8168720588193992
 51
120.3438859522290016
  0
ARC
  5
317EF
  8
0
 10
6725.922162593831672
 20
154.9577154484329924
 30
0.0
 40
0.048162119479436
 50
120.3438859522290016
 51
142.6409015527264899
  0
ARC
  5
317F0
  8
0
 10
6725.909499407963267
 20
154.9673828688538038
 30
0.0
 40
0.032230537826929
 50
142.6409015527264899
 51
226.3259653020716087
  0
ARC
  5
317F1
  8
0
 10
6725.9452851783371443
 20
154.8661310629425998
 30
0.0
 40
0.07934077095047
 50
89.6672641510954236
 51
115.1561577230656042
  0
ARC
  5
317F2
  8
0
 10
6725.9306826371921488
 20
154.8972252047639131
 30
0.0
 40
0.0449884804392454
 50
115.1563886431813017
 51
138.1633309578110129
  0
ARC
  5
317F3
  8
0
 10
6725.9180210316471857
 20
154.9085605764105082
 30
0.0
 40
0.0279941606418049
 50
138.1633309578110129
 51
181.5048097872195001
  0
ARC
  5
317F4
  8
0
 10
6725.9138753652259766
 20
154.9084516700606002
 30
0.0
 40
0.0238470639869637
 50
181.5048097872195001
 51
207.5277686991470887
  0
ARC
  5
317F5
  8
0
 10
6725.934161566491639
 20
154.9190244973125914
 30
0.0
 40
0.0467231352827748
 50
207.5277686991470887
 51
232.1700948409574892
  0
ARC
  5
317F6
  8
0
 10
6725.9308145151617282
 20
154.9147141520788011
 30
0.0
 40
0.0412658622785049
 50
232.1700948409585123
 51
244.8767284065474996
  0
ARC
  5
317F7
  8
0
 10
6725.9469391947650365
 20
154.9491002925205976
 30
0.0
 40
0.079244961092701
 50
244.8767284065474996
 51
259.7246551703494788
  0
ARC
  5
317F8
  8
0
 10
6725.9457195028589922
 20
154.949352603888201
 30
0.0
 40
0.0792854363870778
 50
260.624493165157503
 51
270.0191007124340103
  0
ARC
  5
317F9
  8
0
 10
6725.9452445760052797
 20
154.8798121958174079
 30
0.0
 40
0.0402770249013154
 50
89.286778142406277
 51
119.5133889691672948
  0
ARC
  5
317FA
  8
0
 10
6725.9353702542257452
 20
154.8972554884101953
 30
0.0
 40
0.0202328066061988
 50
119.5133889691672948
 51
145.3923658269283976
  0
ARC
  5
317FB
  8
0
 10
6725.9298068592233903
 20
154.9010945116957885
 30
0.0
 40
0.0134734084263372
 50
145.3923658269283976
 51
219.3393962567222957
  0
ARC
  5
317FC
  8
0
 10
6725.9383125737640512
 20
154.9080661304178932
 30
0.0
 40
0.0244711649009719
 50
219.3393962567222957
 51
250.1518200742976887
  0
ARC
  5
317FD
  8
0
 10
6725.9467678153787347
 20
154.9314896475102046
 30
0.0
 40
0.0493740214388993
 50
250.1518200742976887
 51
268.8140796168418092
  0
LINE
  5
317FE
  8
0
 10
6725.8838810293200368
 20
154.9869406357071
 30
0.0
 11
6725.8900268710049204
 21
154.9085605764105082
 31
0.0
  0
ARC
  5
317FF
  8
0
 10
6725.9476273831041908
 20
154.9206423291105068
 30
0.0
 40
0.0911201021540354
 50
59.6561140477709486
 51
91.1831279411805866
  0
ARC
  5
31800
  8
0
 10
6725.9693292747078885
 20
154.9577154484329924
 30
0.0
 40
0.048162119479436
 50
37.3590984472734533
 51
59.6561140477709486
  0
ARC
  5
31801
  8
0
 10
6725.9819924605762935
 20
154.9673828688538038
 30
0.0
 40
0.032230537826929
 50
313.6740346979283913
 51
37.3590984472734533
  0
ARC
  5
31802
  8
0
 10
6725.9462066902033257
 20
154.8661310629425998
 30
0.0
 40
0.079340770950467
 50
64.8438422769336853
 51
90.3327358489045906
  0
ARC
  5
31803
  8
0
 10
6725.9608092313446832
 20
154.8972252047639131
 30
0.0
 40
0.0449884804392454
 50
41.8366690421890013
 51
64.8436113568186698
  0
ARC
  5
31804
  8
0
 10
6725.9734708368923748
 20
154.9085605764105082
 30
0.0
 40
0.0279941606418049
 50
358.4951902127805852
 51
41.8366690421890013
  0
ARC
  5
31805
  8
0
 10
6725.9776165033126745
 20
154.9084516700606002
 30
0.0
 40
0.0238470639869637
 50
332.4722313008514902
 51
358.4951902127805852
  0
ARC
  5
31806
  8
0
 10
6725.9573303020461026
 20
154.9190244973125914
 30
0.0
 40
0.0467231352827748
 50
307.8299051590415161
 51
332.4722313008514902
  0
ARC
  5
31807
  8
0
 10
6725.9606773533769228
 20
154.9147141520788011
 30
0.0
 40
0.0412658622785049
 50
295.1232715934525004
 51
307.8299051590415161
  0
ARC
  5
31808
  8
0
 10
6725.9445526737754335
 20
154.9491002925205976
 30
0.0
 40
0.079244961092701
 50
280.2753448296504075
 51
295.1232715934525004
  0
ARC
  5
31809
  8
0
 10
6725.9457723656805683
 20
154.9493526038882862
 30
0.0
 40
0.0792854363870859
 50
269.9808992875659897
 51
279.375506834842497
  0
ARC
  5
3180A
  8
0
 10
6725.9462472925351904
 20
154.8798121958174079
 30
0.0
 40
0.0402770249013154
 50
60.4866110308327194
 51
90.7132218575937657
  0
ARC
  5
3180B
  8
0
 10
6725.9561216143138154
 20
154.8972554884101953
 30
0.0
 40
0.0202328066061988
 50
34.6076341730715882
 51
60.4866110308327194
  0
ARC
  5
3180C
  8
0
 10
6725.9616850093161702
 20
154.9010945116957885
 30
0.0
 40
0.0134734084263372
 50
320.6606037432777043
 51
34.6076341730715882
  0
ARC
  5
3180D
  8
0
 10
6725.9531792947745998
 20
154.9080661304178932
 30
0.0
 40
0.0244711649009719
 50
289.8481799257023113
 51
320.6606037432777043
  0
ARC
  5
3180E
  8
0
 10
6725.9447240531599164
 20
154.9314896475102046
 30
0.0
 40
0.0493740214388993
 50
271.1859203831583045
 51
289.8481799257023113
  0
LINE
  5
3180F
  8
0
 10
6726.0076108392204333
 20
154.9869406357071
 30
0.0
 11
6726.0014649975328211
 21
154.9085605764105082
 31
0.0
  0
ARC
  5
31810
  8
0
 10
6727.0460448859466851
 20
154.9198748936815093
 30
0.0
 40
0.0911201021540354
 50
88.8168720588193992
 51
120.3438859522290016
  0
ARC
  5
31811
  8
0
 10
6727.0243429943438969
 20
154.9569480130041086
 30
0.0
 40
0.048162119479436
 50
120.3438859522290016
 51
142.6409015527264899
  0
ARC
  5
31812
  8
0
 10
6727.0116798084736729
 20
154.9666154334248915
 30
0.0
 40
0.032230537826929
 50
142.6409015527264899
 51
226.3259653020716087
  0
ARC
  5
31813
  8
0
 10
6727.0474655788457312
 20
154.8653636275136876
 30
0.0
 40
0.07934077095047
 50
89.6672641510954236
 51
115.1561577230656042
  0
ARC
  5
31814
  8
0
 10
6727.0328630377052832
 20
154.8964577693350009
 30
0.0
 40
0.0449884804392454
 50
115.1563886431813017
 51
138.1633309578110129
  0
ARC
  5
31815
  8
0
 10
6727.0202014321575916
 20
154.9077931409815108
 30
0.0
 40
0.0279941606418049
 50
138.1633309578110129
 51
181.5048097872195001
  0
ARC
  5
31816
  8
0
 10
6727.0160557657372919
 20
154.907684234631688
 30
0.0
 40
0.0238470639869637
 50
181.5048097872195001
 51
207.5277686991470887
  0
ARC
  5
31817
  8
0
 10
6727.0363419670038638
 20
154.9182570618837076
 30
0.0
 40
0.0467231352827748
 50
207.5277686991470887
 51
232.1700948409574892
  0
ARC
  5
31818
  8
0
 10
6727.0329949156730436
 20
154.9139467166498889
 30
0.0
 40
0.0412658622785049
 50
232.1700948409585123
 51
244.8767284065474996
  0
ARC
  5
31819
  8
0
 10
6727.0491195952754424
 20
154.9483328570917138
 30
0.0
 40
0.079244961092701
 50
244.8767284065474996
 51
259.7246551703494788
  0
ARC
  5
3181A
  8
0
 10
6727.0478999033703076
 20
154.9485851684592888
 30
0.0
 40
0.0792854363870778
 50
260.624493165157503
 51
270.0191007124340103
  0
ARC
  5
3181B
  8
0
 10
6727.0474249765147761
 20
154.8790447603884104
 30
0.0
 40
0.0402770249013154
 50
89.286778142406277
 51
119.5133889691672948
  0
ARC
  5
3181C
  8
0
 10
6727.0375506547370605
 20
154.8964880529813115
 30
0.0
 40
0.0202328066061988
 50
119.5133889691672948
 51
145.3923658269283976
  0
ARC
  5
3181D
  8
0
 10
6727.0319872597319772
 20
154.9003270762669047
 30
0.0
 40
0.0134734084263372
 50
145.3923658269283976
 51
219.3393962567222957
  0
ARC
  5
3181E
  8
0
 10
6727.0404929742735476
 20
154.9072986949890094
 30
0.0
 40
0.0244711649009719
 50
219.3393962567222957
 51
250.1518200742976887
  0
ARC
  5
3181F
  8
0
 10
6727.0489482158909595
 20
154.9307222120812924
 30
0.0
 40
0.0493740214388993
 50
250.1518200742976887
 51
268.8140796168418092
  0
LINE
  5
31820
  8
0
 10
6726.9860614298313521
 20
154.9861732002781025
 30
0.0
 11
6726.9922072715162358
 21
154.9077931409815108
 31
0.0
  0
ARC
  5
31821
  8
0
 10
6727.0498077836136872
 20
154.9198748936815093
 30
0.0
 40
0.0911201021540354
 50
59.6561140477709486
 51
91.1831279411805866
  0
ARC
  5
31822
  8
0
 10
6727.0715096752173849
 20
154.9569480130041086
 30
0.0
 40
0.048162119479436
 50
37.3590984472734533
 51
59.6561140477709486
  0
ARC
  5
31823
  8
0
 10
6727.0841728610857899
 20
154.9666154334248915
 30
0.0
 40
0.032230537826929
 50
313.6740346979283913
 51
37.3590984472734533
  0
ARC
  5
31824
  8
0
 10
6727.0483870907137316
 20
154.8653636275136876
 30
0.0
 40
0.079340770950467
 50
64.8438422769336853
 51
90.3327358489045906
  0
ARC
  5
31825
  8
0
 10
6727.0629896318569081
 20
154.8964577693350009
 30
0.0
 40
0.0449884804392454
 50
41.8366690421890013
 51
64.8436113568186698
  0
ARC
  5
31826
  8
0
 10
6727.0756512374027807
 20
154.9077931409815108
 30
0.0
 40
0.0279941606418049
 50
358.4951902127805852
 51
41.8366690421890013
  0
ARC
  5
31827
  8
0
 10
6727.0797969038239899
 20
154.907684234631688
 30
0.0
 40
0.0238470639869637
 50
332.4722313008514902
 51
358.4951902127805852
  0
ARC
  5
31828
  8
0
 10
6727.059510702557418
 20
154.9182570618837076
 30
0.0
 40
0.0467231352827748
 50
307.8299051590415161
 51
332.4722313008514902
  0
ARC
  5
31829
  8
0
 10
6727.0628577538873287
 20
154.9139467166498889
 30
0.0
 40
0.0412658622785049
 50
295.1232715934525004
 51
307.8299051590415161
  0
ARC
  5
3182A
  8
0
 10
6727.0467330742858394
 20
154.9483328570917138
 30
0.0
 40
0.079244961092701
 50
280.2753448296504075
 51
295.1232715934525004
  0
ARC
  5
3182B
  8
0
 10
6727.0479527661909742
 20
154.9485851684592888
 30
0.0
 40
0.0792854363870859
 50
269.9808992875659897
 51
279.375506834842497
  0
ARC
  5
3182C
  8
0
 10
6727.0484276930455962
 20
154.8790447603884104
 30
0.0
 40
0.0402770249013154
 50
60.4866110308327194
 51
90.7132218575937657
  0
ARC
  5
3182D
  8
0
 10
6727.0583020148242213
 20
154.8964880529813115
 30
0.0
 40
0.0202328066061988
 50
34.6076341730715882
 51
60.4866110308327194
  0
ARC
  5
3182E
  8
0
 10
6727.0638654098293046
 20
154.9003270762669047
 30
0.0
 40
0.0134734084263372
 50
320.6606037432777043
 51
34.6076341730715882
  0
ARC
  5
3182F
  8
0
 10
6727.0553596952859152
 20
154.9072986949890094
 30
0.0
 40
0.0244711649009719
 50
289.8481799257023113
 51
320.6606037432777043
  0
ARC
  5
31830
  8
0
 10
6727.0469044536712317
 20
154.9307222120812924
 30
0.0
 40
0.0493740214388993
 50
271.1859203831583045
 51
289.8481799257023113
  0
LINE
  5
31831
  8
0
 10
6727.1097912397308392
 20
154.9861732002781025
 30
0.0
 11
6727.103645398045046
 21
154.9077931409815108
 31
0.0
  0
ARC
  5
31832
  8
0
 10
6726.4955807628048206
 20
154.9202304687887874
 30
0.0
 40
0.0911201021540354
 50
88.8168720588193992
 51
120.3438859522290016
  0
ARC
  5
31833
  8
0
 10
6726.4738788712020323
 20
154.9573035881113015
 30
0.0
 40
0.048162119479436
 50
120.3438859522290016
 51
142.6409015527264899
  0
ARC
  5
31834
  8
0
 10
6726.4612156853327178
 20
154.9669710085321981
 30
0.0
 40
0.032230537826929
 50
142.6409015527264899
 51
226.3259653020716087
  0
ARC
  5
31835
  8
0
 10
6726.4970014557056857
 20
154.8657192026209941
 30
0.0
 40
0.07934077095047
 50
89.6672641510954236
 51
115.1561577230656042
  0
ARC
  5
31836
  8
0
 10
6726.4823989145615997
 20
154.8968133444423074
 30
0.0
 40
0.0449884804392454
 50
115.1563886431813017
 51
138.1633309578110129
  0
ARC
  5
31837
  8
0
 10
6726.4697373090166366
 20
154.9081487160887889
 30
0.0
 40
0.0279941606418049
 50
138.1633309578110129
 51
181.5048097872195001
  0
ARC
  5
31838
  8
0
 10
6726.4655916425954274
 20
154.9080398097389946
 30
0.0
 40
0.0238470639869637
 50
181.5048097872195001
 51
207.5277686991470887
  0
ARC
  5
31839
  8
0
 10
6726.4858778438629088
 20
154.9186126369909005
 30
0.0
 40
0.0467231352827748
 50
207.5277686991470887
 51
232.1700948409574892
  0
ARC
  5
3183A
  8
0
 10
6726.4825307925320885
 20
154.9143022917571955
 30
0.0
 40
0.0412658622785049
 50
232.1700948409585123
 51
244.8767284065474996
  0
ARC
  5
3183B
  8
0
 10
6726.4986554721326684
 20
154.9486884321989919
 30
0.0
 40
0.079244961092701
 50
244.8767284065474996
 51
259.7246551703494788
  0
ARC
  5
3183C
  8
0
 10
6726.497435780228443
 20
154.9489407435665953
 30
0.0
 40
0.0792854363870778
 50
260.624493165157503
 51
270.0191007124340103
  0
ARC
  5
3183D
  8
0
 10
6726.4969608533729115
 20
154.8794003354956885
 30
0.0
 40
0.0402770249013154
 50
89.286778142406277
 51
119.5133889691672948
  0
ARC
  5
3183E
  8
0
 10
6726.487086531595196
 20
154.8968436280885044
 30
0.0
 40
0.0202328066061988
 50
119.5133889691672948
 51
145.3923658269283976
  0
ARC
  5
3183F
  8
0
 10
6726.4815231365910222
 20
154.9006826513742112
 30
0.0
 40
0.0134734084263372
 50
145.3923658269283976
 51
219.3393962567222957
  0
ARC
  5
31840
  8
0
 10
6726.4900288511344115
 20
154.9076542700962875
 30
0.0
 40
0.0244711649009719
 50
219.3393962567222957
 51
250.1518200742976887
  0
ARC
  5
31841
  8
0
 10
6726.4984840927500045
 20
154.9310777871885989
 30
0.0
 40
0.0493740214388993
 50
250.1518200742976887
 51
268.8140796168418092
  0
LINE
  5
31842
  8
0
 10
6726.4355973066885781
 20
154.9865287753854091
 30
0.0
 11
6726.4417431483752807
 21
154.9081487160887889
 31
0.0
  0
ARC
  5
31843
  8
0
 10
6726.4993436604718227
 20
154.9202304687887874
 30
0.0
 40
0.0911201021540354
 50
59.6561140477709486
 51
91.1831279411805866
  0
ARC
  5
31844
  8
0
 10
6726.5210455520746109
 20
154.9573035881113015
 30
0.0
 40
0.048162119479436
 50
37.3590984472734533
 51
59.6561140477709486
  0
ARC
  5
31845
  8
0
 10
6726.5337087379457444
 20
154.9669710085321981
 30
0.0
 40
0.032230537826929
 50
313.6740346979283913
 51
37.3590984472734533
  0
ARC
  5
31846
  8
0
 10
6726.4979229675727765
 20
154.8657192026209941
 30
0.0
 40
0.079340770950467
 50
64.8438422769336853
 51
90.3327358489045906
  0
ARC
  5
31847
  8
0
 10
6726.512525508715953
 20
154.8968133444423074
 30
0.0
 40
0.0449884804392454
 50
41.8366690421890013
 51
64.8436113568186698
  0
ARC
  5
31848
  8
0
 10
6726.5251871142618256
 20
154.9081487160887889
 30
0.0
 40
0.0279941606418049
 50
358.4951902127805852
 51
41.8366690421890013
  0
ARC
  5
31849
  8
0
 10
6726.5293327806830348
 20
154.9080398097389946
 30
0.0
 40
0.0238470639869637
 50
332.4722313008514902
 51
358.4951902127805852
  0
ARC
  5
3184A
  8
0
 10
6726.5090465794146439
 20
154.9186126369909005
 30
0.0
 40
0.0467231352827748
 50
307.8299051590415161
 51
332.4722313008514902
  0
ARC
  5
3184B
  8
0
 10
6726.5123936307463737
 20
154.9143022917571955
 30
0.0
 40
0.0412658622785049
 50
295.1232715934525004
 51
307.8299051590415161
  0
ARC
  5
3184C
  8
0
 10
6726.4962689511439748
 20
154.9486884321989919
 30
0.0
 40
0.079244961092701
 50
280.2753448296504075
 51
295.1232715934525004
  0
ARC
  5
3184D
  8
0
 10
6726.4974886430509287
 20
154.9489407435665953
 30
0.0
 40
0.0792854363870859
 50
269.9808992875659897
 51
279.375506834842497
  0
ARC
  5
3184E
  8
0
 10
6726.4979635699037317
 20
154.8794003354956885
 30
0.0
 40
0.0402770249013154
 50
60.4866110308327194
 51
90.7132218575937657
  0
ARC
  5
3184F
  8
0
 10
6726.5078378916841757
 20
154.8968436280885044
 30
0.0
 40
0.0202328066061988
 50
34.6076341730715882
 51
60.4866110308327194
  0
ARC
  5
31850
  8
0
 10
6726.51340128668744
 20
154.9006826513742112
 30
0.0
 40
0.0134734084263372
 50
320.6606037432777043
 51
34.6076341730715882
  0
ARC
  5
31851
  8
0
 10
6726.5048955721449602
 20
154.9076542700962875
 30
0.0
 40
0.0244711649009719
 50
289.8481799257023113
 51
320.6606037432777043
  0
ARC
  5
31852
  8
0
 10
6726.4964403305302767
 20
154.9310777871885989
 30
0.0
 40
0.0493740214388993
 50
271.1859203831583045
 51
289.8481799257023113
  0
LINE
  5
31853
  8
0
 10
6726.5593271165889746
 20
154.9865287753854091
 30
0.0
 11
6726.5531812749050005
 21
154.9081487160887889
 31
0.0
  0
ARC
  5
31854
  8
0
 10
6726.0245907016569618
 20
154.5915246751982011
 30
0.0
 40
0.0911201021540354
 50
88.8168720588193992
 51
120.3438859522290016
  0
ARC
  5
31855
  8
0
 10
6726.0028888100541735
 20
154.6285977945208003
 30
0.0
 40
0.048162119479436
 50
120.3438859522290016
 51
142.6409015527264899
  0
ARC
  5
31856
  8
0
 10
6725.9902256241839495
 20
154.6382652149416117
 30
0.0
 40
0.032230537826929
 50
142.6409015527264899
 51
226.3259653020716087
  0
ARC
  5
31857
  8
0
 10
6726.0260113945560079
 20
154.5370134090304077
 30
0.0
 40
0.07934077095047
 50
89.6672641510954236
 51
115.1561577230656042
  0
ARC
  5
31858
  8
0
 10
6726.0114088534128314
 20
154.5681075508516926
 30
0.0
 40
0.0449884804392454
 50
115.1563886431813017
 51
138.1633309578110129
  0
ARC
  5
31859
  8
0
 10
6725.9987472478669588
 20
154.5794429224982025
 30
0.0
 40
0.0279941606418049
 50
138.1633309578110129
 51
181.5048097872195001
  0
ARC
  5
3185A
  8
0
 10
6725.9946015814457496
 20
154.5793340161484082
 30
0.0
 40
0.0238470639869637
 50
181.5048097872195001
 51
207.5277686991470887
  0
ARC
  5
3185B
  8
0
 10
6726.0148877827141405
 20
154.5899068434003993
 30
0.0
 40
0.0467231352827748
 50
207.5277686991470887
 51
232.1700948409574892
  0
ARC
  5
3185C
  8
0
 10
6726.0115407313824107
 20
154.5855964981666091
 30
0.0
 40
0.0412658622785049
 50
232.1700948409585123
 51
244.8767284065474996
  0
ARC
  5
3185D
  8
0
 10
6726.0276654109848096
 20
154.6199826386084055
 30
0.0
 40
0.079244961092701
 50
244.8767284065474996
 51
259.7246551703494788
  0
ARC
  5
3185E
  8
0
 10
6726.0264457190778558
 20
154.6202349499760089
 30
0.0
 40
0.0792854363870778
 50
260.624493165157503
 51
270.0191007124340103
  0
ARC
  5
3185F
  8
0
 10
6726.0259707922250527
 20
154.5506945419051021
 30
0.0
 40
0.0402770249013154
 50
89.286778142406277
 51
119.5133889691672948
  0
ARC
  5
31860
  8
0
 10
6726.0160964704473372
 20
154.5681378344980033
 30
0.0
 40
0.0202328066061988
 50
119.5133889691672948
 51
145.3923658269283976
  0
ARC
  5
31861
  8
0
 10
6726.0105330754422539
 20
154.5719768577835964
 30
0.0
 40
0.0134734084263372
 50
145.3923658269283976
 51
219.3393962567222957
  0
ARC
  5
31862
  8
0
 10
6726.0190387899847337
 20
154.5789484765057011
 30
0.0
 40
0.0244711649009719
 50
219.3393962567222957
 51
250.1518200742976887
  0
ARC
  5
31863
  8
0
 10
6726.0274940316012362
 20
154.6023719935980125
 30
0.0
 40
0.0493740214388993
 50
250.1518200742976887
 51
268.8140796168418092
  0
LINE
  5
31864
  8
0
 10
6725.9646072455398098
 20
154.6578229817947943
 30
0.0
 11
6725.9707530872256029
 21
154.5794429224982025
 31
0.0
  0
ARC
  5
31865
  8
0
 10
6726.0283535993239639
 20
154.5915246751982011
 30
0.0
 40
0.0911201021540354
 50
59.6561140477709486
 51
91.1831279411805866
  0
ARC
  5
31866
  8
0
 10
6726.0500554909267521
 20
154.6285977945208003
 30
0.0
 40
0.048162119479436
 50
37.3590984472734533
 51
59.6561140477709486
  0
ARC
  5
31867
  8
0
 10
6726.0627186767960666
 20
154.6382652149416117
 30
0.0
 40
0.032230537826929
 50
313.6740346979283913
 51
37.3590984472734533
  0
ARC
  5
31868
  8
0
 10
6726.0269329064249177
 20
154.5370134090304077
 30
0.0
 40
0.079340770950467
 50
64.8438422769336853
 51
90.3327358489045906
  0
ARC
  5
31869
  8
0
 10
6726.0415354475671847
 20
154.5681075508516926
 30
0.0
 40
0.0449884804392454
 50
41.8366690421890013
 51
64.8436113568186698
  0
ARC
  5
3186A
  8
0
 10
6726.0541970531130573
 20
154.5794429224982025
 30
0.0
 40
0.0279941606418049
 50
358.4951902127805852
 51
41.8366690421890013
  0
ARC
  5
3186B
  8
0
 10
6726.0583427195324475
 20
154.5793340161484082
 30
0.0
 40
0.0238470639869637
 50
332.4722313008514902
 51
358.4951902127805852
  0
ARC
  5
3186C
  8
0
 10
6726.0380565182667851
 20
154.5899068434003993
 30
0.0
 40
0.0467231352827748
 50
307.8299051590415161
 51
332.4722313008514902
  0
ARC
  5
3186D
  8
0
 10
6726.0414035695966959
 20
154.5855964981666091
 30
0.0
 40
0.0412658622785049
 50
295.1232715934525004
 51
307.8299051590415161
  0
ARC
  5
3186E
  8
0
 10
6726.0252788899952066
 20
154.6199826386084055
 30
0.0
 40
0.079244961092701
 50
280.2753448296504075
 51
295.1232715934525004
  0
ARC
  5
3186F
  8
0
 10
6726.0264985819021604
 20
154.6202349499760089
 30
0.0
 40
0.0792854363870859
 50
269.9808992875659897
 51
279.375506834842497
  0
ARC
  5
31870
  8
0
 10
6726.0269735087558729
 20
154.5506945419051021
 30
0.0
 40
0.0402770249013154
 50
60.4866110308327194
 51
90.7132218575937657
  0
ARC
  5
31871
  8
0
 10
6726.0368478305335884
 20
154.5681378344980033
 30
0.0
 40
0.0202328066061988
 50
34.6076341730715882
 51
60.4866110308327194
  0
ARC
  5
31872
  8
0
 10
6726.0424112255377622
 20
154.5719768577835964
 30
0.0
 40
0.0134734084263372
 50
320.6606037432777043
 51
34.6076341730715882
  0
ARC
  5
31873
  8
0
 10
6726.0339055109952824
 20
154.5789484765057011
 30
0.0
 40
0.0244711649009719
 50
289.8481799257023113
 51
320.6606037432777043
  0
ARC
  5
31874
  8
0
 10
6726.0254502693805989
 20
154.6023719935980125
 30
0.0
 40
0.0493740214388993
 50
271.1859203831583045
 51
289.8481799257023113
  0
LINE
  5
31875
  8
0
 10
6726.0883370554411158
 20
154.6578229817947943
 30
0.0
 11
6726.0821912137544132
 21
154.5794429224982025
 31
0.0
  0
ARC
  5
31876
  8
0
 10
6725.5013770777186437
 20
154.4821067856038894
 30
0.0
 40
0.0911201021540354
 50
88.8168720588193992
 51
120.3438859522290016
  0
ARC
  5
31877
  8
0
 10
6725.4796751861158555
 20
154.5191799049264034
 30
0.0
 40
0.048162119479436
 50
120.3438859522290016
 51
142.6409015527264899
  0
ARC
  5
31878
  8
0
 10
6725.4670120002474505
 20
154.5288473253471864
 30
0.0
 40
0.032230537826929
 50
142.6409015527264899
 51
226.3259653020716087
  0
ARC
  5
31879
  8
0
 10
6725.5027977706185993
 20
154.4275955194360108
 30
0.0
 40
0.07934077095047
 50
89.6672641510954236
 51
115.1561577230656042
  0
ARC
  5
3187A
  8
0
 10
6725.4881952294772418
 20
154.4586896612574094
 30
0.0
 40
0.0449884804392454
 50
115.1563886431813017
 51
138.1633309578110129
  0
ARC
  5
3187B
  8
0
 10
6725.4755336239295502
 20
154.4700250329038909
 30
0.0
 40
0.0279941606418049
 50
138.1633309578110129
 51
181.5048097872195001
  0
ARC
  5
3187C
  8
0
 10
6725.4713879575110695
 20
154.4699161265540113
 30
0.0
 40
0.0238470639869637
 50
181.5048097872195001
 51
207.5277686991470887
  0
ARC
  5
3187D
  8
0
 10
6725.4916741587758224
 20
154.4804889538060024
 30
0.0
 40
0.0467231352827748
 50
207.5277686991470887
 51
232.1700948409574892
  0
ARC
  5
3187E
  8
0
 10
6725.4883271074459117
 20
154.4761786085722974
 30
0.0
 40
0.0412658622785049
 50
232.1700948409585123
 51
244.8767284065474996
  0
ARC
  5
3187F
  8
0
 10
6725.50445178704922
 20
154.5105647490140086
 30
0.0
 40
0.079244961092701
 50
244.8767284065474996
 51
259.7246551703494788
  0
ARC
  5
31880
  8
0
 10
6725.5032320951422662
 20
154.5108170603816973
 30
0.0
 40
0.0792854363870778
 50
260.624493165157503
 51
270.0191007124340103
  0
ARC
  5
31881
  8
0
 10
6725.5027571682867347
 20
154.4412766523107905
 30
0.0
 40
0.0402770249013154
 50
89.286778142406277
 51
119.5133889691672948
  0
ARC
  5
31882
  8
0
 10
6725.4928828465090191
 20
154.4587199449036063
 30
0.0
 40
0.0202328066061988
 50
119.5133889691672948
 51
145.3923658269283976
  0
ARC
  5
31883
  8
0
 10
6725.4873194515057548
 20
154.4625589681893132
 30
0.0
 40
0.0134734084263372
 50
145.3923658269283976
 51
219.3393962567222957
  0
ARC
  5
31884
  8
0
 10
6725.4958251660482347
 20
154.4695305869113042
 30
0.0
 40
0.0244711649009719
 50
219.3393962567222957
 51
250.1518200742976887
  0
ARC
  5
31885
  8
0
 10
6725.5042804076638276
 20
154.4929541040035872
 30
0.0
 40
0.0493740214388993
 50
250.1518200742976887
 51
268.8140796168418092
  0
LINE
  5
31886
  8
0
 10
6725.4413936216042202
 20
154.548405092200511
 30
0.0
 11
6725.4475394632891039
 21
154.4700250329038909
 31
0.0
  0
ARC
  5
31887
  8
0
 10
6725.5051399753883743
 20
154.4821067856038894
 30
0.0
 40
0.0911201021540354
 50
59.6561140477709486
 51
91.1831279411805866
  0
ARC
  5
31888
  8
0
 10
6725.5268418669911625
 20
154.5191799049264034
 30
0.0
 40
0.048162119479436
 50
37.3590984472734533
 51
59.6561140477709486
  0
ARC
  5
31889
  8
0
 10
6725.539505052858658
 20
154.5288473253471864
 30
0.0
 40
0.032230537826929
 50
313.6740346979283913
 51
37.3590984472734533
  0
ARC
  5
3188A
  8
0
 10
6725.5037192824865997
 20
154.4275955194360108
 30
0.0
 40
0.079340770950467
 50
64.8438422769336853
 51
90.3327358489045906
  0
ARC
  5
3188B
  8
0
 10
6725.5183218236297762
 20
154.4586896612574094
 30
0.0
 40
0.0449884804392454
 50
41.8366690421890013
 51
64.8436113568186698
  0
ARC
  5
3188C
  8
0
 10
6725.5309834291765583
 20
154.4700250329038909
 30
0.0
 40
0.0279941606418049
 50
358.4951902127805852
 51
41.8366690421890013
  0
ARC
  5
3188D
  8
0
 10
6725.535129095596858
 20
154.4699161265540113
 30
0.0
 40
0.0238470639869637
 50
332.4722313008514902
 51
358.4951902127805852
  0
ARC
  5
3188E
  8
0
 10
6725.5148428943302861
 20
154.4804889538060024
 30
0.0
 40
0.0467231352827748
 50
307.8299051590415161
 51
332.4722313008514902
  0
ARC
  5
3188F
  8
0
 10
6725.5181899456611063
 20
154.4761786085722974
 30
0.0
 40
0.0412658622785049
 50
295.1232715934525004
 51
307.8299051590415161
  0
ARC
  5
31890
  8
0
 10
6725.5020652660587075
 20
154.5105647490140086
 30
0.0
 40
0.079244961092701
 50
280.2753448296504075
 51
295.1232715934525004
  0
ARC
  5
31891
  8
0
 10
6725.5032849579647518
 20
154.5108170603816973
 30
0.0
 40
0.0792854363870859
 50
269.9808992875659897
 51
279.375506834842497
  0
ARC
  5
31892
  8
0
 10
6725.5037598848193738
 20
154.4412766523107905
 30
0.0
 40
0.0402770249013154
 50
60.4866110308327194
 51
90.7132218575937657
  0
ARC
  5
31893
  8
0
 10
6725.5136342065961799
 20
154.4587199449036063
 30
0.0
 40
0.0202328066061988
 50
34.6076341730715882
 51
60.4866110308327194
  0
ARC
  5
31894
  8
0
 10
6725.5191976016012632
 20
154.4625589681893132
 30
0.0
 40
0.0134734084263372
 50
320.6606037432777043
 51
34.6076341730715882
  0
ARC
  5
31895
  8
0
 10
6725.5106918870587833
 20
154.4695305869113042
 30
0.0
 40
0.0244711649009719
 50
289.8481799257023113
 51
320.6606037432777043
  0
ARC
  5
31896
  8
0
 10
6725.5022366454440998
 20
154.4929541040035872
 30
0.0
 40
0.0493740214388993
 50
271.1859203831583045
 51
289.8481799257023113
  0
LINE
  5
31897
  8
0
 10
6725.5651234315037073
 20
154.548405092200511
 30
0.0
 11
6725.5589775898188236
 21
154.4700250329038909
 31
0.0
  0
ARC
  5
31898
  8
0
 10
6727.4279190314900916
 20
154.5834682336225967
 30
0.0
 40
0.0911201021540354
 50
88.8168720588193992
 51
120.3438859522290016
  0
ARC
  5
31899
  8
0
 10
6727.4062171398845749
 20
154.6205413529451107
 30
0.0
 40
0.048162119479436
 50
120.3438859522290016
 51
142.6409015527264899
  0
ARC
  5
3189A
  8
0
 10
6727.3935539540161699
 20
154.6302087733658936
 30
0.0
 40
0.032230537826929
 50
142.6409015527264899
 51
226.3259653020716087
  0
ARC
  5
3189B
  8
0
 10
6727.4293397243891377
 20
154.5289569674546897
 30
0.0
 40
0.07934077095047
 50
89.6672641510954236
 51
115.1561577230656042
  0
ARC
  5
3189C
  8
0
 10
6727.4147371832468707
 20
154.5600511092760883
 30
0.0
 40
0.0449884804392454
 50
115.1563886431813017
 51
138.1633309578110129
  0
ARC
  5
3189D
  8
0
 10
6727.4020755777000886
 20
154.5713864809225981
 30
0.0
 40
0.0279941606418049
 50
138.1633309578110129
 51
181.5048097872195001
  0
ARC
  5
3189E
  8
0
 10
6727.3979299112797889
 20
154.5712775745728038
 30
0.0
 40
0.0238470639869637
 50
181.5048097872195001
 51
207.5277686991470887
  0
ARC
  5
3189F
  8
0
 10
6727.4182161125463608
 20
154.5818504018247097
 30
0.0
 40
0.0467231352827748
 50
207.5277686991470887
 51
232.1700948409574892
  0
ARC
  5
318A0
  8
0
 10
6727.4148690612146311
 20
154.5775400565910047
 30
0.0
 40
0.0412658622785049
 50
232.1700948409585123
 51
244.8767284065474996
  0
ARC
  5
318A1
  8
0
 10
6727.4309937408170299
 20
154.6119261970326875
 30
0.0
 40
0.079244961092701
 50
244.8767284065474996
 51
259.7246551703494788
  0
ARC
  5
318A2
  8
0
 10
6727.4297740489109856
 20
154.6121785084004046
 30
0.0
 40
0.0792854363870778
 50
260.624493165157503
 51
270.0191007124340103
  0
ARC
  5
318A3
  8
0
 10
6727.4292991220572731
 20
154.5426381003294978
 30
0.0
 40
0.0402770249013154
 50
89.286778142406277
 51
119.5133889691672948
  0
ARC
  5
318A4
  8
0
 10
6727.4194248002777385
 20
154.5600813929223136
 30
0.0
 40
0.0202328066061988
 50
119.5133889691672948
 51
145.3923658269283976
  0
ARC
  5
318A5
  8
0
 10
6727.4138614052762932
 20
154.563920416207992
 30
0.0
 40
0.0134734084263372
 50
145.3923658269283976
 51
219.3393962567222957
  0
ARC
  5
318A6
  8
0
 10
6727.4223671198169541
 20
154.5708920349300115
 30
0.0
 40
0.0244711649009719
 50
219.3393962567222957
 51
250.1518200742976887
  0
ARC
  5
318A7
  8
0
 10
6727.430822361432547
 20
154.5943155520222945
 30
0.0
 40
0.0493740214388993
 50
250.1518200742976887
 51
268.8140796168418092
  0
LINE
  5
318A8
  8
0
 10
6727.3679355753720301
 20
154.6497665402191899
 30
0.0
 11
6727.3740814170587328
 21
154.5713864809225981
 31
0.0
  0
ARC
  5
318A9
  8
0
 10
6727.4316819291552747
 20
154.5834682336225967
 30
0.0
 40
0.0911201021540354
 50
59.6561140477709486
 51
91.1831279411805866
  0
ARC
  5
318AA
  8
0
 10
6727.4533838207598819
 20
154.6205413529451107
 30
0.0
 40
0.048162119479436
 50
37.3590984472734533
 51
59.6561140477709486
  0
ARC
  5
318AB
  8
0
 10
6727.4660470066291964
 20
154.6302087733658936
 30
0.0
 40
0.032230537826929
 50
313.6740346979283913
 51
37.3590984472734533
  0
ARC
  5
318AC
  8
0
 10
6727.4302612362562286
 20
154.5289569674548034
 30
0.0
 40
0.079340770950467
 50
64.8438422769336853
 51
90.3327358489045906
  0
ARC
  5
318AD
  8
0
 10
6727.4448637774003146
 20
154.5600511092760883
 30
0.0
 40
0.0449884804392454
 50
41.8366690421890013
 51
64.8436113568186698
  0
ARC
  5
318AE
  8
0
 10
6727.4575253829452777
 20
154.5713864809225981
 30
0.0
 40
0.0279941606418049
 50
358.4951902127805852
 51
41.8366690421890013
  0
ARC
  5
318AF
  8
0
 10
6727.4616710493655773
 20
154.5712775745728038
 30
0.0
 40
0.0238470639869637
 50
332.4722313008514902
 51
358.4951902127805852
  0
ARC
  5
318B0
  8
0
 10
6727.441384848099915
 20
154.5818504018247097
 30
0.0
 40
0.0467231352827748
 50
307.8299051590415161
 51
332.4722313008514902
  0
ARC
  5
318B1
  8
0
 10
6727.4447318994307352
 20
154.5775400565910047
 30
0.0
 40
0.0412658622785049
 50
295.1232715934525004
 51
307.8299051590415161
  0
ARC
  5
318B2
  8
0
 10
6727.4286072198274269
 20
154.6119261970326875
 30
0.0
 40
0.079244961092701
 50
280.2753448296504075
 51
295.1232715934525004
  0
ARC
  5
318B3
  8
0
 10
6727.4298269117343807
 20
154.6121785084004046
 30
0.0
 40
0.0792854363870859
 50
269.9808992875659897
 51
279.375506834842497
  0
ARC
  5
318B4
  8
0
 10
6727.4303018385871837
 20
154.5426381003294978
 30
0.0
 40
0.0402770249013154
 50
60.4866110308327194
 51
90.7132218575937657
  0
ARC
  5
318B5
  8
0
 10
6727.4401761603667182
 20
154.5600813929223136
 30
0.0
 40
0.0202328066061988
 50
34.6076341730715882
 51
60.4866110308327194
  0
ARC
  5
318B6
  8
0
 10
6727.4457395553699826
 20
154.563920416207992
 30
0.0
 40
0.0134734084263372
 50
320.6606037432777043
 51
34.6076341730715882
  0
ARC
  5
318B7
  8
0
 10
6727.4372338408284122
 20
154.5708920349300115
 30
0.0
 40
0.0244711649009719
 50
289.8481799257023113
 51
320.6606037432777043
  0
ARC
  5
318B8
  8
0
 10
6727.4287785992128192
 20
154.5943155520222945
 30
0.0
 40
0.0493740214388993
 50
271.1859203831583045
 51
289.8481799257023113
  0
LINE
  5
318B9
  8
0
 10
6727.4916653852724266
 20
154.6497665402191899
 30
0.0
 11
6727.4855195435884525
 21
154.5713864809225981
 31
0.0
  0
ARC
  5
318BA
  8
0
 10
6726.7059415847788841
 20
154.5036927087838023
 30
0.0
 40
0.0911201021540354
 50
88.8168720588193992
 51
120.3438859522290016
  0
ARC
  5
318BB
  8
0
 10
6726.6842396931760959
 20
154.5407658281062879
 30
0.0
 40
0.048162119479436
 50
120.3438859522290016
 51
142.6409015527264899
  0
ARC
  5
318BC
  8
0
 10
6726.6715765073067814
 20
154.550433248527213
 30
0.0
 40
0.032230537826929
 50
142.6409015527264899
 51
226.3259653020716087
  0
ARC
  5
318BD
  8
0
 10
6726.7073622776788397
 20
154.449181442616009
 30
0.0
 40
0.07934077095047
 50
89.6672641510954236
 51
115.1561577230656042
  0
ARC
  5
318BE
  8
0
 10
6726.6927597365383917
 20
154.4802755844372939
 30
0.0
 40
0.0449884804392454
 50
115.1563886431813017
 51
138.1633309578110129
  0
ARC
  5
318BF
  8
0
 10
6726.6800981309907002
 20
154.4916109560838038
 30
0.0
 40
0.0279941606418049
 50
138.1633309578110129
 51
181.5048097872195001
  0
ARC
  5
318C0
  8
0
 10
6726.67595246457131
 20
154.4915020497340095
 30
0.0
 40
0.0238470639869637
 50
181.5048097872195001
 51
207.5277686991470887
  0
ARC
  5
318C1
  8
0
 10
6726.6962386658369724
 20
154.5020748769858869
 30
0.0
 40
0.0467231352827748
 50
207.5277686991470887
 51
232.1700948409574892
  0
ARC
  5
318C2
  8
0
 10
6726.6928916145079711
 20
154.4977645317522104
 30
0.0
 40
0.0412658622785049
 50
232.1700948409585123
 51
244.8767284065474996
  0
ARC
  5
318C3
  8
0
 10
6726.7090162941076414
 20
154.5321506721940068
 30
0.0
 40
0.079244961092701
 50
244.8767284065474996
 51
259.7246551703494788
  0
ARC
  5
318C4
  8
0
 10
6726.7077966022034161
 20
154.5324029835616102
 30
0.0
 40
0.0792854363870778
 50
260.624493165157503
 51
270.0191007124340103
  0
ARC
  5
318C5
  8
0
 10
6726.7073216753469751
 20
154.4628625754907034
 30
0.0
 40
0.0402770249013154
 50
89.286778142406277
 51
119.5133889691672948
  0
ARC
  5
318C6
  8
0
 10
6726.6974473535692596
 20
154.4803058680834909
 30
0.0
 40
0.0202328066061988
 50
119.5133889691672948
 51
145.3923658269283976
  0
ARC
  5
318C7
  8
0
 10
6726.6918839585650858
 20
154.4841448913691977
 30
0.0
 40
0.0134734084263372
 50
145.3923658269283976
 51
219.3393962567222957
  0
ARC
  5
318C8
  8
0
 10
6726.7003896731093846
 20
154.4911165100913024
 30
0.0
 40
0.0244711649009719
 50
219.3393962567222957
 51
250.1518200742976887
  0
ARC
  5
318C9
  8
0
 10
6726.7088449147240681
 20
154.5145400271836138
 30
0.0
 40
0.0493740214388993
 50
250.1518200742976887
 51
268.8140796168418092
  0
LINE
  5
318CA
  8
0
 10
6726.6459581286626417
 20
154.5699910153803955
 30
0.0
 11
6726.6521039703493443
 21
154.4916109560838038
 31
0.0
  0
ARC
  5
318CB
  8
0
 10
6726.7097044824477052
 20
154.5036927087838023
 30
0.0
 40
0.0911201021540354
 50
59.6561140477709486
 51
91.1831279411805866
  0
ARC
  5
318CC
  8
0
 10
6726.731406374051403
 20
154.5407658281062879
 30
0.0
 40
0.048162119479436
 50
37.3590984472734533
 51
59.6561140477709486
  0
ARC
  5
318CD
  8
0
 10
6726.7440695599198079
 20
154.550433248527213
 30
0.0
 40
0.032230537826929
 50
313.6740346979283913
 51
37.3590984472734533
  0
ARC
  5
318CE
  8
0
 10
6726.7082837895468401
 20
154.449181442616009
 30
0.0
 40
0.079340770950467
 50
64.8438422769336853
 51
90.3327358489045906
  0
ARC
  5
318CF
  8
0
 10
6726.7228863306900166
 20
154.4802755844372939
 30
0.0
 40
0.0449884804392454
 50
41.8366690421890013
 51
64.8436113568186698
  0
ARC
  5
318D0
  8
0
 10
6726.7355479362358892
 20
154.4916109560838038
 30
0.0
 40
0.0279941606418049
 50
358.4951902127805852
 51
41.8366690421890013
  0
ARC
  5
318D1
  8
0
 10
6726.7396936026570984
 20
154.4915020497340095
 30
0.0
 40
0.0238470639869637
 50
332.4722313008514902
 51
358.4951902127805852
  0
ARC
  5
318D2
  8
0
 10
6726.719407401389617
 20
154.5020748769858869
 30
0.0
 40
0.0467231352827748
 50
307.8299051590415161
 51
332.4722313008514902
  0
ARC
  5
318D3
  8
0
 10
6726.7227544527222562
 20
154.4977645317522104
 30
0.0
 40
0.0412658622785049
 50
295.1232715934525004
 51
307.8299051590415161
  0
ARC
  5
318D4
  8
0
 10
6726.7066297731198574
 20
154.5321506721940068
 30
0.0
 40
0.079244961092701
 50
280.2753448296504075
 51
295.1232715934525004
  0
ARC
  5
318D5
  8
0
 10
6726.7078494650249922
 20
154.5324029835616102
 30
0.0
 40
0.0792854363870859
 50
269.9808992875659897
 51
279.375506834842497
  0
ARC
  5
318D6
  8
0
 10
6726.7083243918787048
 20
154.4628625754907034
 30
0.0
 40
0.0402770249013154
 50
60.4866110308327194
 51
90.7132218575937657
  0
ARC
  5
318D7
  8
0
 10
6726.7181987136582393
 20
154.4803058680834909
 30
0.0
 40
0.0202328066061988
 50
34.6076341730715882
 51
60.4866110308327194
  0
ARC
  5
318D8
  8
0
 10
6726.7237621086624131
 20
154.4841448913691977
 30
0.0
 40
0.0134734084263372
 50
320.6606037432777043
 51
34.6076341730715882
  0
ARC
  5
318D9
  8
0
 10
6726.7152563941190238
 20
154.4911165100913024
 30
0.0
 40
0.0244711649009719
 50
289.8481799257023113
 51
320.6606037432777043
  0
ARC
  5
318DA
  8
0
 10
6726.7068011525043403
 20
154.5145400271836138
 30
0.0
 40
0.0493740214388993
 50
271.1859203831583045
 51
289.8481799257023113
  0
LINE
  5
318DB
  8
0
 10
6726.7696879385630382
 20
154.5699910153803955
 30
0.0
 11
6726.763542096879064
 21
154.4916109560838038
 31
0.0
  0
ARC
  5
318DC
  8
0
 10
6726.2600786575712846
 20
154.2958731889497983
 30
0.0
 40
0.0911201021540354
 50
88.8168720588193992
 51
120.3438859522290016
  0
ARC
  5
318DD
  8
0
 10
6726.2383767659694058
 20
154.3329463082723123
 30
0.0
 40
0.048162119479436
 50
120.3438859522290016
 51
142.6409015527264899
  0
ARC
  5
318DE
  8
0
 10
6726.2257135800991819
 20
154.3426137286932089
 30
0.0
 40
0.032230537826929
 50
142.6409015527264899
 51
226.3259653020716087
  0
ARC
  5
318DF
  8
0
 10
6726.2614993504712402
 20
154.2413619227818913
 30
0.0
 40
0.07934077095047
 50
89.6672641510954236
 51
115.1561577230656042
  0
ARC
  5
318E0
  8
0
 10
6726.2468968093280637
 20
154.2724560646032899
 30
0.0
 40
0.0449884804392454
 50
115.1563886431813017
 51
138.1633309578110129
  0
ARC
  5
318E1
  8
0
 10
6726.2342352037821911
 20
154.2837914362497997
 30
0.0
 40
0.0279941606418049
 50
138.1633309578110129
 51
181.5048097872195001
  0
ARC
  5
318E2
  8
0
 10
6726.2300895373609819
 20
154.2836825299000054
 30
0.0
 40
0.0238470639869637
 50
181.5048097872195001
 51
207.5277686991470887
  0
ARC
  5
318E3
  8
0
 10
6726.2503757386275538
 20
154.2942553571519113
 30
0.0
 40
0.0467231352827748
 50
207.5277686991470887
 51
232.1700948409574892
  0
ARC
  5
318E4
  8
0
 10
6726.247028687297643
 20
154.2899450119180926
 30
0.0
 40
0.0412658622785049
 50
232.1700948409585123
 51
244.8767284065474996
  0
ARC
  5
318E5
  8
0
 10
6726.2631533669000419
 20
154.3243311523598891
 30
0.0
 40
0.079244961092701
 50
244.8767284065474996
 51
259.7246551703494788
  0
ARC
  5
318E6
  8
0
 10
6726.2619336749939976
 20
154.3245834637276062
 30
0.0
 40
0.0792854363870778
 50
260.624493165157503
 51
270.0191007124340103
  0
ARC
  5
318E7
  8
0
 10
6726.2614587481393755
 20
154.2550430556566994
 30
0.0
 40
0.0402770249013154
 50
89.286778142406277
 51
119.5133889691672948
  0
ARC
  5
318E8
  8
0
 10
6726.2515844263607505
 20
154.2724863482494868
 30
0.0
 40
0.0202328066061988
 50
119.5133889691672948
 51
145.3923658269283976
  0
ARC
  5
318E9
  8
0
 10
6726.2460210313565767
 20
154.2763253715351937
 30
0.0
 40
0.0134734084263372
 50
145.3923658269283976
 51
219.3393962567222957
  0
ARC
  5
318EA
  8
0
 10
6726.2545267459008755
 20
154.2832969902572131
 30
0.0
 40
0.0244711649009719
 50
219.3393962567222957
 51
250.1518200742976887
  0
ARC
  5
318EB
  8
0
 10
6726.262981987515559
 20
154.3067205073494961
 30
0.0
 40
0.0493740214388993
 50
250.1518200742976887
 51
268.8140796168418092
  0
LINE
  5
318EC
  8
0
 10
6726.2000952014550421
 20
154.3621714955463915
 30
0.0
 11
6726.2062410431408352
 21
154.2837914362497997
 31
0.0
  0
ARC
  5
318ED
  8
0
 10
6726.2638415552391962
 20
154.2958731889497983
 30
0.0
 40
0.0911201021540354
 50
59.6561140477709486
 51
91.1831279411805866
  0
ARC
  5
318EE
  8
0
 10
6726.2855434468428939
 20
154.3329463082723123
 30
0.0
 40
0.048162119479436
 50
37.3590984472734533
 51
59.6561140477709486
  0
ARC
  5
318EF
  8
0
 10
6726.2982066327112989
 20
154.3426137286932089
 30
0.0
 40
0.032230537826929
 50
313.6740346979283913
 51
37.3590984472734533
  0
ARC
  5
318F0
  8
0
 10
6726.2624208623392406
 20
154.2413619227818913
 30
0.0
 40
0.079340770950467
 50
64.8438422769336853
 51
90.3327358489045906
  0
ARC
  5
318F1
  8
0
 10
6726.2770234034824171
 20
154.2724560646032899
 30
0.0
 40
0.0449884804392454
 50
41.8366690421890013
 51
64.8436113568186698
  0
ARC
  5
318F2
  8
0
 10
6726.2896850090282896
 20
154.2837914362497997
 30
0.0
 40
0.0279941606418049
 50
358.4951902127805852
 51
41.8366690421890013
  0
ARC
  5
318F3
  8
0
 10
6726.2938306754485893
 20
154.2836825299000054
 30
0.0
 40
0.0238470639869637
 50
332.4722313008514902
 51
358.4951902127805852
  0
ARC
  5
318F4
  8
0
 10
6726.2735444741820174
 20
154.2942553571519113
 30
0.0
 40
0.0467231352827748
 50
307.8299051590415161
 51
332.4722313008514902
  0
ARC
  5
318F5
  8
0
 10
6726.2768915255119282
 20
154.2899450119180926
 30
0.0
 40
0.0412658622785049
 50
295.1232715934525004
 51
307.8299051590415161
  0
ARC
  5
318F6
  8
0
 10
6726.2607668459113484
 20
154.3243311523598891
 30
0.0
 40
0.079244961092701
 50
280.2753448296504075
 51
295.1232715934525004
  0
ARC
  5
318F7
  8
0
 10
6726.2619865378173927
 20
154.3245834637276062
 30
0.0
 40
0.0792854363870859
 50
269.9808992875659897
 51
279.375506834842497
  0
ARC
  5
318F8
  8
0
 10
6726.2624614646711052
 20
154.2550430556566994
 30
0.0
 40
0.0402770249013154
 50
60.4866110308327194
 51
90.7132218575937657
  0
ARC
  5
318F9
  8
0
 10
6726.2723357864497302
 20
154.2724863482494868
 30
0.0
 40
0.0202328066061988
 50
34.6076341730715882
 51
60.4866110308327194
  0
ARC
  5
318FA
  8
0
 10
6726.2778991814529945
 20
154.2763253715351937
 30
0.0
 40
0.0134734084263372
 50
320.6606037432777043
 51
34.6076341730715882
  0
ARC
  5
318FB
  8
0
 10
6726.2693934669096052
 20
154.2832969902572131
 30
0.0
 40
0.0244711649009719
 50
289.8481799257023113
 51
320.6606037432777043
  0
ARC
  5
318FC
  8
0
 10
6726.2609382252958312
 20
154.3067205073494961
 30
0.0
 40
0.0493740214388993
 50
271.1859203831583045
 51
289.8481799257023113
  0
LINE
  5
318FD
  8
0
 10
6726.3238250113554386
 20
154.3621714955463915
 30
0.0
 11
6726.317679169668736
 21
154.2837914362497997
 31
0.0
  0
ARC
  5
318FE
  8
0
 10
6725.8146331957286748
 20
154.0872395892648115
 30
0.0
 40
0.0911201021540354
 50
88.8168720588193992
 51
120.3438859522290016
  0
ARC
  5
318FF
  8
0
 10
6725.7929313041240675
 20
154.1243127085874107
 30
0.0
 40
0.048162119479436
 50
120.3438859522290016
 51
142.6409015527264899
  0
ARC
  5
31900
  8
0
 10
6725.7802681182547531
 20
154.1339801290081937
 30
0.0
 40
0.032230537826929
 50
142.6409015527264899
 51
226.3259653020716087
  0
ARC
  5
31901
  8
0
 10
6725.8160538886277209
 20
154.0327283230969897
 30
0.0
 40
0.07934077095047
 50
89.6672641510954236
 51
115.1561577230656042
  0
ARC
  5
31902
  8
0
 10
6725.8014513474863634
 20
154.0638224649183883
 30
0.0
 40
0.0449884804392454
 50
115.1563886431813017
 51
138.1633309578110129
  0
ARC
  5
31903
  8
0
 10
6725.7887897419386718
 20
154.0751578365648982
 30
0.0
 40
0.0279941606418049
 50
138.1633309578110129
 51
181.5048097872195001
  0
ARC
  5
31904
  8
0
 10
6725.7846440755192816
 20
154.0750489302149902
 30
0.0
 40
0.0238470639869637
 50
181.5048097872195001
 51
207.5277686991470887
  0
ARC
  5
31905
  8
0
 10
6725.8049302767858535
 20
154.0856217574670097
 30
0.0
 40
0.0467231352827748
 50
207.5277686991470887
 51
232.1700948409574892
  0
ARC
  5
31906
  8
0
 10
6725.8015832254559427
 20
154.081311412233191
 30
0.0
 40
0.0412658622785049
 50
232.1700948409585123
 51
244.8767284065474996
  0
ARC
  5
31907
  8
0
 10
6725.8177079050574321
 20
154.1156975526749875
 30
0.0
 40
0.079244961092701
 50
244.8767284065474996
 51
259.7246551703494788
  0
ARC
  5
31908
  8
0
 10
6725.8164882131513878
 20
154.1159498640427046
 30
0.0
 40
0.0792854363870778
 50
260.624493165157503
 51
270.0191007124340103
  0
ARC
  5
31909
  8
0
 10
6725.8160132862967657
 20
154.0464094559717125
 30
0.0
 40
0.0402770249013154
 50
89.286778142406277
 51
119.5133889691672948
  0
ARC
  5
3190A
  8
0
 10
6725.8061389645181407
 20
154.0638527485646136
 30
0.0
 40
0.0202328066061988
 50
119.5133889691672948
 51
145.3923658269283976
  0
ARC
  5
3190B
  8
0
 10
6725.8005755695148764
 20
154.0676917718502921
 30
0.0
 40
0.0134734084263372
 50
145.3923658269283976
 51
219.3393962567222957
  0
ARC
  5
3190C
  8
0
 10
6725.8090812840564467
 20
154.0746633905723115
 30
0.0
 40
0.0244711649009719
 50
219.3393962567222957
 51
250.1518200742976887
  0
ARC
  5
3190D
  8
0
 10
6725.8175365256720397
 20
154.0980869076645945
 30
0.0
 40
0.0493740214388993
 50
250.1518200742976887
 51
268.8140796168418092
  0
LINE
  5
3190E
  8
0
 10
6725.7546497396124323
 20
154.1535378958614046
 30
0.0
 11
6725.7607955812982254
 21
154.0751578365648982
 31
0.0
  0
ARC
  5
3190F
  8
0
 10
6725.8183960933956769
 20
154.0872395892648115
 30
0.0
 40
0.0911201021540354
 50
59.6561140477709486
 51
91.1831279411805866
  0
ARC
  5
31910
  8
0
 10
6725.8400979849993746
 20
154.1243127085874107
 30
0.0
 40
0.048162119479436
 50
37.3590984472734533
 51
59.6561140477709486
  0
ARC
  5
31911
  8
0
 10
6725.8527611708686891
 20
154.1339801290081937
 30
0.0
 40
0.032230537826929
 50
313.6740346979283913
 51
37.3590984472734533
  0
ARC
  5
31912
  8
0
 10
6725.8169754004966308
 20
154.0327283230969897
 30
0.0
 40
0.079340770950467
 50
64.8438422769336853
 51
90.3327358489045906
  0
ARC
  5
31913
  8
0
 10
6725.8315779416388978
 20
154.0638224649183883
 30
0.0
 40
0.0449884804392454
 50
41.8366690421890013
 51
64.8436113568186698
  0
ARC
  5
31914
  8
0
 10
6725.8442395471847703
 20
154.0751578365648982
 30
0.0
 40
0.0279941606418049
 50
358.4951902127805852
 51
41.8366690421890013
  0
ARC
  5
31915
  8
0
 10
6725.8483852136059795
 20
154.0750489302149902
 30
0.0
 40
0.0238470639869637
 50
332.4722313008514902
 51
358.4951902127805852
  0
ARC
  5
31916
  8
0
 10
6725.8280990123394076
 20
154.0856217574670097
 30
0.0
 40
0.0467231352827748
 50
307.8299051590415161
 51
332.4722313008514902
  0
ARC
  5
31917
  8
0
 10
6725.8314460636693184
 20
154.081311412233191
 30
0.0
 40
0.0412658622785049
 50
295.1232715934525004
 51
307.8299051590415161
  0
ARC
  5
31918
  8
0
 10
6725.8153213840678291
 20
154.1156975526749875
 30
0.0
 40
0.079244961092701
 50
280.2753448296504075
 51
295.1232715934525004
  0
ARC
  5
31919
  8
0
 10
6725.8165410759747829
 20
154.1159498640427046
 30
0.0
 40
0.0792854363870859
 50
269.9808992875659897
 51
279.375506834842497
  0
ARC
  5
3191A
  8
0
 10
6725.8170160028275859
 20
154.0464094559717125
 30
0.0
 40
0.0402770249013154
 50
60.4866110308327194
 51
90.7132218575937657
  0
ARC
  5
3191B
  8
0
 10
6725.8268903246062109
 20
154.0638527485646136
 30
0.0
 40
0.0202328066061988
 50
34.6076341730715882
 51
60.4866110308327194
  0
ARC
  5
3191C
  8
0
 10
6725.8324537196103847
 20
154.0676917718502921
 30
0.0
 40
0.0134734084263372
 50
320.6606037432777043
 51
34.6076341730715882
  0
ARC
  5
3191D
  8
0
 10
6725.8239480050679049
 20
154.0746633905723115
 30
0.0
 40
0.0244711649009719
 50
289.8481799257023113
 51
320.6606037432777043
  0
ARC
  5
3191E
  8
0
 10
6725.8154927634523119
 20
154.0980869076645945
 30
0.0
 40
0.0493740214388993
 50
271.1859203831583045
 51
289.8481799257023113
  0
LINE
  5
3191F
  8
0
 10
6725.8783795495128288
 20
154.1535378958614046
 30
0.0
 11
6725.8722337078270357
 21
154.0751578365648982
 31
0.0
  0
ARC
  5
31920
  8
0
 10
6727.2568047912673137
 20
154.2461557644087122
 30
0.0
 40
0.0911201021540354
 50
88.8168720588193992
 51
120.3438859522290016
  0
ARC
  5
31921
  8
0
 10
6727.235102899661797
 20
154.2832288837313115
 30
0.0
 40
0.048162119479436
 50
120.3438859522290016
 51
142.6409015527264899
  0
ARC
  5
31922
  8
0
 10
6727.222439713793392
 20
154.2928963041520944
 30
0.0
 40
0.032230537826929
 50
142.6409015527264899
 51
226.3259653020716087
  0
ARC
  5
31923
  8
0
 10
6727.2582254841672693
 20
154.1916444982408905
 30
0.0
 40
0.07934077095047
 50
89.6672641510954236
 51
115.1561577230656042
  0
ARC
  5
31924
  8
0
 10
6727.2436229430240928
 20
154.2227386400622038
 30
0.0
 40
0.0449884804392454
 50
115.1563886431813017
 51
138.1633309578110129
  0
ARC
  5
31925
  8
0
 10
6727.2309613374773107
 20
154.2340740117087137
 30
0.0
 40
0.0279941606418049
 50
138.1633309578110129
 51
181.5048097872195001
  0
ARC
  5
31926
  8
0
 10
6727.2268156710561016
 20
154.2339651053588909
 30
0.0
 40
0.0238470639869637
 50
181.5048097872195001
 51
207.5277686991470887
  0
ARC
  5
31927
  8
0
 10
6727.2471018723235829
 20
154.2445379326109105
 30
0.0
 40
0.0467231352827748
 50
207.5277686991470887
 51
232.1700948409574892
  0
ARC
  5
31928
  8
0
 10
6727.2437548209918532
 20
154.2402275873770918
 30
0.0
 40
0.0412658622785049
 50
232.1700948409585123
 51
244.8767284065474996
  0
ARC
  5
31929
  8
0
 10
6727.2598795005951615
 20
154.2746137278188883
 30
0.0
 40
0.079244961092701
 50
244.8767284065474996
 51
259.7246551703494788
  0
ARC
  5
3192A
  8
0
 10
6727.2586598086891172
 20
154.2748660391864917
 30
0.0
 40
0.0792854363870778
 50
260.624493165157503
 51
270.0191007124340103
  0
ARC
  5
3192B
  8
0
 10
6727.2581848818354047
 20
154.2053256311156133
 30
0.0
 40
0.0402770249013154
 50
89.286778142406277
 51
119.5133889691672948
  0
ARC
  5
3192C
  8
0
 10
6727.2483105600558702
 20
154.222768923708486
 30
0.0
 40
0.0202328066061988
 50
119.5133889691672948
 51
145.3923658269283976
  0
ARC
  5
3192D
  8
0
 10
6727.2427471650526059
 20
154.2266079469941076
 30
0.0
 40
0.0134734084263372
 50
145.3923658269283976
 51
219.3393962567222957
  0
ARC
  5
3192E
  8
0
 10
6727.2512528795941762
 20
154.2335795657162123
 30
0.0
 40
0.0244711649009719
 50
219.3393962567222957
 51
250.1518200742976887
  0
ARC
  5
3192F
  8
0
 10
6727.2597081212088597
 20
154.2570030828084953
 30
0.0
 40
0.0493740214388993
 50
250.1518200742976887
 51
268.8140796168418092
  0
LINE
  5
31930
  8
0
 10
6727.1968213351501618
 20
154.3124540710053054
 30
0.0
 11
6727.2029671768359549
 21
154.2340740117087137
 31
0.0
  0
ARC
  5
31931
  8
0
 10
6727.2605676889343158
 20
154.2461557644087122
 30
0.0
 40
0.0911201021540354
 50
59.6561140477709486
 51
91.1831279411805866
  0
ARC
  5
31932
  8
0
 10
6727.2822695805380135
 20
154.2832288837313115
 30
0.0
 40
0.048162119479436
 50
37.3590984472734533
 51
59.6561140477709486
  0
ARC
  5
31933
  8
0
 10
6727.2949327664064185
 20
154.2928963041520944
 30
0.0
 40
0.032230537826929
 50
313.6740346979283913
 51
37.3590984472734533
  0
ARC
  5
31934
  8
0
 10
6727.2591469960334507
 20
154.1916444982408905
 30
0.0
 40
0.079340770950467
 50
64.8438422769336853
 51
90.3327358489045906
  0
ARC
  5
31935
  8
0
 10
6727.2737495371766272
 20
154.2227386400622038
 30
0.0
 40
0.0449884804392454
 50
41.8366690421890013
 51
64.8436113568186698
  0
ARC
  5
31936
  8
0
 10
6727.2864111427215903
 20
154.2340740117087137
 30
0.0
 40
0.0279941606418049
 50
358.4951902127805852
 51
41.8366690421890013
  0
ARC
  5
31937
  8
0
 10
6727.2905568091427995
 20
154.2339651053588909
 30
0.0
 40
0.0238470639869637
 50
332.4722313008514902
 51
358.4951902127805852
  0
ARC
  5
31938
  8
0
 10
6727.2702706078780466
 20
154.2445379326109105
 30
0.0
 40
0.0467231352827748
 50
307.8299051590415161
 51
332.4722313008514902
  0
ARC
  5
31939
  8
0
 10
6727.2736176592070478
 20
154.2402275873770918
 30
0.0
 40
0.0412658622785049
 50
295.1232715934525004
 51
307.8299051590415161
  0
ARC
  5
3193A
  8
0
 10
6727.257492979604649
 20
154.2746137278188883
 30
0.0
 40
0.079244961092701
 50
280.2753448296504075
 51
295.1232715934525004
  0
ARC
  5
3193B
  8
0
 10
6727.2587126715106933
 20
154.2748660391864917
 30
0.0
 40
0.0792854363870859
 50
269.9808992875659897
 51
279.375506834842497
  0
ARC
  5
3193C
  8
0
 10
6727.2591875983653154
 20
154.2053256311156133
 30
0.0
 40
0.0402770249013154
 50
60.4866110308327194
 51
90.7132218575937657
  0
ARC
  5
3193D
  8
0
 10
6727.2690619201439404
 20
154.222768923708486
 30
0.0
 40
0.0202328066061988
 50
34.6076341730715882
 51
60.4866110308327194
  0
ARC
  5
3193E
  8
0
 10
6727.2746253151462952
 20
154.2266079469941076
 30
0.0
 40
0.0134734084263372
 50
320.6606037432777043
 51
34.6076341730715882
  0
ARC
  5
3193F
  8
0
 10
6727.2661196006056343
 20
154.2335795657162123
 30
0.0
 40
0.0244711649009719
 50
289.8481799257023113
 51
320.6606037432777043
  0
ARC
  5
31940
  8
0
 10
6727.2576643589900414
 20
154.2570030828084953
 30
0.0
 40
0.0493740214388993
 50
271.1859203831583045
 51
289.8481799257023113
  0
LINE
  5
31941
  8
0
 10
6727.3205511450496488
 20
154.3124540710053054
 30
0.0
 11
6727.3144053033638556
 21
154.2340740117087137
 31
0.0
  0
ARC
  5
31942
  8
0
 10
6726.6259079595638468
 20
154.0601984898775072
 30
0.0
 40
0.0911201021540354
 50
88.8168720588193992
 51
120.3438859522290016
  0
ARC
  5
31943
  8
0
 10
6726.6042060679601491
 20
154.0972716091999928
 30
0.0
 40
0.048162119479436
 50
120.3438859522290016
 51
142.6409015527264899
  0
ARC
  5
31944
  8
0
 10
6726.5915428820926536
 20
154.1069390296208894
 30
0.0
 40
0.032230537826929
 50
142.6409015527264899
 51
226.3259653020716087
  0
ARC
  5
31945
  8
0
 10
6726.6273286524647119
 20
154.0056872237097139
 30
0.0
 40
0.07934077095047
 50
89.6672641510954236
 51
115.1561577230656042
  0
ARC
  5
31946
  8
0
 10
6726.6127261113233544
 20
154.0367813655309988
 30
0.0
 40
0.0449884804392454
 50
115.1563886431813017
 51
138.1633309578110129
  0
ARC
  5
31947
  8
0
 10
6726.6000645057756628
 20
154.0481167371775086
 30
0.0
 40
0.0279941606418049
 50
138.1633309578110129
 51
181.5048097872195001
  0
ARC
  5
31948
  8
0
 10
6726.5959188393553632
 20
154.0480078308276859
 30
0.0
 40
0.0238470639869637
 50
181.5048097872195001
 51
207.5277686991470887
  0
ARC
  5
31949
  8
0
 10
6726.616205040621935
 20
154.0585806580797055
 30
0.0
 40
0.0467231352827748
 50
207.5277686991470887
 51
232.1700948409574892
  0
ARC
  5
3194A
  8
0
 10
6726.6128579892911148
 20
154.0542703128458868
 30
0.0
 40
0.0412658622785049
 50
232.1700948409585123
 51
244.8767284065474996
  0
ARC
  5
3194B
  8
0
 10
6726.6289826688926041
 20
154.088656453287598
 30
0.0
 40
0.079244961092701
 50
244.8767284065474996
 51
259.7246551703494788
  0
ARC
  5
3194C
  8
0
 10
6726.6277629769865598
 20
154.0889087646552866
 30
0.0
 40
0.0792854363870778
 50
260.624493165157503
 51
270.0191007124340103
  0
ARC
  5
3194D
  8
0
 10
6726.6272880501328473
 20
154.0193683565844083
 30
0.0
 40
0.0402770249013154
 50
89.286778142406277
 51
119.5133889691672948
  0
ARC
  5
3194E
  8
0
 10
6726.6174137283542223
 20
154.0368116491771957
 30
0.0
 40
0.0202328066061988
 50
119.5133889691672948
 51
145.3923658269283976
  0
ARC
  5
3194F
  8
0
 10
6726.6118503333518674
 20
154.0406506724629025
 30
0.0
 40
0.0134734084263372
 50
145.3923658269283976
 51
219.3393962567222957
  0
ARC
  5
31950
  8
0
 10
6726.6203560478943473
 20
154.0476222911850073
 30
0.0
 40
0.0244711649009719
 50
219.3393962567222957
 51
250.1518200742976887
  0
ARC
  5
31951
  8
0
 10
6726.6288112895081213
 20
154.071045808277205
 30
0.0
 40
0.0493740214388993
 50
250.1518200742976887
 51
268.8140796168418092
  0
LINE
  5
31952
  8
0
 10
6726.5659245034476044
 20
154.1264967964741004
 30
0.0
 11
6726.5720703451352165
 21
154.0481167371775086
 31
0.0
  0
ARC
  5
31953
  8
0
 10
6726.6296708572317584
 20
154.0601984898775072
 30
0.0
 40
0.0911201021540354
 50
59.6561140477709486
 51
91.1831279411805866
  0
ARC
  5
31954
  8
0
 10
6726.6513727488363656
 20
154.0972716091999928
 30
0.0
 40
0.048162119479436
 50
37.3590984472734533
 51
59.6561140477709486
  0
ARC
  5
31955
  8
0
 10
6726.6640359347047706
 20
154.1069390296208894
 30
0.0
 40
0.032230537826929
 50
313.6740346979283913
 51
37.3590984472734533
  0
ARC
  5
31956
  8
0
 10
6726.6282501643327123
 20
154.0056872237097139
 30
0.0
 40
0.079340770950467
 50
64.8438422769336853
 51
90.3327358489045906
  0
ARC
  5
31957
  8
0
 10
6726.6428527054758888
 20
154.0367813655309988
 30
0.0
 40
0.0449884804392454
 50
41.8366690421890013
 51
64.8436113568186698
  0
ARC
  5
31958
  8
0
 10
6726.6555143110226709
 20
154.0481167371775086
 30
0.0
 40
0.0279941606418049
 50
358.4951902127805852
 51
41.8366690421890013
  0
ARC
  5
31959
  8
0
 10
6726.6596599774420611
 20
154.0480078308276859
 30
0.0
 40
0.0238470639869637
 50
332.4722313008514902
 51
358.4951902127805852
  0
ARC
  5
3195A
  8
0
 10
6726.6393737761763987
 20
154.0585806580797055
 30
0.0
 40
0.0467231352827748
 50
307.8299051590415161
 51
332.4722313008514902
  0
ARC
  5
3195B
  8
0
 10
6726.6427208275063094
 20
154.0542703128458868
 30
0.0
 40
0.0412658622785049
 50
295.1232715934525004
 51
307.8299051590415161
  0
ARC
  5
3195C
  8
0
 10
6726.6265961479030011
 20
154.088656453287598
 30
0.0
 40
0.079244961092701
 50
280.2753448296504075
 51
295.1232715934525004
  0
ARC
  5
3195D
  8
0
 10
6726.6278158398090454
 20
154.0889087646552866
 30
0.0
 40
0.0792854363870859
 50
269.9808992875659897
 51
279.375506834842497
  0
ARC
  5
3195E
  8
0
 10
6726.6282907666645769
 20
154.0193683565844083
 30
0.0
 40
0.0402770249013154
 50
60.4866110308327194
 51
90.7132218575937657
  0
ARC
  5
3195F
  8
0
 10
6726.6381650884422925
 20
154.0368116491771957
 30
0.0
 40
0.0202328066061988
 50
34.6076341730715882
 51
60.4866110308327194
  0
ARC
  5
31960
  8
0
 10
6726.6437284834473758
 20
154.0406506724629025
 30
0.0
 40
0.0134734084263372
 50
320.6606037432777043
 51
34.6076341730715882
  0
ARC
  5
31961
  8
0
 10
6726.6352227689039864
 20
154.0476222911850073
 30
0.0
 40
0.0244711649009719
 50
289.8481799257023113
 51
320.6606037432777043
  0
ARC
  5
31962
  8
0
 10
6726.626767527289303
 20
154.071045808277205
 30
0.0
 40
0.0493740214388993
 50
271.1859203831583045
 51
289.8481799257023113
  0
LINE
  5
31963
  8
0
 10
6726.6896543133480009
 20
154.1264967964741004
 30
0.0
 11
6726.6835084716631172
 21
154.0481167371775086
 31
0.0
  0
ARC
  5
31964
  8
0
 10
6726.3018898940208601
 20
153.7732661079045897
 30
0.0
 40
0.0911201021540354
 50
88.8168720588193992
 51
120.3438859522290016
  0
ARC
  5
31965
  8
0
 10
6726.2801880024171624
 20
153.810339227227189
 30
0.0
 40
0.048162119479436
 50
120.3438859522290016
 51
142.6409015527264899
  0
ARC
  5
31966
  8
0
 10
6726.2675248165460289
 20
153.8200066476480004
 30
0.0
 40
0.032230537826929
 50
142.6409015527264899
 51
226.3259653020716087
  0
ARC
  5
31967
  8
0
 10
6726.3033105869199062
 20
153.7187548417367964
 30
0.0
 40
0.07934077095047
 50
89.6672641510954236
 51
115.1561577230656042
  0
ARC
  5
31968
  8
0
 10
6726.2887080457767297
 20
153.7498489835581097
 30
0.0
 40
0.0449884804392454
 50
115.1563886431813017
 51
138.1633309578110129
  0
ARC
  5
31969
  8
0
 10
6726.2760464402299476
 20
153.7611843552045912
 30
0.0
 40
0.0279941606418049
 50
138.1633309578110129
 51
181.5048097872195001
  0
ARC
  5
3196A
  8
0
 10
6726.2719007738087384
 20
153.7610754488547968
 30
0.0
 40
0.0238470639869637
 50
181.5048097872195001
 51
207.5277686991470887
  0
ARC
  5
3196B
  8
0
 10
6726.2921869750771293
 20
153.771648276106788
 30
0.0
 40
0.0467231352827748
 50
207.5277686991470887
 51
232.1700948409574892
  0
ARC
  5
3196C
  8
0
 10
6726.2888399237463091
 20
153.7673379308729977
 30
0.0
 40
0.0412658622785049
 50
232.1700948409585123
 51
244.8767284065474996
  0
ARC
  5
3196D
  8
0
 10
6726.3049646033477984
 20
153.8017240713147942
 30
0.0
 40
0.079244961092701
 50
244.8767284065474996
 51
259.7246551703494788
  0
ARC
  5
3196E
  8
0
 10
6726.3037449114417541
 20
153.8019763826825113
 30
0.0
 40
0.0792854363870778
 50
260.624493165157503
 51
270.0191007124340103
  0
ARC
  5
3196F
  8
0
 10
6726.3032699845880416
 20
153.7324359746114908
 30
0.0
 40
0.0402770249013154
 50
89.286778142406277
 51
119.5133889691672948
  0
ARC
  5
31970
  8
0
 10
6726.2933956628094165
 20
153.7498792672043919
 30
0.0
 40
0.0202328066061988
 50
119.5133889691672948
 51
145.3923658269283976
  0
ARC
  5
31971
  8
0
 10
6726.2878322678061522
 20
153.7537182904900135
 30
0.0
 40
0.0134734084263372
 50
145.3923658269283976
 51
219.3393962567222957
  0
ARC
  5
31972
  8
0
 10
6726.2963379823468131
 20
153.7606899092120898
 30
0.0
 40
0.0244711649009719
 50
219.3393962567222957
 51
250.1518200742976887
  0
ARC
  5
31973
  8
0
 10
6726.3047932239633155
 20
153.7841134263044012
 30
0.0
 40
0.0493740214388993
 50
250.1518200742976887
 51
268.8140796168418092
  0
LINE
  5
31974
  8
0
 10
6726.2419064379027986
 20
153.8395644145012113
 30
0.0
 11
6726.2480522795876823
 21
153.7611843552045912
 31
0.0
  0
ARC
  5
31975
  8
0
 10
6726.3056527916869527
 20
153.7732661079045897
 30
0.0
 40
0.0911201021540354
 50
59.6561140477709486
 51
91.1831279411805866
  0
ARC
  5
31976
  8
0
 10
6726.3273546832906504
 20
153.810339227227189
 30
0.0
 40
0.048162119479436
 50
37.3590984472734533
 51
59.6561140477709486
  0
ARC
  5
31977
  8
0
 10
6726.3400178691590554
 20
153.8200066476480004
 30
0.0
 40
0.032230537826929
 50
313.6740346979283913
 51
37.3590984472734533
  0
ARC
  5
31978
  8
0
 10
6726.3042320987869971
 20
153.7187548417367964
 30
0.0
 40
0.079340770950467
 50
64.8438422769336853
 51
90.3327358489045906
  0
ARC
  5
31979
  8
0
 10
6726.3188346399292641
 20
153.7498489835581097
 30
0.0
 40
0.0449884804392454
 50
41.8366690421890013
 51
64.8436113568186698
  0
ARC
  5
3197A
  8
0
 10
6726.3314962454751367
 20
153.7611843552045912
 30
0.0
 40
0.0279941606418049
 50
358.4951902127805852
 51
41.8366690421890013
  0
ARC
  5
3197B
  8
0
 10
6726.3356419118963458
 20
153.7610754488547968
 30
0.0
 40
0.0238470639869637
 50
332.4722313008514902
 51
358.4951902127805852
  0
ARC
  5
3197C
  8
0
 10
6726.3153557106288645
 20
153.771648276106788
 30
0.0
 40
0.0467231352827748
 50
307.8299051590415161
 51
332.4722313008514902
  0
ARC
  5
3197D
  8
0
 10
6726.3187027619605942
 20
153.7673379308729977
 30
0.0
 40
0.0412658622785049
 50
295.1232715934525004
 51
307.8299051590415161
  0
ARC
  5
3197E
  8
0
 10
6726.3025780823600144
 20
153.8017240713147942
 30
0.0
 40
0.079244961092701
 50
280.2753448296504075
 51
295.1232715934525004
  0
ARC
  5
3197F
  8
0
 10
6726.3037977742642397
 20
153.8019763826825113
 30
0.0
 40
0.0792854363870859
 50
269.9808992875659897
 51
279.375506834842497
  0
ARC
  5
31980
  8
0
 10
6726.3042727011197712
 20
153.7324359746114908
 30
0.0
 40
0.0402770249013154
 50
60.4866110308327194
 51
90.7132218575937657
  0
ARC
  5
31981
  8
0
 10
6726.3141470228965773
 20
153.7498792672043919
 30
0.0
 40
0.0202328066061988
 50
34.6076341730715882
 51
60.4866110308327194
  0
ARC
  5
31982
  8
0
 10
6726.3197104179007511
 20
153.7537182904900135
 30
0.0
 40
0.0134734084263372
 50
320.6606037432777043
 51
34.6076341730715882
  0
ARC
  5
31983
  8
0
 10
6726.3112047033591807
 20
153.7606899092120898
 30
0.0
 40
0.0244711649009719
 50
289.8481799257023113
 51
320.6606037432777043
  0
ARC
  5
31984
  8
0
 10
6726.3027494617426782
 20
153.7841134263044012
 30
0.0
 40
0.0493740214388993
 50
271.1859203831583045
 51
289.8481799257023113
  0
LINE
  5
31985
  8
0
 10
6726.3656362478031951
 20
153.8395644145012113
 30
0.0
 11
6726.359490406117402
 21
153.7611843552045912
 31
0.0
  0
ARC
  5
31986
  8
0
 10
6727.0871531310358478
 20
153.9091800140465125
 30
0.0
 40
0.0911201021540354
 50
88.8168720588193992
 51
120.3438859522290016
  0
ARC
  5
31987
  8
0
 10
6727.06545123943215
 20
153.9462531333689981
 30
0.0
 40
0.048162119479436
 50
120.3438859522290016
 51
142.6409015527264899
  0
ARC
  5
31988
  8
0
 10
6727.0527880535619261
 20
153.9559205537898094
 30
0.0
 40
0.032230537826929
 50
142.6409015527264899
 51
226.3259653020716087
  0
ARC
  5
31989
  8
0
 10
6727.0885738239358034
 20
153.8546687478786055
 30
0.0
 40
0.07934077095047
 50
89.6672641510954236
 51
115.1561577230656042
  0
ARC
  5
3198A
  8
0
 10
6727.0739712827926269
 20
153.8857628897000041
 30
0.0
 40
0.0449884804392454
 50
115.1563886431813017
 51
138.1633309578110129
  0
ARC
  5
3198B
  8
0
 10
6727.0613096772458448
 20
153.8970982613465139
 30
0.0
 40
0.0279941606418049
 50
138.1633309578110129
 51
181.5048097872195001
  0
ARC
  5
3198C
  8
0
 10
6727.0571640108273641
 20
153.8969893549966059
 30
0.0
 40
0.0238470639869637
 50
181.5048097872195001
 51
207.5277686991470887
  0
ARC
  5
3198D
  8
0
 10
6727.077450212092117
 20
153.9075621822485971
 30
0.0
 40
0.0467231352827748
 50
207.5277686991470887
 51
232.1700948409574892
  0
ARC
  5
3198E
  8
0
 10
6727.0741031607631157
 20
153.9032518370148921
 30
0.0
 40
0.0412658622785049
 50
232.1700948409585123
 51
244.8767284065474996
  0
ARC
  5
3198F
  8
0
 10
6727.0902278403627861
 20
153.9376379774566033
 30
0.0
 40
0.079244961092701
 50
244.8767284065474996
 51
259.7246551703494788
  0
ARC
  5
31990
  8
0
 10
6727.0890081484576513
 20
153.9378902888242919
 30
0.0
 40
0.0792854363870778
 50
260.624493165157503
 51
270.0191007124340103
  0
ARC
  5
31991
  8
0
 10
6727.0885332216030292
 20
153.8683498807534136
 30
0.0
 40
0.0402770249013154
 50
89.286778142406277
 51
119.5133889691672948
  0
ARC
  5
31992
  8
0
 10
6727.0786588998253137
 20
153.885793173346201
 30
0.0
 40
0.0202328066061988
 50
119.5133889691672948
 51
145.3923658269283976
  0
ARC
  5
31993
  8
0
 10
6727.0730955048220494
 20
153.8896321966319078
 30
0.0
 40
0.0134734084263372
 50
145.3923658269283976
 51
219.3393962567222957
  0
ARC
  5
31994
  8
0
 10
6727.0816012193636197
 20
153.8966038153538989
 30
0.0
 40
0.0244711649009719
 50
219.3393962567222957
 51
250.1518200742976887
  0
ARC
  5
31995
  8
0
 10
6727.0900564609792127
 20
153.9200273324462103
 30
0.0
 40
0.0493740214388993
 50
250.1518200742976887
 51
268.8140796168418092
  0
LINE
  5
31996
  8
0
 10
6727.0271696749186958
 20
153.9754783206431057
 30
0.0
 11
6727.0333155166035795
 21
153.8970982613465139
 31
0.0
  0
ARC
  5
31997
  8
0
 10
6727.0909160287037594
 20
153.9091800140465125
 30
0.0
 40
0.0911201021540354
 50
59.6561140477709486
 51
91.1831279411805866
  0
ARC
  5
31998
  8
0
 10
6727.1126179203056381
 20
153.9462531333689981
 30
0.0
 40
0.048162119479436
 50
37.3590984472734533
 51
59.6561140477709486
  0
ARC
  5
31999
  8
0
 10
6727.1252811061749526
 20
153.9559205537898094
 30
0.0
 40
0.032230537826929
 50
313.6740346979283913
 51
37.3590984472734533
  0
ARC
  5
3199A
  8
0
 10
6727.0894953358019848
 20
153.8546687478786055
 30
0.0
 40
0.079340770950467
 50
64.8438422769336853
 51
90.3327358489045906
  0
ARC
  5
3199B
  8
0
 10
6727.1040978769460708
 20
153.8857628897000041
 30
0.0
 40
0.0449884804392454
 50
41.8366690421890013
 51
64.8436113568186698
  0
ARC
  5
3199C
  8
0
 10
6727.1167594824910339
 20
153.8970982613465139
 30
0.0
 40
0.0279941606418049
 50
358.4951902127805852
 51
41.8366690421890013
  0
ARC
  5
3199D
  8
0
 10
6727.120905148914062
 20
153.8969893549966059
 30
0.0
 40
0.0238470639869637
 50
332.4722313008514902
 51
358.4951902127805852
  0
ARC
  5
3199E
  8
0
 10
6727.1006189476456711
 20
153.9075621822485971
 30
0.0
 40
0.0467231352827748
 50
307.8299051590415161
 51
332.4722313008514902
  0
ARC
  5
3199F
  8
0
 10
6727.1039659989774009
 20
153.9032518370148921
 30
0.0
 40
0.0412658622785049
 50
295.1232715934525004
 51
307.8299051590415161
  0
ARC
  5
319A0
  8
0
 10
6727.0878413193750021
 20
153.9376379774566033
 30
0.0
 40
0.079244961092701
 50
280.2753448296504075
 51
295.1232715934525004
  0
ARC
  5
319A1
  8
0
 10
6727.0890610112801369
 20
153.9378902888242919
 30
0.0
 40
0.0792854363870859
 50
269.9808992875659897
 51
279.375506834842497
  0
ARC
  5
319A2
  8
0
 10
6727.0895359381338494
 20
153.8683498807534136
 30
0.0
 40
0.0402770249013154
 50
60.4866110308327194
 51
90.7132218575937657
  0
ARC
  5
319A3
  8
0
 10
6727.0994102599133839
 20
153.885793173346201
 30
0.0
 40
0.0202328066061988
 50
34.6076341730715882
 51
60.4866110308327194
  0
ARC
  5
319A4
  8
0
 10
6727.1049736549166482
 20
153.8896321966319078
 30
0.0
 40
0.0134734084263372
 50
320.6606037432777043
 51
34.6076341730715882
  0
ARC
  5
319A5
  8
0
 10
6727.0964679403741684
 20
153.8966038153538989
 30
0.0
 40
0.0244711649009719
 50
289.8481799257023113
 51
320.6606037432777043
  0
ARC
  5
319A6
  8
0
 10
6727.0880126987585754
 20
153.9200273324462103
 30
0.0
 40
0.0493740214388993
 50
271.1859203831583045
 51
289.8481799257023113
  0
LINE
  5
319A7
  8
0
 10
6727.1508994848190923
 20
153.9754783206431057
 30
0.0
 11
6727.1447536431342087
 21
153.8970982613465139
 31
0.0
  0
ARC
  5
319A8
  8
0
 10
6726.9159565345225928
 20
153.5725111622417955
 30
0.0
 40
0.0911201021540354
 50
88.8168720588193992
 51
120.3438859522290016
  0
ARC
  5
319A9
  8
0
 10
6726.8942546429179856
 20
153.6095842815643095
 30
0.0
 40
0.048162119479436
 50
120.3438859522290016
 51
142.6409015527264899
  0
ARC
  5
319AA
  8
0
 10
6726.8815914570495806
 20
153.6192517019850925
 30
0.0
 40
0.032230537826929
 50
142.6409015527264899
 51
226.3259653020716087
  0
ARC
  5
319AB
  8
0
 10
6726.917377227421639
 20
153.5179998960738885
 30
0.0
 40
0.07934077095047
 50
89.6672641510954236
 51
115.1561577230656042
  0
ARC
  5
319AC
  8
0
 10
6726.9027746862802815
 20
153.5490940378952018
 30
0.0
 40
0.0449884804392454
 50
115.1563886431813017
 51
138.1633309578110129
  0
ARC
  5
319AD
  8
0
 10
6726.8901130807344089
 20
153.560429409541797
 30
0.0
 40
0.0279941606418049
 50
138.1633309578110129
 51
181.5048097872195001
  0
ARC
  5
319AE
  8
0
 10
6726.8859674143131997
 20
153.560320503191889
 30
0.0
 40
0.0238470639869637
 50
181.5048097872195001
 51
207.5277686991470887
  0
ARC
  5
319AF
  8
0
 10
6726.9062536155797716
 20
153.5708933304439086
 30
0.0
 40
0.0467231352827748
 50
207.5277686991470887
 51
232.1700948409574892
  0
ARC
  5
319B0
  8
0
 10
6726.9029065642480418
 20
153.5665829852100899
 30
0.0
 40
0.0412658622785049
 50
232.1700948409585123
 51
244.8767284065474996
  0
ARC
  5
319B1
  8
0
 10
6726.9190312438513502
 20
153.6009691256518863
 30
0.0
 40
0.079244961092701
 50
244.8767284065474996
 51
259.7246551703494788
  0
ARC
  5
319B2
  8
0
 10
6726.9178115519453058
 20
153.6012214370194897
 30
0.0
 40
0.0792854363870778
 50
260.624493165157503
 51
270.0191007124340103
  0
ARC
  5
319B3
  8
0
 10
6726.9173366250906838
 20
153.5316810289486114
 30
0.0
 40
0.0402770249013154
 50
89.286778142406277
 51
119.5133889691672948
  0
ARC
  5
319B4
  8
0
 10
6726.9074623033120588
 20
153.5491243215415125
 30
0.0
 40
0.0202328066061988
 50
119.5133889691672948
 51
145.3923658269283976
  0
ARC
  5
319B5
  8
0
 10
6726.9018989083087945
 20
153.5529633448271909
 30
0.0
 40
0.0134734084263372
 50
145.3923658269283976
 51
219.3393962567222957
  0
ARC
  5
319B6
  8
0
 10
6726.9104046228503648
 20
153.5599349635492104
 30
0.0
 40
0.0244711649009719
 50
219.3393962567222957
 51
250.1518200742976887
  0
ARC
  5
319B7
  8
0
 10
6726.9188598644659578
 20
153.5833584806414933
 30
0.0
 40
0.0493740214388993
 50
250.1518200742976887
 51
268.8140796168418092
  0
LINE
  5
319B8
  8
0
 10
6726.8559730784063504
 20
153.6388094688383035
 30
0.0
 11
6726.862118920093053
 21
153.560429409541797
 31
0.0
  0
ARC
  5
319B9
  8
0
 10
6726.9197194321886855
 20
153.5725111622417955
 30
0.0
 40
0.0911201021540354
 50
59.6561140477709486
 51
91.1831279411805866
  0
ARC
  5
319BA
  8
0
 10
6726.9414213237932927
 20
153.6095842815643095
 30
0.0
 40
0.048162119479436
 50
37.3590984472734533
 51
59.6561140477709486
  0
ARC
  5
319BB
  8
0
 10
6726.9540845096626072
 20
153.6192517019850925
 30
0.0
 40
0.032230537826929
 50
313.6740346979283913
 51
37.3590984472734533
  0
ARC
  5
319BC
  8
0
 10
6726.9182987392887298
 20
153.5179998960738885
 30
0.0
 40
0.079340770950467
 50
64.8438422769336853
 51
90.3327358489045906
  0
ARC
  5
319BD
  8
0
 10
6726.9329012804328158
 20
153.5490940378952018
 30
0.0
 40
0.0449884804392454
 50
41.8366690421890013
 51
64.8436113568186698
  0
ARC
  5
319BE
  8
0
 10
6726.9455628859786884
 20
153.560429409541797
 30
0.0
 40
0.0279941606418049
 50
358.4951902127805852
 51
41.8366690421890013
  0
ARC
  5
319BF
  8
0
 10
6726.9497085523998976
 20
153.560320503191889
 30
0.0
 40
0.0238470639869637
 50
332.4722313008514902
 51
358.4951902127805852
  0
ARC
  5
319C0
  8
0
 10
6726.9294223511333257
 20
153.5708933304439086
 30
0.0
 40
0.0467231352827748
 50
307.8299051590415161
 51
332.4722313008514902
  0
ARC
  5
319C1
  8
0
 10
6726.932769402464146
 20
153.5665829852100899
 30
0.0
 40
0.0412658622785049
 50
295.1232715934525004
 51
307.8299051590415161
  0
ARC
  5
319C2
  8
0
 10
6726.9166447228608376
 20
153.6009691256518863
 30
0.0
 40
0.079244961092701
 50
280.2753448296504075
 51
295.1232715934525004
  0
ARC
  5
319C3
  8
0
 10
6726.917864414766882
 20
153.6012214370194897
 30
0.0
 40
0.0792854363870859
 50
269.9808992875659897
 51
279.375506834842497
  0
ARC
  5
319C4
  8
0
 10
6726.9183393416205945
 20
153.5316810289486114
 30
0.0
 40
0.0402770249013154
 50
60.4866110308327194
 51
90.7132218575937657
  0
ARC
  5
319C5
  8
0
 10
6726.928213663400129
 20
153.5491243215415125
 30
0.0
 40
0.0202328066061988
 50
34.6076341730715882
 51
60.4866110308327194
  0
ARC
  5
319C6
  8
0
 10
6726.9337770584033933
 20
153.5529633448271909
 30
0.0
 40
0.0134734084263372
 50
320.6606037432777043
 51
34.6076341730715882
  0
ARC
  5
319C7
  8
0
 10
6726.925271343861823
 20
153.5599349635492104
 30
0.0
 40
0.0244711649009719
 50
289.8481799257023113
 51
320.6606037432777043
  0
ARC
  5
319C8
  8
0
 10
6726.91681610224623
 20
153.5833584806414933
 30
0.0
 40
0.0493740214388993
 50
271.1859203831583045
 51
289.8481799257023113
  0
LINE
  5
319C9
  8
0
 10
6726.9797028883058374
 20
153.6388094688383035
 30
0.0
 11
6726.9735570466209538
 21
153.560429409541797
 31
0.0
  0
ARC
  5
319CA
  8
0
 10
6728.2824754127232154
 20
156.2681066745059866
 30
0.0
 40
0.0911201021540354
 50
59.6561140477709486
 51
91.1831279411805866
  0
ARC
  5
319CB
  8
0
 10
6728.3041773043269131
 20
156.3051797938285858
 30
0.0
 40
0.048162119479436
 50
37.3590984472734533
 51
59.6561140477709486
  0
ARC
  5
319CC
  8
0
 10
6728.3168404901962276
 20
156.3148472142493972
 30
0.0
 40
0.032230537826929
 50
313.6740346979283913
 51
37.3590984472734533
  0
ARC
  5
319CD
  8
0
 10
6728.2810547198241693
 20
156.2135954083381932
 30
0.0
 40
0.07934077095047
 50
64.8438422769343532
 51
90.3327358489045906
  0
ARC
  5
319CE
  8
0
 10
6728.2956572609664363
 20
156.2446895501595066
 30
0.0
 40
0.0449884804392454
 50
41.8366690421890013
 51
64.8436113568186698
  0
ARC
  5
319CF
  8
0
 10
6728.3083188665132184
 20
156.256024921805988
 30
0.0
 40
0.0279941606418049
 50
358.4951902127805852
 51
41.8366690421890013
  0
ARC
  5
319D0
  8
0
 10
6728.3124645329326086
 20
156.2559160154561937
 30
0.0
 40
0.0238470639869637
 50
332.4722313008514902
 51
358.4951902127805852
  0
ARC
  5
319D1
  8
0
 10
6728.2921783316669462
 20
156.2664888427082133
 30
0.0
 40
0.0467231352827748
 50
307.8299051590415161
 51
332.4722313008514902
  0
ARC
  5
319D2
  8
0
 10
6728.2955253829959474
 20
156.2621784974743946
 30
0.0
 40
0.0412658622785049
 50
295.1232715934525004
 51
307.8299051590415161
  0
ARC
  5
319D3
  8
0
 10
6728.2794007033962771
 20
156.296564637916191
 30
0.0
 40
0.079244961092701
 50
280.2753448296504075
 51
295.1232715934525004
  0
ARC
  5
319D4
  8
0
 10
6728.2806203952995929
 20
156.2968169492837944
 30
0.0
 40
0.0792854363870778
 50
269.9808992875659897
 51
279.375506834842497
  0
ARC
  5
319D5
  8
0
 10
6728.2810953221560339
 20
156.2272765412128877
 30
0.0
 40
0.0402770249013154
 50
60.4866110308327194
 51
90.7132218575937657
  0
ARC
  5
319D6
  8
0
 10
6728.29096964393284
 20
156.2447198338057888
 30
0.0
 40
0.0202328066061988
 50
34.6076341730715882
 51
60.4866110308327194
  0
ARC
  5
319D7
  8
0
 10
6728.2965330389370138
 20
156.2485588570914956
 30
0.0
 40
0.0134734084263372
 50
320.6606037432777043
 51
34.6076341730715882
  0
ARC
  5
319D8
  8
0
 10
6728.2880273243963529
 20
156.2555304758134866
 30
0.0
 40
0.0244711649009719
 50
289.8481799257023113
 51
320.6606037432777043
  0
ARC
  5
319D9
  8
0
 10
6728.2795720827798505
 20
156.278953992905798
 30
0.0
 40
0.0493740214388993
 50
271.1859203831583045
 51
289.8481799257023113
  0
LINE
  5
319DA
  8
0
 10
6728.3424588688385484
 20
156.3344049811026082
 30
0.0
 11
6728.3363130271545742
 21
156.256024921805988
 31
0.0
  0
ARC
  5
319DB
  8
0
 10
6728.2787125150562133
 20
156.2681066745059866
 30
0.0
 40
0.0911201021540354
 50
88.8168720588193992
 51
120.3438859522290016
  0
ARC
  5
319DC
  8
0
 10
6728.2570106234534251
 20
156.3051797938285858
 30
0.0
 40
0.048162119479436
 50
120.3438859522290016
 51
142.6409015527264899
  0
ARC
  5
319DD
  8
0
 10
6728.2443474375841106
 20
156.3148472142493972
 30
0.0
 40
0.032230537826929
 50
142.6409015527264899
 51
226.3259653020716087
  0
ARC
  5
319DE
  8
0
 10
6728.2801332079561689
 20
156.2135954083381932
 30
0.0
 40
0.079340770950467
 50
89.6672641510954236
 51
115.1561577230663005
  0
ARC
  5
319DF
  8
0
 10
6728.2655306668139019
 20
156.2446895501595066
 30
0.0
 40
0.0449884804392454
 50
115.1563886431813017
 51
138.1633309578110129
  0
ARC
  5
319E0
  8
0
 10
6728.2528690612680293
 20
156.256024921805988
 30
0.0
 40
0.0279941606418049
 50
138.1633309578110129
 51
181.5048097872195001
  0
ARC
  5
319E1
  8
0
 10
6728.2487233948468202
 20
156.2559160154561937
 30
0.0
 40
0.0238470639869637
 50
181.5048097872195001
 51
207.527768699148595
  0
ARC
  5
319E2
  8
0
 10
6728.269009596113392
 20
156.2664888427082133
 30
0.0
 40
0.0467231352827748
 50
207.527768699148595
 51
232.1700948409574892
  0
ARC
  5
319E3
  8
0
 10
6728.2656625447816623
 20
156.2621784974743946
 30
0.0
 40
0.0412658622785049
 50
232.1700948409585123
 51
244.8767284065474996
  0
ARC
  5
319E4
  8
0
 10
6728.2817872243840611
 20
156.296564637916191
 30
0.0
 40
0.079244961092701
 50
244.8767284065474996
 51
259.7246551703494788
  0
ARC
  5
319E5
  8
0
 10
6728.2805675324789263
 20
156.2968169492837944
 30
0.0
 40
0.0792854363870859
 50
260.624493165157503
 51
270.0191007124340103
  0
ARC
  5
319E6
  8
0
 10
6728.2800926056243043
 20
156.2272765412128877
 30
0.0
 40
0.0402770249013154
 50
89.286778142406277
 51
119.5133889691672948
  0
ARC
  5
319E7
  8
0
 10
6728.2702182838456793
 20
156.2447198338057888
 30
0.0
 40
0.0202328066061988
 50
119.5133889691672948
 51
145.3923658269283976
  0
ARC
  5
319E8
  8
0
 10
6728.2646548888424149
 20
156.2485588570914956
 30
0.0
 40
0.0134734084263372
 50
145.3923658269283976
 51
219.3393962567222957
  0
ARC
  5
319E9
  8
0
 10
6728.2731606033830758
 20
156.2555304758134866
 30
0.0
 40
0.0244711649009719
 50
219.3393962567222957
 51
250.1518200742976887
  0
ARC
  5
319EA
  8
0
 10
6728.2816158449995783
 20
156.278953992905798
 30
0.0
 40
0.0493740214388993
 50
250.1518200742976887
 51
268.8140796168418092
  0
LINE
  5
319EB
  8
0
 10
6728.2187290589408803
 20
156.3344049811026082
 30
0.0
 11
6728.224874900623945
 21
156.256024921805988
 31
0.0
  0
ARC
  5
319EC
  8
0
 10
6728.1121803817668479
 20
155.9308847531264917
 30
0.0
 40
0.0911201021540354
 50
59.6561140477709486
 51
91.1831279411805866
  0
ARC
  5
319ED
  8
0
 10
6728.1338822733696361
 20
155.9679578724490057
 30
0.0
 40
0.048162119479436
 50
37.3590984472734533
 51
59.6561140477709486
  0
ARC
  5
319EE
  8
0
 10
6728.1465454592389506
 20
155.9776252928699023
 30
0.0
 40
0.032230537826929
 50
313.6740346979283913
 51
37.3590984472734533
  0
ARC
  5
319EF
  8
0
 10
6728.1107596888668922
 20
155.8763734869586983
 30
0.0
 40
0.07934077095047
 50
64.8438422769343532
 51
90.3327358489045906
  0
ARC
  5
319F0
  8
0
 10
6728.1253622300091592
 20
155.9074676287800116
 30
0.0
 40
0.0449884804392454
 50
41.8366690421890013
 51
64.8436113568186698
  0
ARC
  5
319F1
  8
0
 10
6728.1380238355568508
 20
155.9188030004264931
 30
0.0
 40
0.0279941606418049
 50
358.4951902127805852
 51
41.8366690421890013
  0
ARC
  5
319F2
  8
0
 10
6728.1421695019771505
 20
155.9186940940766988
 30
0.0
 40
0.0238470639869637
 50
332.4722313008514902
 51
358.4951902127805852
  0
ARC
  5
319F3
  8
0
 10
6728.1218833007096691
 20
155.9292669213286899
 30
0.0
 40
0.0467231352827748
 50
307.8299051590415161
 51
332.4722313008514902
  0
ARC
  5
319F4
  8
0
 10
6728.1252303520395799
 20
155.9249565760948997
 30
0.0
 40
0.0412658622785049
 50
295.1232715934525004
 51
307.8299051590415161
  0
ARC
  5
319F5
  8
0
 10
6728.109105672439
 20
155.9593427165366961
 30
0.0
 40
0.079244961092701
 50
280.2753448296504075
 51
295.1232715934525004
  0
ARC
  5
319F6
  8
0
 10
6728.1103253643441349
 20
155.9595950279042995
 30
0.0
 40
0.0792854363870778
 50
269.9808992875659897
 51
279.375506834842497
  0
ARC
  5
319F7
  8
0
 10
6728.1108002911987569
 20
155.8900546198333927
 30
0.0
 40
0.0402770249013154
 50
60.4866110308327194
 51
90.7132218575937657
  0
ARC
  5
319F8
  8
0
 10
6728.1206746129773819
 20
155.9074979124262086
 30
0.0
 40
0.0202328066061988
 50
34.6076341730715882
 51
60.4866110308327194
  0
ARC
  5
319F9
  8
0
 10
6728.1262380079797367
 20
155.911336935711887
 30
0.0
 40
0.0134734084263372
 50
320.6606037432777043
 51
34.6076341730715882
  0
ARC
  5
319FA
  8
0
 10
6728.1177322934399854
 20
155.9183085544339917
 30
0.0
 40
0.0244711649009719
 50
289.8481799257023113
 51
320.6606037432777043
  0
ARC
  5
319FB
  8
0
 10
6728.1092770518243924
 20
155.9417320715263031
 30
0.0
 40
0.0493740214388993
 50
271.1859203831583045
 51
289.8481799257023113
  0
LINE
  5
319FC
  8
0
 10
6728.1721638378821808
 20
155.9971830597231133
 30
0.0
 11
6728.1660179961991162
 21
155.9188030004264931
 31
0.0
  0
ARC
  5
319FD
  8
0
 10
6728.1084174840998458
 20
155.9308847531264917
 30
0.0
 40
0.0911201021540354
 50
88.8168720588193992
 51
120.3438859522290016
  0
ARC
  5
319FE
  8
0
 10
6728.086715592496148
 20
155.9679578724490057
 30
0.0
 40
0.048162119479436
 50
120.3438859522290016
 51
142.6409015527264899
  0
ARC
  5
319FF
  8
0
 10
6728.0740524066268335
 20
155.9776252928699023
 30
0.0
 40
0.032230537826929
 50
142.6409015527264899
 51
226.3259653020716087
  0
ARC
  5
31A00
  8
0
 10
6728.1098381769988919
 20
155.8763734869586983
 30
0.0
 40
0.079340770950467
 50
89.6672641510954236
 51
115.1561577230663005
  0
ARC
  5
31A01
  8
0
 10
6728.0952356358566249
 20
155.9074676287800116
 30
0.0
 40
0.0449884804392454
 50
115.1563886431813017
 51
138.1633309578110129
  0
ARC
  5
31A02
  8
0
 10
6728.0825740303107523
 20
155.9188030004264931
 30
0.0
 40
0.0279941606418049
 50
138.1633309578110129
 51
181.5048097872195001
  0
ARC
  5
31A03
  8
0
 10
6728.0784283638904526
 20
155.9186940940766988
 30
0.0
 40
0.0238470639869637
 50
181.5048097872195001
 51
207.527768699148595
  0
ARC
  5
31A04
  8
0
 10
6728.098714565156115
 20
155.9292669213286899
 30
0.0
 40
0.0467231352827748
 50
207.527768699148595
 51
232.1700948409574892
  0
ARC
  5
31A05
  8
0
 10
6728.0953675138271137
 20
155.9249565760948997
 30
0.0
 40
0.0412658622785049
 50
232.1700948409585123
 51
244.8767284065474996
  0
ARC
  5
31A06
  8
0
 10
6728.1114921934267841
 20
155.9593427165366961
 30
0.0
 40
0.079244961092701
 50
244.8767284065474996
 51
259.7246551703494788
  0
ARC
  5
31A07
  8
0
 10
6728.1102725015225587
 20
155.9595950279042995
 30
0.0
 40
0.0792854363870859
 50
260.624493165157503
 51
270.0191007124340103
  0
ARC
  5
31A08
  8
0
 10
6728.1097975746670272
 20
155.8900546198333927
 30
0.0
 40
0.0402770249013154
 50
89.286778142406277
 51
119.5133889691672948
  0
ARC
  5
31A09
  8
0
 10
6728.0999232528902212
 20
155.9074979124262086
 30
0.0
 40
0.0202328066061988
 50
119.5133889691672948
 51
145.3923658269283976
  0
ARC
  5
31A0A
  8
0
 10
6728.0943598578860474
 20
155.911336935711887
 30
0.0
 40
0.0134734084263372
 50
145.3923658269283976
 51
219.3393962567222957
  0
ARC
  5
31A0B
  8
0
 10
6728.1028655724267082
 20
155.9183085544339917
 30
0.0
 40
0.0244711649009719
 50
219.3393962567222957
 51
250.1518200742976887
  0
ARC
  5
31A0C
  8
0
 10
6728.1113208140432107
 20
155.9417320715263031
 30
0.0
 40
0.0493740214388993
 50
250.1518200742976887
 51
268.8140796168418092
  0
LINE
  5
31A0D
  8
0
 10
6728.0484340279836033
 20
155.9971830597231133
 30
0.0
 11
6728.0545798696693964
 21
155.9188030004264931
 31
0.0
  0
ARC
  5
31A0E
  8
0
 10
6727.9416773437351367
 20
155.5941156181775114
 30
0.0
 40
0.0911201021540354
 50
59.6561140477709486
 51
91.1831279411805866
  0
ARC
  5
31A0F
  8
0
 10
6727.9633792353370154
 20
155.6311887374999969
 30
0.0
 40
0.048162119479436
 50
37.3590984472734533
 51
59.6561140477709486
  0
ARC
  5
31A10
  8
0
 10
6727.9760424212072394
 20
155.6408561579208936
 30
0.0
 40
0.032230537826929
 50
313.6740346979283913
 51
37.3590984472734533
  0
ARC
  5
31A11
  8
0
 10
6727.9402566508342716
 20
155.5396043520096896
 30
0.0
 40
0.07934077095047
 50
64.8438422769343532
 51
90.3327358489045906
  0
ARC
  5
31A12
  8
0
 10
6727.9548591919756291
 20
155.5706984938310029
 30
0.0
 40
0.0449884804392454
 50
41.8366690421890013
 51
64.8436113568186698
  0
ARC
  5
31A13
  8
0
 10
6727.9675207975233207
 20
155.5820338654775128
 30
0.0
 40
0.0279941606418049
 50
358.4951902127805852
 51
41.8366690421890013
  0
ARC
  5
31A14
  8
0
 10
6727.9716664639427108
 20
155.58192495912769
 30
0.0
 40
0.0238470639869637
 50
332.4722313008514902
 51
358.4951902127805852
  0
ARC
  5
31A15
  8
0
 10
6727.9513802626770484
 20
155.5924977863797096
 30
0.0
 40
0.0467231352827748
 50
307.8299051590415161
 51
332.4722313008514902
  0
ARC
  5
31A16
  8
0
 10
6727.9547273140060497
 20
155.5881874411458909
 30
0.0
 40
0.0412658622785049
 50
295.1232715934525004
 51
307.8299051590415161
  0
ARC
  5
31A17
  8
0
 10
6727.9386026344063794
 20
155.6225735815876021
 30
0.0
 40
0.079244961092701
 50
280.2753448296504075
 51
295.1232715934525004
  0
ARC
  5
31A18
  8
0
 10
6727.9398223263096952
 20
155.6228258929552908
 30
0.0
 40
0.0792854363870778
 50
269.9808992875659897
 51
279.375506834842497
  0
ARC
  5
31A19
  8
0
 10
6727.9402972531661362
 20
155.5532854848844124
 30
0.0
 40
0.0402770249013154
 50
60.4866110308327194
 51
90.7132218575937657
  0
ARC
  5
31A1A
  8
0
 10
6727.9501715749429422
 20
155.5707287774771999
 30
0.0
 40
0.0202328066061988
 50
34.6076341730715882
 51
60.4866110308327194
  0
ARC
  5
31A1B
  8
0
 10
6727.955734969948935
 20
155.5745678007629067
 30
0.0
 40
0.0134734084263372
 50
320.6606037432777043
 51
34.6076341730715882
  0
ARC
  5
31A1C
  8
0
 10
6727.9472292554055457
 20
155.5815394194850114
 30
0.0
 40
0.0244711649009719
 50
289.8481799257023113
 51
320.6606037432777043
  0
ARC
  5
31A1D
  8
0
 10
6727.9387740137899527
 20
155.6049629365772091
 30
0.0
 40
0.0493740214388993
 50
271.1859203831583045
 51
289.8481799257023113
  0
LINE
  5
31A1E
  8
0
 10
6728.0016607998513791
 20
155.6604139247741045
 30
0.0
 11
6727.9955149581646765
 21
155.5820338654775128
 31
0.0
  0
ARC
  5
31A1F
  8
0
 10
6727.9379144460663156
 20
155.5941156181775114
 30
0.0
 40
0.0911201021540354
 50
88.8168720588193992
 51
120.3438859522290016
  0
ARC
  5
31A20
  8
0
 10
6727.9162125544626178
 20
155.6311887374999969
 30
0.0
 40
0.048162119479436
 50
120.3438859522290016
 51
142.6409015527264899
  0
ARC
  5
31A21
  8
0
 10
6727.9035493685942129
 20
155.6408561579208936
 30
0.0
 40
0.032230537826929
 50
142.6409015527264899
 51
226.3259653020716087
  0
ARC
  5
31A22
  8
0
 10
6727.9393351389662712
 20
155.5396043520096896
 30
0.0
 40
0.079340770950467
 50
89.6672641510954236
 51
115.1561577230663005
  0
ARC
  5
31A23
  8
0
 10
6727.9247325978240042
 20
155.5706984938310029
 30
0.0
 40
0.0449884804392454
 50
115.1563886431813017
 51
138.1633309578110129
  0
ARC
  5
31A24
  8
0
 10
6727.9120709922781316
 20
155.5820338654775128
 30
0.0
 40
0.0279941606418049
 50
138.1633309578110129
 51
181.5048097872195001
  0
ARC
  5
31A25
  8
0
 10
6727.9079253258569224
 20
155.58192495912769
 30
0.0
 40
0.0238470639869637
 50
181.5048097872195001
 51
207.527768699148595
  0
ARC
  5
31A26
  8
0
 10
6727.9282115271225848
 20
155.5924977863797096
 30
0.0
 40
0.0467231352827748
 50
207.527768699148595
 51
232.1700948409574892
  0
ARC
  5
31A27
  8
0
 10
6727.9248644757917646
 20
155.5881874411458909
 30
0.0
 40
0.0412658622785049
 50
232.1700948409585123
 51
244.8767284065474996
  0
ARC
  5
31A28
  8
0
 10
6727.9409891553941634
 20
155.6225735815876021
 30
0.0
 40
0.079244961092701
 50
244.8767284065474996
 51
259.7246551703494788
  0
ARC
  5
31A29
  8
0
 10
6727.9397694634890286
 20
155.6228258929552908
 30
0.0
 40
0.0792854363870859
 50
260.624493165157503
 51
270.0191007124340103
  0
ARC
  5
31A2A
  8
0
 10
6727.9392945366344065
 20
155.5532854848844124
 30
0.0
 40
0.0402770249013154
 50
89.286778142406277
 51
119.5133889691672948
  0
ARC
  5
31A2B
  8
0
 10
6727.9294202148557815
 20
155.5707287774771999
 30
0.0
 40
0.0202328066061988
 50
119.5133889691672948
 51
145.3923658269283976
  0
ARC
  5
31A2C
  8
0
 10
6727.9238568198516077
 20
155.5745678007629067
 30
0.0
 40
0.0134734084263372
 50
145.3923658269283976
 51
219.3393962567222957
  0
ARC
  5
31A2D
  8
0
 10
6727.9323625343949971
 20
155.5815394194850114
 30
0.0
 40
0.0244711649009719
 50
219.3393962567222957
 51
250.1518200742976887
  0
ARC
  5
31A2E
  8
0
 10
6727.9408177760096805
 20
155.6049629365772091
 30
0.0
 40
0.0493740214388993
 50
250.1518200742976887
 51
268.8140796168418092
  0
LINE
  5
31A2F
  8
0
 10
6727.8779309899509826
 20
155.6604139247741045
 30
0.0
 11
6727.8840768316349568
 21
155.5820338654775128
 31
0.0
  0
ARC
  5
31A30
  8
0
 10
6728.5733737933369412
 20
155.7795167040540889
 30
0.0
 40
0.0911201021540354
 50
59.6561140477709486
 51
91.1831279411805866
  0
ARC
  5
31A31
  8
0
 10
6728.5950756849397294
 20
155.8165898233766029
 30
0.0
 40
0.048162119479436
 50
37.3590984472734533
 51
59.6561140477709486
  0
ARC
  5
31A32
  8
0
 10
6728.6077388708099534
 20
155.8262572437973859
 30
0.0
 40
0.032230537826929
 50
313.6740346979283913
 51
37.3590984472734533
  0
ARC
  5
31A33
  8
0
 10
6728.571953100437895
 20
155.7250054378862103
 30
0.0
 40
0.07934077095047
 50
64.8438422769343532
 51
90.3327358489045906
  0
ARC
  5
31A34
  8
0
 10
6728.586555641580162
 20
155.7560995797074952
 30
0.0
 40
0.0449884804392454
 50
41.8366690421890013
 51
64.8436113568186698
  0
ARC
  5
31A35
  8
0
 10
6728.5992172471260346
 20
155.7674349513540903
 30
0.0
 40
0.0279941606418049
 50
358.4951902127805852
 51
41.8366690421890013
  0
ARC
  5
31A36
  8
0
 10
6728.6033629135472438
 20
155.7673260450042108
 30
0.0
 40
0.0238470639869637
 50
332.4722313008514902
 51
358.4951902127805852
  0
ARC
  5
31A37
  8
0
 10
6728.5830767122797624
 20
155.7778988722562019
 30
0.0
 40
0.0467231352827748
 50
307.8299051590415161
 51
332.4722313008514902
  0
ARC
  5
31A38
  8
0
 10
6728.5864237636096732
 20
155.7735885270224969
 30
0.0
 40
0.0412658622785049
 50
295.1232715934525004
 51
307.8299051590415161
  0
ARC
  5
31A39
  8
0
 10
6728.5702990840090933
 20
155.8079746674642081
 30
0.0
 40
0.079244961092701
 50
280.2753448296504075
 51
295.1232715934525004
  0
ARC
  5
31A3A
  8
0
 10
6728.5715187759142282
 20
155.8082269788318968
 30
0.0
 40
0.0792854363870778
 50
269.9808992875659897
 51
279.375506834842497
  0
ARC
  5
31A3B
  8
0
 10
6728.5719937027688502
 20
155.73868657076099
 30
0.0
 40
0.0402770249013154
 50
60.4866110308327194
 51
90.7132218575937657
  0
ARC
  5
31A3C
  8
0
 10
6728.5818680245465657
 20
155.7561298633538058
 30
0.0
 40
0.0202328066061988
 50
34.6076341730715882
 51
60.4866110308327194
  0
ARC
  5
31A3D
  8
0
 10
6728.5874314195507395
 20
155.759968886639399
 30
0.0
 40
0.0134734084263372
 50
320.6606037432777043
 51
34.6076341730715882
  0
ARC
  5
31A3E
  8
0
 10
6728.5789257050100787
 20
155.7669405053615037
 30
0.0
 40
0.0244711649009719
 50
289.8481799257023113
 51
320.6606037432777043
  0
ARC
  5
31A3F
  8
0
 10
6728.5704704633935762
 20
155.7903640224537867
 30
0.0
 40
0.0493740214388993
 50
271.1859203831583045
 51
289.8481799257023113
  0
LINE
  5
31A40
  8
0
 10
6728.6333572494531836
 20
155.8458150106507105
 30
0.0
 11
6728.6272114077683
 21
155.7674349513540903
 31
0.0
  0
ARC
  5
31A41
  8
0
 10
6728.5696108956699391
 20
155.7795167040540889
 30
0.0
 40
0.0911201021540354
 50
88.8168720588193992
 51
120.3438859522290016
  0
ARC
  5
31A42
  8
0
 10
6728.5479090040671508
 20
155.8165898233766029
 30
0.0
 40
0.048162119479436
 50
120.3438859522290016
 51
142.6409015527264899
  0
ARC
  5
31A43
  8
0
 10
6728.5352458181969268
 20
155.8262572437973859
 30
0.0
 40
0.032230537826929
 50
142.6409015527264899
 51
226.3259653020716087
  0
ARC
  5
31A44
  8
0
 10
6728.5710315885689852
 20
155.7250054378862103
 30
0.0
 40
0.079340770950467
 50
89.6672641510954236
 51
115.1561577230663005
  0
ARC
  5
31A45
  8
0
 10
6728.5564290474276277
 20
155.7560995797074952
 30
0.0
 40
0.0449884804392454
 50
115.1563886431813017
 51
138.1633309578110129
  0
ARC
  5
31A46
  8
0
 10
6728.5437674418808456
 20
155.7674349513540903
 30
0.0
 40
0.0279941606418049
 50
138.1633309578110129
 51
181.5048097872195001
  0
ARC
  5
31A47
  8
0
 10
6728.5396217754596364
 20
155.7673260450042108
 30
0.0
 40
0.0238470639869637
 50
181.5048097872195001
 51
207.527768699148595
  0
ARC
  5
31A48
  8
0
 10
6728.5599079767271178
 20
155.7778988722562019
 30
0.0
 40
0.0467231352827748
 50
207.527768699148595
 51
232.1700948409574892
  0
ARC
  5
31A49
  8
0
 10
6728.556560925397207
 20
155.7735885270224969
 30
0.0
 40
0.0412658622785049
 50
232.1700948409585123
 51
244.8767284065474996
  0
ARC
  5
31A4A
  8
0
 10
6728.5726856049977869
 20
155.8079746674642081
 30
0.0
 40
0.079244961092701
 50
244.8767284065474996
 51
259.7246551703494788
  0
ARC
  5
31A4B
  8
0
 10
6728.571465913092652
 20
155.8082269788318968
 30
0.0
 40
0.0792854363870859
 50
260.624493165157503
 51
270.0191007124340103
  0
ARC
  5
31A4C
  8
0
 10
6728.57099098623803
 20
155.73868657076099
 30
0.0
 40
0.0402770249013154
 50
89.286778142406277
 51
119.5133889691672948
  0
ARC
  5
31A4D
  8
0
 10
6728.5611166644603145
 20
155.7561298633538058
 30
0.0
 40
0.0202328066061988
 50
119.5133889691672948
 51
145.3923658269283976
  0
ARC
  5
31A4E
  8
0
 10
6728.5555532694561407
 20
155.759968886639399
 30
0.0
 40
0.0134734084263372
 50
145.3923658269283976
 51
219.3393962567222957
  0
ARC
  5
31A4F
  8
0
 10
6728.5640589839968015
 20
155.7669405053615037
 30
0.0
 40
0.0244711649009719
 50
219.3393962567222957
 51
250.1518200742976887
  0
ARC
  5
31A50
  8
0
 10
6728.5725142256142135
 20
155.7903640224537867
 30
0.0
 40
0.0493740214388993
 50
250.1518200742976887
 51
268.8140796168418092
  0
LINE
  5
31A51
  8
0
 10
6728.5096274395536966
 20
155.8458150106507105
 30
0.0
 11
6728.5157732812385802
 21
155.7674349513540903
 31
0.0
  0
ARC
  5
31A52
  8
0
 10
6728.8975292403010826
 20
156.0666393499001003
 30
0.0
 40
0.0911201021540354
 50
59.6561140477709486
 51
91.1831279411805866
  0
ARC
  5
31A53
  8
0
 10
6728.9192311319038708
 20
156.1037124692225859
 30
0.0
 40
0.048162119479436
 50
37.3590984472734533
 51
59.6561140477709486
  0
ARC
  5
31A54
  8
0
 10
6728.9318943177731853
 20
156.113379889643511
 30
0.0
 40
0.032230537826929
 50
313.6740346979283913
 51
37.3590984472734533
  0
ARC
  5
31A55
  8
0
 10
6728.896108547401127
 20
156.0121280837321933
 30
0.0
 40
0.07934077095047
 50
64.8438422769343532
 51
90.3327358489045906
  0
ARC
  5
31A56
  8
0
 10
6728.9107110885443035
 20
156.0432222255535919
 30
0.0
 40
0.0449884804392454
 50
41.8366690421890013
 51
64.8436113568186698
  0
ARC
  5
31A57
  8
0
 10
6728.9233726940901761
 20
156.0545575972001018
 30
0.0
 40
0.0279941606418049
 50
358.4951902127805852
 51
41.8366690421890013
  0
ARC
  5
31A58
  8
0
 10
6728.9275183605095663
 20
156.0544486908503075
 30
0.0
 40
0.0238470639869637
 50
332.4722313008514902
 51
358.4951902127805852
  0
ARC
  5
31A59
  8
0
 10
6728.9072321592439039
 20
156.0650215181022133
 30
0.0
 40
0.0467231352827748
 50
307.8299051590415161
 51
332.4722313008514902
  0
ARC
  5
31A5A
  8
0
 10
6728.9105792105738146
 20
156.0607111728685084
 30
0.0
 40
0.0412658622785049
 50
295.1232715934525004
 51
307.8299051590415161
  0
ARC
  5
31A5B
  8
0
 10
6728.8944545309723253
 20
156.0950973133101911
 30
0.0
 40
0.079244961092701
 50
280.2753448296504075
 51
295.1232715934525004
  0
ARC
  5
31A5C
  8
0
 10
6728.8956742228792791
 20
156.0953496246779082
 30
0.0
 40
0.0792854363870778
 50
269.9808992875659897
 51
279.375506834842497
  0
ARC
  5
31A5D
  8
0
 10
6728.8961491497329916
 20
156.0258092166070014
 30
0.0
 40
0.0402770249013154
 50
60.4866110308327194
 51
90.7132218575937657
  0
ARC
  5
31A5E
  8
0
 10
6728.9060234715107072
 20
156.0432525091997888
 30
0.0
 40
0.0202328066061988
 50
34.6076341730715882
 51
60.4866110308327194
  0
ARC
  5
31A5F
  8
0
 10
6728.911586866514881
 20
156.0470915324854957
 30
0.0
 40
0.0134734084263372
 50
320.6606037432777043
 51
34.6076341730715882
  0
ARC
  5
31A60
  8
0
 10
6728.9030811519724011
 20
156.0540631512076004
 30
0.0
 40
0.0244711649009719
 50
289.8481799257023113
 51
320.6606037432777043
  0
ARC
  5
31A61
  8
0
 10
6728.8946259103558987
 20
156.0774866682999118
 30
0.0
 40
0.0493740214388993
 50
271.1859203831583045
 51
289.8481799257023113
  0
LINE
  5
31A62
  8
0
 10
6728.9575126964182346
 20
156.1329376564966935
 30
0.0
 11
6728.9513668547306224
 21
156.0545575972001018
 31
0.0
  0
ARC
  5
31A63
  8
0
 10
6728.8937663426340805
 20
156.0666393499001003
 30
0.0
 40
0.0911201021540354
 50
88.8168720588193992
 51
120.3438859522290016
  0
ARC
  5
31A64
  8
0
 10
6728.8720644510285638
 20
156.1037124692225859
 30
0.0
 40
0.048162119479436
 50
120.3438859522290016
 51
142.6409015527264899
  0
ARC
  5
31A65
  8
0
 10
6728.8594012651610683
 20
156.113379889643511
 30
0.0
 40
0.032230537826929
 50
142.6409015527264899
 51
226.3259653020716087
  0
ARC
  5
31A66
  8
0
 10
6728.8951870355331266
 20
156.0121280837321933
 30
0.0
 40
0.079340770950467
 50
89.6672641510954236
 51
115.1561577230663005
  0
ARC
  5
31A67
  8
0
 10
6728.8805844943899501
 20
156.0432222255535919
 30
0.0
 40
0.0449884804392454
 50
115.1563886431813017
 51
138.1633309578110129
  0
ARC
  5
31A68
  8
0
 10
6728.8679228888440775
 20
156.0545575972001018
 30
0.0
 40
0.0279941606418049
 50
138.1633309578110129
 51
181.5048097872195001
  0
ARC
  5
31A69
  8
0
 10
6728.8637772224228684
 20
156.0544486908503075
 30
0.0
 40
0.0238470639869637
 50
181.5048097872195001
 51
207.527768699148595
  0
ARC
  5
31A6A
  8
0
 10
6728.8840634236912592
 20
156.0650215181022133
 30
0.0
 40
0.0467231352827748
 50
207.527768699148595
 51
232.1700948409574892
  0
ARC
  5
31A6B
  8
0
 10
6728.8807163723577105
 20
156.0607111728685084
 30
0.0
 40
0.0412658622785049
 50
232.1700948409585123
 51
244.8767284065474996
  0
ARC
  5
31A6C
  8
0
 10
6728.8968410519619283
 20
156.0950973133101911
 30
0.0
 40
0.079244961092701
 50
244.8767284065474996
 51
259.7246551703494788
  0
ARC
  5
31A6D
  8
0
 10
6728.895621360055884
 20
156.0953496246779082
 30
0.0
 40
0.0792854363870859
 50
260.624493165157503
 51
270.0191007124340103
  0
ARC
  5
31A6E
  8
0
 10
6728.8951464332021715
 20
156.0258092166070014
 30
0.0
 40
0.0402770249013154
 50
89.286778142406277
 51
119.5133889691672948
  0
ARC
  5
31A6F
  8
0
 10
6728.8852721114235464
 20
156.0432525091997888
 30
0.0
 40
0.0202328066061988
 50
119.5133889691672948
 51
145.3923658269283976
  0
ARC
  5
31A70
  8
0
 10
6728.8797087164193726
 20
156.0470915324854957
 30
0.0
 40
0.0134734084263372
 50
145.3923658269283976
 51
219.3393962567222957
  0
ARC
  5
31A71
  8
0
 10
6728.888214430962762
 20
156.0540631512076004
 30
0.0
 40
0.0244711649009719
 50
219.3393962567222957
 51
250.1518200742976887
  0
ARC
  5
31A72
  8
0
 10
6728.8966696725756265
 20
156.0774866682999118
 30
0.0
 40
0.0493740214388993
 50
250.1518200742976887
 51
268.8140796168418092
  0
LINE
  5
31A73
  8
0
 10
6728.8337828865169286
 20
156.1329376564966935
 30
0.0
 11
6728.8399287282027217
 21
156.0545575972001018
 31
0.0
  0
ARC
  5
31A74
  8
0
 10
6729.385546010962571
 20
155.7533875574638103
 30
0.0
 40
0.0911201021540354
 50
59.6561140477709486
 51
91.1831279411805866
  0
ARC
  5
31A75
  8
0
 10
6729.4072479025662687
 20
155.7904606767862958
 30
0.0
 40
0.048162119479436
 50
37.3590984472734533
 51
59.6561140477709486
  0
ARC
  5
31A76
  8
0
 10
6729.4199110884337642
 20
155.8001280972071925
 30
0.0
 40
0.032230537826929
 50
313.6740346979283913
 51
37.3590984472734533
  0
ARC
  5
31A77
  8
0
 10
6729.3841253180626154
 20
155.6988762912959885
 30
0.0
 40
0.07934077095047
 50
64.8438422769343532
 51
90.3327358489045906
  0
ARC
  5
31A78
  8
0
 10
6729.3987278592048824
 20
155.7299704331173018
 30
0.0
 40
0.0449884804392454
 50
41.8366690421890013
 51
64.8436113568186698
  0
ARC
  5
31A79
  8
0
 10
6729.4113894647516645
 20
155.7413058047638117
 30
0.0
 40
0.0279941606418049
 50
358.4951902127805852
 51
41.8366690421890013
  0
ARC
  5
31A7A
  8
0
 10
6729.4155351311710547
 20
155.7411968984139889
 30
0.0
 40
0.0238470639869637
 50
332.4722313008514902
 51
358.4951902127805852
  0
ARC
  5
31A7B
  8
0
 10
6729.3952489299063018
 20
155.7517697256658948
 30
0.0
 40
0.0467231352827748
 50
307.8299051590415161
 51
332.4722313008514902
  0
ARC
  5
31A7C
  8
0
 10
6729.3985959812362125
 20
155.7474593804321898
 30
0.0
 40
0.0412658622785049
 50
295.1232715934525004
 51
307.8299051590415161
  0
ARC
  5
31A7D
  8
0
 10
6729.3824713016329042
 20
155.781845520873901
 30
0.0
 40
0.079244961092701
 50
280.2753448296504075
 51
295.1232715934525004
  0
ARC
  5
31A7E
  8
0
 10
6729.383690993539858
 20
155.7820978322415897
 30
0.0
 40
0.0792854363870778
 50
269.9808992875659897
 51
279.375506834842497
  0
ARC
  5
31A7F
  8
0
 10
6729.3841659203953895
 20
155.7125574241707113
 30
0.0
 40
0.0402770249013154
 50
60.4866110308327194
 51
90.7132218575937657
  0
ARC
  5
31A80
  8
0
 10
6729.3940402421731051
 20
155.7300007167634988
 30
0.0
 40
0.0202328066061988
 50
34.6076341730715882
 51
60.4866110308327194
  0
ARC
  5
31A81
  8
0
 10
6729.3996036371763694
 20
155.7338397400492056
 30
0.0
 40
0.0134734084263372
 50
320.6606037432777043
 51
34.6076341730715882
  0
ARC
  5
31A82
  8
0
 10
6729.3910979226338895
 20
155.7408113587713103
 30
0.0
 40
0.0244711649009719
 50
289.8481799257023113
 51
320.6606037432777043
  0
ARC
  5
31A83
  8
0
 10
6729.3826426810182966
 20
155.764234875863508
 30
0.0
 40
0.0493740214388993
 50
271.1859203831583045
 51
289.8481799257023113
  0
LINE
  5
31A84
  8
0
 10
6729.445529467077904
 20
155.8196858640604034
 30
0.0
 11
6729.4393836253930203
 21
155.7413058047638117
 31
0.0
  0
ARC
  5
31A85
  8
0
 10
6729.3817831132937499
 20
155.7533875574638103
 30
0.0
 40
0.0911201021540354
 50
88.8168720588193992
 51
120.3438859522290016
  0
ARC
  5
31A86
  8
0
 10
6729.3600812216909617
 20
155.7904606767862958
 30
0.0
 40
0.048162119479436
 50
120.3438859522290016
 51
142.6409015527264899
  0
ARC
  5
31A87
  8
0
 10
6729.3474180358225567
 20
155.8001280972071925
 30
0.0
 40
0.032230537826929
 50
142.6409015527264899
 51
226.3259653020716087
  0
ARC
  5
31A88
  8
0
 10
6729.383203806194615
 20
155.6988762912959885
 30
0.0
 40
0.079340770950467
 50
89.6672641510954236
 51
115.1561577230663005
  0
ARC
  5
31A89
  8
0
 10
6729.368601265052348
 20
155.7299704331173018
 30
0.0
 40
0.0449884804392454
 50
115.1563886431813017
 51
138.1633309578110129
  0
ARC
  5
31A8A
  8
0
 10
6729.3559396595046564
 20
155.7413058047638117
 30
0.0
 40
0.0279941606418049
 50
138.1633309578110129
 51
181.5048097872195001
  0
ARC
  5
31A8B
  8
0
 10
6729.3517939930852663
 20
155.7411968984139889
 30
0.0
 40
0.0238470639869637
 50
181.5048097872195001
 51
207.527768699148595
  0
ARC
  5
31A8C
  8
0
 10
6729.3720801943518381
 20
155.7517697256658948
 30
0.0
 40
0.0467231352827748
 50
207.527768699148595
 51
232.1700948409574892
  0
ARC
  5
31A8D
  8
0
 10
6729.3687331430201084
 20
155.7474593804321898
 30
0.0
 40
0.0412658622785049
 50
232.1700948409585123
 51
244.8767284065474996
  0
ARC
  5
31A8E
  8
0
 10
6729.3848578226234167
 20
155.781845520873901
 30
0.0
 40
0.079244961092701
 50
244.8767284065474996
 51
259.7246551703494788
  0
ARC
  5
31A8F
  8
0
 10
6729.3836381307173724
 20
155.7820978322415897
 30
0.0
 40
0.0792854363870859
 50
260.624493165157503
 51
270.0191007124340103
  0
ARC
  5
31A90
  8
0
 10
6729.3831632038627504
 20
155.7125574241707113
 30
0.0
 40
0.0402770249013154
 50
89.286778142406277
 51
119.5133889691672948
  0
ARC
  5
31A91
  8
0
 10
6729.3732888820859444
 20
155.7300007167634988
 30
0.0
 40
0.0202328066061988
 50
119.5133889691672948
 51
145.3923658269283976
  0
ARC
  5
31A92
  8
0
 10
6729.3677254870808611
 20
155.7338397400492056
 30
0.0
 40
0.0134734084263372
 50
145.3923658269283976
 51
219.3393962567222957
  0
ARC
  5
31A93
  8
0
 10
6729.3762312016242504
 20
155.7408113587713103
 30
0.0
 40
0.0244711649009719
 50
219.3393962567222957
 51
250.1518200742976887
  0
ARC
  5
31A94
  8
0
 10
6729.3846864432380244
 20
155.764234875863508
 30
0.0
 40
0.0493740214388993
 50
250.1518200742976887
 51
268.8140796168418092
  0
LINE
  5
31A95
  8
0
 10
6729.321799657178417
 20
155.8196858640604034
 30
0.0
 11
6729.3279454988651196
 21
155.7413058047638117
 31
0.0
  0
ARC
  5
31A96
  8
0
 10
6728.9392854516208899
 20
155.5446912453695916
 30
0.0
 40
0.0911201021540354
 50
59.6561140477709486
 51
91.1831279411805866
  0
ARC
  5
31A97
  8
0
 10
6728.9609873432236782
 20
155.5817643646921056
 30
0.0
 40
0.048162119479436
 50
37.3590984472734533
 51
59.6561140477709486
  0
ARC
  5
31A98
  8
0
 10
6728.9736505290948116
 20
155.5914317851130022
 30
0.0
 40
0.032230537826929
 50
313.6740346979283913
 51
37.3590984472734533
  0
ARC
  5
31A99
  8
0
 10
6728.9378647587209343
 20
155.4901799792017982
 30
0.0
 40
0.07934077095047
 50
64.8438422769343532
 51
90.3327358489045906
  0
ARC
  5
31A9A
  8
0
 10
6728.9524672998641108
 20
155.5212741210231115
 30
0.0
 40
0.0449884804392454
 50
41.8366690421890013
 51
64.8436113568186698
  0
ARC
  5
31A9B
  8
0
 10
6728.9651289054108929
 20
155.532609492669593
 30
0.0
 40
0.0279941606418049
 50
358.4951902127805852
 51
41.8366690421890013
  0
ARC
  5
31A9C
  8
0
 10
6728.9692745718302831
 20
155.5325005863197987
 30
0.0
 40
0.0238470639869637
 50
332.4722313008514902
 51
358.4951902127805852
  0
ARC
  5
31A9D
  8
0
 10
6728.9489883705637112
 20
155.5430734135717046
 30
0.0
 40
0.0467231352827748
 50
307.8299051590415161
 51
332.4722313008514902
  0
ARC
  5
31A9E
  8
0
 10
6728.952335421893622
 20
155.5387630683379996
 30
0.0
 40
0.0412658622785049
 50
295.1232715934525004
 51
307.8299051590415161
  0
ARC
  5
31A9F
  8
0
 10
6728.9362107422930421
 20
155.5731492087797108
 30
0.0
 40
0.079244961092701
 50
280.2753448296504075
 51
295.1232715934525004
  0
ARC
  5
31AA0
  8
0
 10
6728.9374304341972675
 20
155.5734015201473994
 30
0.0
 40
0.0792854363870778
 50
269.9808992875659897
 51
279.375506834842497
  0
ARC
  5
31AA1
  8
0
 10
6728.937905361052799
 20
155.5038611120764926
 30
0.0
 40
0.0402770249013154
 50
60.4866110308327194
 51
90.7132218575937657
  0
ARC
  5
31AA2
  8
0
 10
6728.9477796828323335
 20
155.5213044046693085
 30
0.0
 40
0.0202328066061988
 50
34.6076341730715882
 51
60.4866110308327194
  0
ARC
  5
31AA3
  8
0
 10
6728.9533430778346883
 20
155.5251434279549869
 30
0.0
 40
0.0134734084263372
 50
320.6606037432777043
 51
34.6076341730715882
  0
ARC
  5
31AA4
  8
0
 10
6728.944837363293118
 20
155.5321150466770916
 30
0.0
 40
0.0244711649009719
 50
289.8481799257023113
 51
320.6606037432777043
  0
ARC
  5
31AA5
  8
0
 10
6728.9363821216784345
 20
155.555538563769403
 30
0.0
 40
0.0493740214388993
 50
271.1859203831583045
 51
289.8481799257023113
  0
LINE
  5
31AA6
  8
0
 10
6728.9992689077362229
 20
155.6109895519662132
 30
0.0
 11
6728.9931230660513393
 21
155.532609492669593
 31
0.0
  0
ARC
  5
31AA7
  8
0
 10
6728.9355225539529783
 20
155.5446912453695916
 30
0.0
 40
0.0911201021540354
 50
88.8168720588193992
 51
120.3438859522290016
  0
ARC
  5
31AA8
  8
0
 10
6728.9138206623501901
 20
155.5817643646921056
 30
0.0
 40
0.048162119479436
 50
120.3438859522290016
 51
142.6409015527264899
  0
ARC
  5
31AA9
  8
0
 10
6728.9011574764817851
 20
155.5914317851130022
 30
0.0
 40
0.032230537826929
 50
142.6409015527264899
 51
226.3259653020716087
  0
ARC
  5
31AAA
  8
0
 10
6728.936943246852934
 20
155.4901799792017982
 30
0.0
 40
0.079340770950467
 50
89.6672641510954236
 51
115.1561577230663005
  0
ARC
  5
31AAB
  8
0
 10
6728.922340705710667
 20
155.5212741210231115
 30
0.0
 40
0.0449884804392454
 50
115.1563886431813017
 51
138.1633309578110129
  0
ARC
  5
31AAC
  8
0
 10
6728.9096791001657039
 20
155.532609492669593
 30
0.0
 40
0.0279941606418049
 50
138.1633309578110129
 51
181.5048097872195001
  0
ARC
  5
31AAD
  8
0
 10
6728.9055334337426757
 20
155.5325005863197987
 30
0.0
 40
0.0238470639869637
 50
181.5048097872195001
 51
207.527768699148595
  0
ARC
  5
31AAE
  8
0
 10
6728.9258196350101571
 20
155.5430734135717046
 30
0.0
 40
0.0467231352827748
 50
207.527768699148595
 51
232.1700948409574892
  0
ARC
  5
31AAF
  8
0
 10
6728.9224725836802463
 20
155.5387630683379996
 30
0.0
 40
0.0412658622785049
 50
232.1700948409585123
 51
244.8767284065474996
  0
ARC
  5
31AB0
  8
0
 10
6728.9385972632808262
 20
155.5731492087797108
 30
0.0
 40
0.079244961092701
 50
244.8767284065474996
 51
259.7246551703494788
  0
ARC
  5
31AB1
  8
0
 10
6728.9373775713756913
 20
155.5734015201473994
 30
0.0
 40
0.0792854363870859
 50
260.624493165157503
 51
270.0191007124340103
  0
ARC
  5
31AB2
  8
0
 10
6728.9369026445210693
 20
155.5038611120764926
 30
0.0
 40
0.0402770249013154
 50
89.286778142406277
 51
119.5133889691672948
  0
ARC
  5
31AB3
  8
0
 10
6728.9270283227433538
 20
155.5213044046693085
 30
0.0
 40
0.0202328066061988
 50
119.5133889691672948
 51
145.3923658269283976
  0
ARC
  5
31AB4
  8
0
 10
6728.9214649277400895
 20
155.5251434279549869
 30
0.0
 40
0.0134734084263372
 50
145.3923658269283976
 51
219.3393962567222957
  0
ARC
  5
31AB5
  8
0
 10
6728.9299706422816598
 20
155.5321150466770916
 30
0.0
 40
0.0244711649009719
 50
219.3393962567222957
 51
250.1518200742976887
  0
ARC
  5
31AB6
  8
0
 10
6728.9384258838981623
 20
155.555538563769403
 30
0.0
 40
0.0493740214388993
 50
250.1518200742976887
 51
268.8140796168418092
  0
LINE
  5
31AB7
  8
0
 10
6728.8755390978358264
 20
155.6109895519662132
 30
0.0
 11
6728.8816849395234385
 21
155.532609492669593
 31
0.0
  0
ARC
  5
31AB8
  8
0
 10
6729.6977092452780198
 20
155.3577967818494017
 30
0.0
 40
0.0911201021540354
 50
59.6561140477709486
 51
91.1831279411805866
  0
ARC
  5
31AB9
  8
0
 10
6729.719411136880808
 20
155.3948699011720009
 30
0.0
 40
0.048162119479436
 50
37.3590984472734533
 51
59.6561140477709486
  0
ARC
  5
31ABA
  8
0
 10
6729.7320743227501225
 20
155.4045373215928123
 30
0.0
 40
0.032230537826929
 50
313.6740346979283913
 51
37.3590984472734533
  0
ARC
  5
31ABB
  8
0
 10
6729.6962885523789737
 20
155.3032855156816083
 30
0.0
 40
0.07934077095047
 50
64.8438422769343532
 51
90.3327358489045906
  0
ARC
  5
31ABC
  8
0
 10
6729.7108910935212407
 20
155.3343796575028932
 30
0.0
 40
0.0449884804392454
 50
41.8366690421890013
 51
64.8436113568186698
  0
ARC
  5
31ABD
  8
0
 10
6729.7235526990671133
 20
155.3457150291494884
 30
0.0
 40
0.0279941606418049
 50
358.4951902127805852
 51
41.8366690421890013
  0
ARC
  5
31ABE
  8
0
 10
6729.7276983654883225
 20
155.3456061227996088
 30
0.0
 40
0.0238470639869637
 50
332.4722313008514902
 51
358.4951902127805852
  0
ARC
  5
31ABF
  8
0
 10
6729.7074121642208411
 20
155.3561789500515999
 30
0.0
 40
0.0467231352827748
 50
307.8299051590415161
 51
332.4722313008514902
  0
ARC
  5
31AC0
  8
0
 10
6729.7107592155507518
 20
155.3518686048178097
 30
0.0
 40
0.0412658622785049
 50
295.1232715934525004
 51
307.8299051590415161
  0
ARC
  5
31AC1
  8
0
 10
6729.6946345359492625
 20
155.3862547452596061
 30
0.0
 40
0.079244961092701
 50
280.2753448296504075
 51
295.1232715934525004
  0
ARC
  5
31AC2
  8
0
 10
6729.6958542278553068
 20
155.3865070566272095
 30
0.0
 40
0.0792854363870778
 50
269.9808992875659897
 51
279.375506834842497
  0
ARC
  5
31AC3
  8
0
 10
6729.6963291547099288
 20
155.3169666485563027
 30
0.0
 40
0.0402770249013154
 50
60.4866110308327194
 51
90.7132218575937657
  0
ARC
  5
31AC4
  8
0
 10
6729.7062034764876444
 20
155.3344099411492039
 30
0.0
 40
0.0202328066061988
 50
34.6076341730715882
 51
60.4866110308327194
  0
ARC
  5
31AC5
  8
0
 10
6729.7117668714918182
 20
155.3382489644349107
 30
0.0
 40
0.0134734084263372
 50
320.6606037432777043
 51
34.6076341730715882
  0
ARC
  5
31AC6
  8
0
 10
6729.7032611569493383
 20
155.3452205831569017
 30
0.0
 40
0.0244711649009719
 50
289.8481799257023113
 51
320.6606037432777043
  0
ARC
  5
31AC7
  8
0
 10
6729.6948059153328359
 20
155.3686441002492131
 30
0.0
 40
0.0493740214388993
 50
271.1859203831583045
 51
289.8481799257023113
  0
LINE
  5
31AC8
  8
0
 10
6729.7576927013951718
 20
155.4240950884459949
 30
0.0
 11
6729.7515468597075596
 21
155.3457150291494884
 31
0.0
  0
ARC
  5
31AC9
  8
0
 10
6729.6939463476110177
 20
155.3577967818494017
 30
0.0
 40
0.0911201021540354
 50
88.8168720588193992
 51
120.3438859522290016
  0
ARC
  5
31ACA
  8
0
 10
6729.6722444560064105
 20
155.3948699011720009
 30
0.0
 40
0.048162119479436
 50
120.3438859522290016
 51
142.6409015527264899
  0
ARC
  5
31ACB
  8
0
 10
6729.6595812701380055
 20
155.4045373215928123
 30
0.0
 40
0.032230537826929
 50
142.6409015527264899
 51
226.3259653020716087
  0
ARC
  5
31ACC
  8
0
 10
6729.6953670405100638
 20
155.3032855156816083
 30
0.0
 40
0.079340770950467
 50
89.6672641510954236
 51
115.1561577230663005
  0
ARC
  5
31ACD
  8
0
 10
6729.6807644993668873
 20
155.3343796575028932
 30
0.0
 40
0.0449884804392454
 50
115.1563886431813017
 51
138.1633309578110129
  0
ARC
  5
31ACE
  8
0
 10
6729.6681028938210147
 20
155.3457150291494884
 30
0.0
 40
0.0279941606418049
 50
138.1633309578110129
 51
181.5048097872195001
  0
ARC
  5
31ACF
  8
0
 10
6729.6639572273998056
 20
155.3456061227996088
 30
0.0
 40
0.0238470639869637
 50
181.5048097872195001
 51
207.527768699148595
  0
ARC
  5
31AD0
  8
0
 10
6729.6842434286681964
 20
155.3561789500515999
 30
0.0
 40
0.0467231352827748
 50
207.527768699148595
 51
232.1700948409574892
  0
ARC
  5
31AD1
  8
0
 10
6729.6808963773373762
 20
155.3518686048178097
 30
0.0
 40
0.0412658622785049
 50
232.1700948409585123
 51
244.8767284065474996
  0
ARC
  5
31AD2
  8
0
 10
6729.6970210569388655
 20
155.3862547452596061
 30
0.0
 40
0.079244961092701
 50
244.8767284065474996
 51
259.7246551703494788
  0
ARC
  5
31AD3
  8
0
 10
6729.6958013650319117
 20
155.3865070566272095
 30
0.0
 40
0.0792854363870859
 50
260.624493165157503
 51
270.0191007124340103
  0
ARC
  5
31AD4
  8
0
 10
6729.6953264381791087
 20
155.3169666485563027
 30
0.0
 40
0.0402770249013154
 50
89.286778142406277
 51
119.5133889691672948
  0
ARC
  5
31AD5
  8
0
 10
6729.6854521163986647
 20
155.3344099411492039
 30
0.0
 40
0.0202328066061988
 50
119.5133889691672948
 51
145.3923658269283976
  0
ARC
  5
31AD6
  8
0
 10
6729.6798887213963098
 20
155.3382489644349107
 30
0.0
 40
0.0134734084263372
 50
145.3923658269283976
 51
219.3393962567222957
  0
ARC
  5
31AD7
  8
0
 10
6729.6883944359387897
 20
155.3452205831569017
 30
0.0
 40
0.0244711649009719
 50
219.3393962567222957
 51
250.1518200742976887
  0
ARC
  5
31AD8
  8
0
 10
6729.6968496775525637
 20
155.3686441002492131
 30
0.0
 40
0.0493740214388993
 50
250.1518200742976887
 51
268.8140796168418092
  0
LINE
  5
31AD9
  8
0
 10
6729.6339628914938658
 20
155.4240950884459949
 30
0.0
 11
6729.6401087331796589
 21
155.3457150291494884
 31
0.0
  0
ARC
  5
31ADA
  8
0
 10
6728.4932266107698524
 20
155.3368772075548065
 30
0.0
 40
0.0911201021540354
 50
59.6561140477709486
 51
91.1831279411805866
  0
ARC
  5
31ADB
  8
0
 10
6728.5149285023735501
 20
155.3739503268772921
 30
0.0
 40
0.048162119479436
 50
37.3590984472734533
 51
59.6561140477709486
  0
ARC
  5
31ADC
  8
0
 10
6728.5275916882419551
 20
155.3836177472981035
 30
0.0
 40
0.032230537826929
 50
313.6740346979283913
 51
37.3590984472734533
  0
ARC
  5
31ADD
  8
0
 10
6728.4918059178689873
 20
155.2823659413868995
 30
0.0
 40
0.07934077095047
 50
64.8438422769343532
 51
90.3327358489045906
  0
ARC
  5
31ADE
  8
0
 10
6728.5064084590130733
 20
155.3134600832082981
 30
0.0
 40
0.0449884804392454
 50
41.8366690421890013
 51
64.8436113568186698
  0
ARC
  5
31ADF
  8
0
 10
6728.5190700645580364
 20
155.324795454854808
 30
0.0
 40
0.0279941606418049
 50
358.4951902127805852
 51
41.8366690421890013
  0
ARC
  5
31AE0
  8
0
 10
6728.5232157309801551
 20
155.3246865485050137
 30
0.0
 40
0.0238470639869637
 50
332.4722313008514902
 51
358.4951902127805852
  0
ARC
  5
31AE1
  8
0
 10
6728.5029295297135832
 20
155.3352593757568911
 30
0.0
 40
0.0467231352827748
 50
307.8299051590415161
 51
332.4722313008514902
  0
ARC
  5
31AE2
  8
0
 10
6728.5062765810425844
 20
155.3309490305231009
 30
0.0
 40
0.0412658622785049
 50
295.1232715934525004
 51
307.8299051590415161
  0
ARC
  5
31AE3
  8
0
 10
6728.4901519014429141
 20
155.3653351709648973
 30
0.0
 40
0.079244961092701
 50
280.2753448296504075
 51
295.1232715934525004
  0
ARC
  5
31AE4
  8
0
 10
6728.4913715933471394
 20
155.3655874823325007
 30
0.0
 40
0.0792854363870778
 50
269.9808992875659897
 51
279.375506834842497
  0
ARC
  5
31AE5
  8
0
 10
6728.4918465202026709
 20
155.2960470742617076
 30
0.0
 40
0.0402770249013154
 50
60.4866110308327194
 51
90.7132218575937657
  0
ARC
  5
31AE6
  8
0
 10
6728.5017208419803865
 20
155.3134903668544951
 30
0.0
 40
0.0202328066061988
 50
34.6076341730715882
 51
60.4866110308327194
  0
ARC
  5
31AE7
  8
0
 10
6728.5072842369836508
 20
155.3173293901402019
 30
0.0
 40
0.0134734084263372
 50
320.6606037432777043
 51
34.6076341730715882
  0
ARC
  5
31AE8
  8
0
 10
6728.4987785224420804
 20
155.3243010088621929
 30
0.0
 40
0.0244711649009719
 50
289.8481799257023113
 51
320.6606037432777043
  0
ARC
  5
31AE9
  8
0
 10
6728.490323280825578
 20
155.3477245259545043
 30
0.0
 40
0.0493740214388993
 50
271.1859203831583045
 51
289.8481799257023113
  0
LINE
  5
31AEA
  8
0
 10
6728.5532100668860949
 20
155.4031755141513997
 30
0.0
 11
6728.5470642252003017
 21
155.324795454854808
 31
0.0
  0
ARC
  5
31AEB
  8
0
 10
6728.4894637131028503
 20
155.3368772075548065
 30
0.0
 40
0.0911201021540354
 50
88.8168720588193992
 51
120.3438859522290016
  0
ARC
  5
31AEC
  8
0
 10
6728.4677618215000621
 20
155.3739503268772921
 30
0.0
 40
0.048162119479436
 50
120.3438859522290016
 51
142.6409015527264899
  0
ARC
  5
31AED
  8
0
 10
6728.4550986356289286
 20
155.3836177472981035
 30
0.0
 40
0.032230537826929
 50
142.6409015527264899
 51
226.3259653020716087
  0
ARC
  5
31AEE
  8
0
 10
6728.4908844060028059
 20
155.2823659413868995
 30
0.0
 40
0.079340770950467
 50
89.6672641510954236
 51
115.1561577230663005
  0
ARC
  5
31AEF
  8
0
 10
6728.4762818648596294
 20
155.3134600832082981
 30
0.0
 40
0.0449884804392454
 50
115.1563886431813017
 51
138.1633309578110129
  0
ARC
  5
31AF0
  8
0
 10
6728.4636202593128473
 20
155.324795454854808
 30
0.0
 40
0.0279941606418049
 50
138.1633309578110129
 51
181.5048097872195001
  0
ARC
  5
31AF1
  8
0
 10
6728.4594745928943667
 20
155.3246865485050137
 30
0.0
 40
0.0238470639869637
 50
181.5048097872195001
 51
207.527768699148595
  0
ARC
  5
31AF2
  8
0
 10
6728.479760794160029
 20
155.3352593757568911
 30
0.0
 40
0.0467231352827748
 50
207.527768699148595
 51
232.1700948409574892
  0
ARC
  5
31AF3
  8
0
 10
6728.4764137428292088
 20
155.3309490305231009
 30
0.0
 40
0.0412658622785049
 50
232.1700948409585123
 51
244.8767284065474996
  0
ARC
  5
31AF4
  8
0
 10
6728.4925384224306981
 20
155.3653351709648973
 30
0.0
 40
0.079244961092701
 50
244.8767284065474996
 51
259.7246551703494788
  0
ARC
  5
31AF5
  8
0
 10
6728.4913187305246538
 20
155.365587482332586
 30
0.0
 40
0.0792854363870859
 50
260.624493165157503
 51
270.0191007124340103
  0
ARC
  5
31AF6
  8
0
 10
6728.4908438036709413
 20
155.2960470742617076
 30
0.0
 40
0.0402770249013154
 50
89.286778142406277
 51
119.5133889691672948
  0
ARC
  5
31AF7
  8
0
 10
6728.4809694818923163
 20
155.3134903668544951
 30
0.0
 40
0.0202328066061988
 50
119.5133889691672948
 51
145.3923658269283976
  0
ARC
  5
31AF8
  8
0
 10
6728.4754060868890519
 20
155.3173293901402019
 30
0.0
 40
0.0134734084263372
 50
145.3923658269283976
 51
219.3393962567222957
  0
ARC
  5
31AF9
  8
0
 10
6728.4839118014297128
 20
155.3243010088621929
 30
0.0
 40
0.0244711649009719
 50
219.3393962567222957
 51
250.1518200742976887
  0
ARC
  5
31AFA
  8
0
 10
6728.4923670430453058
 20
155.3477245259545043
 30
0.0
 40
0.0493740214388993
 50
250.1518200742976887
 51
268.8140796168418092
  0
LINE
  5
31AFB
  8
0
 10
6728.4294802569856984
 20
155.4031755141513997
 30
0.0
 11
6728.435626098672401
 21
155.324795454854808
 31
0.0
  0
ARC
  5
31AFC
  8
0
 10
6729.1732767240591784
 20
155.2490415549549994
 30
0.0
 40
0.0911201021540354
 50
59.6561140477709486
 51
91.1831279411805866
  0
ARC
  5
31AFD
  8
0
 10
6729.1949786156619666
 20
155.2861146742775986
 30
0.0
 40
0.048162119479436
 50
37.3590984472734533
 51
59.6561140477709486
  0
ARC
  5
31AFE
  8
0
 10
6729.2076418015312811
 20
155.29578209469841
 30
0.0
 40
0.032230537826929
 50
313.6740346979283913
 51
37.3590984472734533
  0
ARC
  5
31AFF
  8
0
 10
6729.1718560311574038
 20
155.194530288787206
 30
0.0
 40
0.07934077095047
 50
64.8438422769343532
 51
90.3327358489045906
  0
ARC
  5
31B00
  8
0
 10
6729.1864585722996708
 20
155.2256244306084909
 30
0.0
 40
0.0449884804392454
 50
41.8366690421890013
 51
64.8436113568186698
  0
ARC
  5
31B01
  8
0
 10
6729.1991201778473624
 20
155.2369598022550008
 30
0.0
 40
0.0279941606418049
 50
358.4951902127805852
 51
41.8366690421890013
  0
ARC
  5
31B02
  8
0
 10
6729.203265844267662
 20
155.2368508959052065
 30
0.0
 40
0.0238470639869637
 50
332.4722313008514902
 51
358.4951902127805852
  0
ARC
  5
31B03
  8
0
 10
6729.1829796430010902
 20
155.2474237231571976
 30
0.0
 40
0.0467231352827748
 50
307.8299051590415161
 51
332.4722313008514902
  0
ARC
  5
31B04
  8
0
 10
6729.1863266943319104
 20
155.2431133779234074
 30
0.0
 40
0.0412658622785049
 50
295.1232715934525004
 51
307.8299051590415161
  0
ARC
  5
31B05
  8
0
 10
6729.1702020147304211
 20
155.2774995183652038
 30
0.0
 40
0.079244961092701
 50
280.2753448296504075
 51
295.1232715934525004
  0
ARC
  5
31B06
  8
0
 10
6729.1714217066346464
 20
155.2777518297328072
 30
0.0
 40
0.0792854363870778
 50
269.9808992875659897
 51
279.375506834842497
  0
ARC
  5
31B07
  8
0
 10
6729.1718966334901779
 20
155.2082114216619004
 30
0.0
 40
0.0402770249013154
 50
60.4866110308327194
 51
90.7132218575937657
  0
ARC
  5
31B08
  8
0
 10
6729.1817709552688029
 20
155.2256547142548015
 30
0.0
 40
0.0202328066061988
 50
34.6076341730715882
 51
60.4866110308327194
  0
ARC
  5
31B09
  8
0
 10
6729.1873343502711577
 20
155.2294937375403947
 30
0.0
 40
0.0134734084263372
 50
320.6606037432777043
 51
34.6076341730715882
  0
ARC
  5
31B0A
  8
0
 10
6729.1788286357295874
 20
155.2364653562624994
 30
0.0
 40
0.0244711649009719
 50
289.8481799257023113
 51
320.6606037432777043
  0
ARC
  5
31B0B
  8
0
 10
6729.1703733941149039
 20
155.2598888733548108
 30
0.0
 40
0.0493740214388993
 50
271.1859203831583045
 51
289.8481799257023113
  0
LINE
  5
31B0C
  8
0
 10
6729.2332601801736018
 20
155.3153398615515925
 30
0.0
 11
6729.2271143384887182
 21
155.2369598022550008
 31
0.0
  0
ARC
  5
31B0D
  8
0
 10
6729.1695138263903573
 20
155.2490415549549994
 30
0.0
 40
0.0911201021540354
 50
88.8168720588193992
 51
120.3438859522290016
  0
ARC
  5
31B0E
  8
0
 10
6729.1478119347866595
 20
155.2861146742775986
 30
0.0
 40
0.048162119479436
 50
120.3438859522290016
 51
142.6409015527264899
  0
ARC
  5
31B0F
  8
0
 10
6729.1351487489182546
 20
155.29578209469841
 30
0.0
 40
0.032230537826929
 50
142.6409015527264899
 51
226.3259653020716087
  0
ARC
  5
31B10
  8
0
 10
6729.1709345192903129
 20
155.194530288787206
 30
0.0
 40
0.079340770950467
 50
89.6672641510954236
 51
115.1561577230663005
  0
ARC
  5
31B11
  8
0
 10
6729.1563319781489554
 20
155.2256244306084909
 30
0.0
 40
0.0449884804392454
 50
115.1563886431813017
 51
138.1633309578110129
  0
ARC
  5
31B12
  8
0
 10
6729.1436703726021733
 20
155.2369598022550008
 30
0.0
 40
0.0279941606418049
 50
138.1633309578110129
 51
181.5048097872195001
  0
ARC
  5
31B13
  8
0
 10
6729.1395247061809641
 20
155.2368508959052065
 30
0.0
 40
0.0238470639869637
 50
181.5048097872195001
 51
207.527768699148595
  0
ARC
  5
31B14
  8
0
 10
6729.1598109074466265
 20
155.2474237231571976
 30
0.0
 40
0.0467231352827748
 50
207.527768699148595
 51
232.1700948409574892
  0
ARC
  5
31B15
  8
0
 10
6729.1564638561176253
 20
155.2431133779234074
 30
0.0
 40
0.0412658622785049
 50
232.1700948409585123
 51
244.8767284065474996
  0
ARC
  5
31B16
  8
0
 10
6729.1725885357191146
 20
155.2774995183652038
 30
0.0
 40
0.079244961092701
 50
244.8767284065474996
 51
259.7246551703494788
  0
ARC
  5
31B17
  8
0
 10
6729.1713688438139798
 20
155.2777518297328072
 30
0.0
 40
0.0792854363870859
 50
260.624493165157503
 51
270.0191007124340103
  0
ARC
  5
31B18
  8
0
 10
6729.1708939169584482
 20
155.2082114216619004
 30
0.0
 40
0.0402770249013154
 50
89.286778142406277
 51
119.5133889691672948
  0
ARC
  5
31B19
  8
0
 10
6729.1610195951798232
 20
155.2256547142548015
 30
0.0
 40
0.0202328066061988
 50
119.5133889691672948
 51
145.3923658269283976
  0
ARC
  5
31B1A
  8
0
 10
6729.1554562001756494
 20
155.2294937375403947
 30
0.0
 40
0.0134734084263372
 50
145.3923658269283976
 51
219.3393962567222957
  0
ARC
  5
31B1B
  8
0
 10
6729.1639619147190388
 20
155.2364653562624994
 30
0.0
 40
0.0244711649009719
 50
219.3393962567222957
 51
250.1518200742976887
  0
ARC
  5
31B1C
  8
0
 10
6729.1724171563337222
 20
155.2598888733548108
 30
0.0
 40
0.0493740214388993
 50
250.1518200742976887
 51
268.8140796168418092
  0
LINE
  5
31B1D
  8
0
 10
6729.1095303702750243
 20
155.3153398615515925
 30
0.0
 11
6729.115676211959908
 21
155.2369598022550008
 31
0.0
  0
ARC
  5
31B1E
  8
0
 10
6729.8071593038521314
 20
154.9202170000347962
 30
0.0
 40
0.0911201021540354
 50
59.6561140477709486
 51
91.1831279411805866
  0
ARC
  5
31B1F
  8
0
 10
6729.8288611954540102
 20
154.9572901193573102
 30
0.0
 40
0.048162119479436
 50
37.3590984472734533
 51
59.6561140477709486
  0
ARC
  5
31B20
  8
0
 10
6729.8415243813242341
 20
154.9669575397780932
 30
0.0
 40
0.032230537826929
 50
313.6740346979283913
 51
37.3590984472734533
  0
ARC
  5
31B21
  8
0
 10
6729.8057386109521758
 20
154.8657057338668892
 30
0.0
 40
0.07934077095047
 50
64.8438422769343532
 51
90.3327358489045906
  0
ARC
  5
31B22
  8
0
 10
6729.8203411520953523
 20
154.8967998756882025
 30
0.0
 40
0.0449884804392454
 50
41.8366690421890013
 51
64.8436113568186698
  0
ARC
  5
31B23
  8
0
 10
6729.8330027576412249
 20
154.9081352473347977
 30
0.0
 40
0.0279941606418049
 50
358.4951902127805852
 51
41.8366690421890013
  0
ARC
  5
31B24
  8
0
 10
6729.8371484240624341
 20
154.9080263409848897
 30
0.0
 40
0.0238470639869637
 50
332.4722313008514902
 51
358.4951902127805852
  0
ARC
  5
31B25
  8
0
 10
6729.8168622227940432
 20
154.9185991682369092
 30
0.0
 40
0.0467231352827748
 50
307.8299051590415161
 51
332.4722313008514902
  0
ARC
  5
31B26
  8
0
 10
6729.8202092741248634
 20
154.9142888230030906
 30
0.0
 40
0.0412658622785049
 50
295.1232715934525004
 51
307.8299051590415161
  0
ARC
  5
31B27
  8
0
 10
6729.8040845945233741
 20
154.948674963444887
 30
0.0
 40
0.079244961092701
 50
280.2753448296504075
 51
295.1232715934525004
  0
ARC
  5
31B28
  8
0
 10
6729.8053042864294184
 20
154.9489272748124904
 30
0.0
 40
0.0792854363870778
 50
269.9808992875659897
 51
279.375506834842497
  0
ARC
  5
31B29
  8
0
 10
6729.805779213283131
 20
154.879386866741612
 30
0.0
 40
0.0402770249013154
 50
60.4866110308327194
 51
90.7132218575937657
  0
ARC
  5
31B2A
  8
0
 10
6729.8156535350608465
 20
154.8968301593345132
 30
0.0
 40
0.0202328066061988
 50
34.6076341730715882
 51
60.4866110308327194
  0
ARC
  5
31B2B
  8
0
 10
6729.8212169300659298
 20
154.9006691826201916
 30
0.0
 40
0.0134734084263372
 50
320.6606037432777043
 51
34.6076341730715882
  0
ARC
  5
31B2C
  8
0
 10
6729.8127112155243594
 20
154.907640801342211
 30
0.0
 40
0.0244711649009719
 50
289.8481799257023113
 51
320.6606037432777043
  0
ARC
  5
31B2D
  8
0
 10
6729.8042559739069475
 20
154.931064318434494
 30
0.0
 40
0.0493740214388993
 50
271.1859203831583045
 51
289.8481799257023113
  0
LINE
  5
31B2E
  8
0
 10
6729.8671427599683739
 20
154.9865153066313042
 30
0.0
 11
6729.8609969182816712
 21
154.9081352473347977
 31
0.0
  0
ARC
  5
31B2F
  8
0
 10
6729.8033964061842198
 20
154.9202170000347962
 30
0.0
 40
0.0911201021540354
 50
88.8168720588193992
 51
120.3438859522290016
  0
ARC
  5
31B30
  8
0
 10
6729.7816945145814316
 20
154.9572901193573102
 30
0.0
 40
0.048162119479436
 50
120.3438859522290016
 51
142.6409015527264899
  0
ARC
  5
31B31
  8
0
 10
6729.7690313287121171
 20
154.9669575397780932
 30
0.0
 40
0.032230537826929
 50
142.6409015527264899
 51
226.3259653020716087
  0
ARC
  5
31B32
  8
0
 10
6729.8048170990841754
 20
154.8657057338668892
 30
0.0
 40
0.079340770950467
 50
89.6672641510954236
 51
115.1561577230663005
  0
ARC
  5
31B33
  8
0
 10
6729.7902145579409989
 20
154.8967998756882025
 30
0.0
 40
0.0449884804392454
 50
115.1563886431813017
 51
138.1633309578110129
  0
ARC
  5
31B34
  8
0
 10
6729.7775529523951263
 20
154.9081352473347977
 30
0.0
 40
0.0279941606418049
 50
138.1633309578110129
 51
181.5048097872195001
  0
ARC
  5
31B35
  8
0
 10
6729.7734072859748267
 20
154.9080263409848897
 30
0.0
 40
0.0238470639869637
 50
181.5048097872195001
 51
207.527768699148595
  0
ARC
  5
31B36
  8
0
 10
6729.7936934872413985
 20
154.9185991682369092
 30
0.0
 40
0.0467231352827748
 50
207.527768699148595
 51
232.1700948409574892
  0
ARC
  5
31B37
  8
0
 10
6729.7903464359105783
 20
154.9142888230030906
 30
0.0
 40
0.0412658622785049
 50
232.1700948409585123
 51
244.8767284065474996
  0
ARC
  5
31B38
  8
0
 10
6729.8064711155129771
 20
154.948674963444887
 30
0.0
 40
0.079244961092701
 50
244.8767284065474996
 51
259.7246551703494788
  0
ARC
  5
31B39
  8
0
 10
6729.8052514236069328
 20
154.9489272748124904
 30
0.0
 40
0.0792854363870859
 50
260.624493165157503
 51
270.0191007124340103
  0
ARC
  5
31B3A
  8
0
 10
6729.8047764967523108
 20
154.879386866741612
 30
0.0
 40
0.0402770249013154
 50
89.286778142406277
 51
119.5133889691672948
  0
ARC
  5
31B3B
  8
0
 10
6729.7949021749736858
 20
154.8968301593345132
 30
0.0
 40
0.0202328066061988
 50
119.5133889691672948
 51
145.3923658269283976
  0
ARC
  5
31B3C
  8
0
 10
6729.7893387799704215
 20
154.9006691826201916
 30
0.0
 40
0.0134734084263372
 50
145.3923658269283976
 51
219.3393962567222957
  0
ARC
  5
31B3D
  8
0
 10
6729.7978444945129013
 20
154.907640801342211
 30
0.0
 40
0.0244711649009719
 50
219.3393962567222957
 51
250.1518200742976887
  0
ARC
  5
31B3E
  8
0
 10
6729.8062997361266753
 20
154.931064318434494
 30
0.0
 40
0.0493740214388993
 50
250.1518200742976887
 51
268.8140796168418092
  0
LINE
  5
31B3F
  8
0
 10
6729.7434129500679774
 20
154.9865153066313042
 30
0.0
 11
6729.7495587917537705
 21
154.9081352473347977
 31
0.0
  0
ARC
  5
31B40
  8
0
 10
6729.2552692438257509
 20
154.9206423291105068
 30
0.0
 40
0.0911201021540354
 50
59.6561140477709486
 51
91.1831279411805866
  0
ARC
  5
31B41
  8
0
 10
6729.2769711354303581
 20
154.9577154484329924
 30
0.0
 40
0.048162119479436
 50
37.3590984472734533
 51
59.6561140477709486
  0
ARC
  5
31B42
  8
0
 10
6729.2896343212969441
 20
154.9673828688538038
 30
0.0
 40
0.032230537826929
 50
313.6740346979283913
 51
37.3590984472734533
  0
ARC
  5
31B43
  8
0
 10
6729.2538485509248858
 20
154.8661310629425998
 30
0.0
 40
0.07934077095047
 50
64.8438422769343532
 51
90.3327358489045906
  0
ARC
  5
31B44
  8
0
 10
6729.2684510920671528
 20
154.8972252047639131
 30
0.0
 40
0.0449884804392454
 50
41.8366690421890013
 51
64.8436113568186698
  0
ARC
  5
31B45
  8
0
 10
6729.2811126976148444
 20
154.9085605764105082
 30
0.0
 40
0.0279941606418049
 50
358.4951902127805852
 51
41.8366690421890013
  0
ARC
  5
31B46
  8
0
 10
6729.285258364035144
 20
154.9084516700606002
 30
0.0
 40
0.0238470639869637
 50
332.4722313008514902
 51
358.4951902127805852
  0
ARC
  5
31B47
  8
0
 10
6729.2649721627676627
 20
154.9190244973125914
 30
0.0
 40
0.0467231352827748
 50
307.8299051590415161
 51
332.4722313008514902
  0
ARC
  5
31B48
  8
0
 10
6729.2683192140993924
 20
154.9147141520788011
 30
0.0
 40
0.0412658622785049
 50
295.1232715934525004
 51
307.8299051590415161
  0
ARC
  5
31B49
  8
0
 10
6729.2521945344969936
 20
154.9491002925205976
 30
0.0
 40
0.079244961092701
 50
280.2753448296504075
 51
295.1232715934525004
  0
ARC
  5
31B4A
  8
0
 10
6729.2534142264030379
 20
154.949352603888201
 30
0.0
 40
0.0792854363870778
 50
269.9808992875659897
 51
279.375506834842497
  0
ARC
  5
31B4B
  8
0
 10
6729.2538891532567504
 20
154.8798121958174079
 30
0.0
 40
0.0402770249013154
 50
60.4866110308327194
 51
90.7132218575937657
  0
ARC
  5
31B4C
  8
0
 10
6729.2637634750362849
 20
154.8972554884101953
 30
0.0
 40
0.0202328066061988
 50
34.6076341730715882
 51
60.4866110308327194
  0
ARC
  5
31B4D
  8
0
 10
6729.2693268700377303
 20
154.9010945116957885
 30
0.0
 40
0.0134734084263372
 50
320.6606037432777043
 51
34.6076341730715882
  0
ARC
  5
31B4E
  8
0
 10
6729.2608211554979789
 20
154.9080661304178932
 30
0.0
 40
0.0244711649009719
 50
289.8481799257023113
 51
320.6606037432777043
  0
ARC
  5
31B4F
  8
0
 10
6729.2523659138823859
 20
154.9314896475102046
 30
0.0
 40
0.0493740214388993
 50
271.1859203831583045
 51
289.8481799257023113
  0
LINE
  5
31B50
  8
0
 10
6729.3152526999419933
 20
154.9869406357071
 30
0.0
 11
6729.3091068582571097
 21
154.9085605764105082
 31
0.0
  0
ARC
  5
31B51
  8
0
 10
6729.2515063461578393
 20
154.9206423291105068
 30
0.0
 40
0.0911201021540354
 50
88.8168720588193992
 51
120.3438859522290016
  0
ARC
  5
31B52
  8
0
 10
6729.2298044545541416
 20
154.9577154484329924
 30
0.0
 40
0.048162119479436
 50
120.3438859522290016
 51
142.6409015527264899
  0
ARC
  5
31B53
  8
0
 10
6729.2171412686848271
 20
154.9673828688538038
 30
0.0
 40
0.032230537826929
 50
142.6409015527264899
 51
226.3259653020716087
  0
ARC
  5
31B54
  8
0
 10
6729.2529270390568854
 20
154.8661310629425998
 30
0.0
 40
0.079340770950467
 50
89.6672641510954236
 51
115.1561577230663005
  0
ARC
  5
31B55
  8
0
 10
6729.2383244979173469
 20
154.8972252047639131
 30
0.0
 40
0.0449884804392454
 50
115.1563886431813017
 51
138.1633309578110129
  0
ARC
  5
31B56
  8
0
 10
6729.2256628923687458
 20
154.9085605764105082
 30
0.0
 40
0.0279941606418049
 50
138.1633309578110129
 51
181.5048097872195001
  0
ARC
  5
31B57
  8
0
 10
6729.2215172259493556
 20
154.9084516700606002
 30
0.0
 40
0.0238470639869637
 50
181.5048097872195001
 51
207.527768699148595
  0
ARC
  5
31B58
  8
0
 10
6729.2418034272141085
 20
154.9190244973125914
 30
0.0
 40
0.0467231352827748
 50
207.527768699148595
 51
232.1700948409574892
  0
ARC
  5
31B59
  8
0
 10
6729.2384563758860168
 20
154.9147141520788011
 30
0.0
 40
0.0412658622785049
 50
232.1700948409585123
 51
244.8767284065474996
  0
ARC
  5
31B5A
  8
0
 10
6729.2545810554865966
 20
154.9491002925205976
 30
0.0
 40
0.079244961092701
 50
244.8767284065474996
 51
259.7246551703494788
  0
ARC
  5
31B5B
  8
0
 10
6729.2533613635805523
 20
154.9493526038882862
 30
0.0
 40
0.0792854363870859
 50
260.624493165157503
 51
270.0191007124340103
  0
ARC
  5
31B5C
  8
0
 10
6729.2528864367250208
 20
154.8798121958174079
 30
0.0
 40
0.0402770249013154
 50
89.286778142406277
 51
119.5133889691672948
  0
ARC
  5
31B5D
  8
0
 10
6729.2430121149482147
 20
154.8972554884101953
 30
0.0
 40
0.0202328066061988
 50
119.5133889691672948
 51
145.3923658269283976
  0
ARC
  5
31B5E
  8
0
 10
6729.2374487199440409
 20
154.9010945116957885
 30
0.0
 40
0.0134734084263372
 50
145.3923658269283976
 51
219.3393962567222957
  0
ARC
  5
31B5F
  8
0
 10
6729.2459544344856113
 20
154.9080661304178932
 30
0.0
 40
0.0244711649009719
 50
219.3393962567222957
 51
250.1518200742976887
  0
ARC
  5
31B60
  8
0
 10
6729.2544096761021137
 20
154.9314896475102046
 30
0.0
 40
0.0493740214388993
 50
250.1518200742976887
 51
268.8140796168418092
  0
LINE
  5
31B61
  8
0
 10
6729.1915228900415968
 20
154.9869406357071
 30
0.0
 11
6729.19766873172739
 21
154.9085605764105082
 31
0.0
  0
ARC
  5
31B62
  8
0
 10
6728.0470187788041585
 20
155.128320545173807
 30
0.0
 40
0.0911201021540354
 50
59.6561140477709486
 51
91.1831279411805866
  0
ARC
  5
31B63
  8
0
 10
6728.0687206704069467
 20
155.1653936644962926
 30
0.0
 40
0.048162119479436
 50
37.3590984472734533
 51
59.6561140477709486
  0
ARC
  5
31B64
  8
0
 10
6728.0813838562771707
 20
155.1750610849171039
 30
0.0
 40
0.032230537826929
 50
313.6740346979283913
 51
37.3590984472734533
  0
ARC
  5
31B65
  8
0
 10
6728.0455980859051124
 20
155.0738092790059
 30
0.0
 40
0.07934077095047
 50
64.8438422769343532
 51
90.3327358489045906
  0
ARC
  5
31B66
  8
0
 10
6728.0602006270473794
 20
155.1049034208272985
 30
0.0
 40
0.0449884804392454
 50
41.8366690421890013
 51
64.8436113568186698
  0
ARC
  5
31B67
  8
0
 10
6728.072862232593252
 20
155.1162387924738084
 30
0.0
 40
0.0279941606418049
 50
358.4951902127805852
 51
41.8366690421890013
  0
ARC
  5
31B68
  8
0
 10
6728.0770078990126422
 20
155.1161298861239004
 30
0.0
 40
0.0238470639869637
 50
332.4722313008514902
 51
358.4951902127805852
  0
ARC
  5
31B69
  8
0
 10
6728.0567216977469798
 20
155.1267027133758916
 30
0.0
 40
0.0467231352827748
 50
307.8299051590415161
 51
332.4722313008514902
  0
ARC
  5
31B6A
  8
0
 10
6728.0600687490768905
 20
155.1223923681421013
 30
0.0
 40
0.0412658622785049
 50
295.1232715934525004
 51
307.8299051590415161
  0
ARC
  5
31B6B
  8
0
 10
6728.0439440694763107
 20
155.1567785085838977
 30
0.0
 40
0.079244961092701
 50
280.2753448296504075
 51
295.1232715934525004
  0
ARC
  5
31B6C
  8
0
 10
6728.045163761382355
 20
155.1570308199515864
 30
0.0
 40
0.0792854363870778
 50
269.9808992875659897
 51
279.375506834842497
  0
ARC
  5
31B6D
  8
0
 10
6728.0456386882360675
 20
155.0874904118805944
 30
0.0
 40
0.0402770249013154
 50
60.4866110308327194
 51
90.7132218575937657
  0
ARC
  5
31B6E
  8
0
 10
6728.055513010015602
 20
155.1049337044734955
 30
0.0
 40
0.0202328066061988
 50
34.6076341730715882
 51
60.4866110308327194
  0
ARC
  5
31B6F
  8
0
 10
6728.0610764050179569
 20
155.1087727277592023
 30
0.0
 40
0.0134734084263372
 50
320.6606037432777043
 51
34.6076341730715882
  0
ARC
  5
31B70
  8
0
 10
6728.052570690477296
 20
155.1157443464811934
 30
0.0
 40
0.0244711649009719
 50
289.8481799257023113
 51
320.6606037432777043
  0
ARC
  5
31B71
  8
0
 10
6728.0441154488607935
 20
155.1391678635735047
 30
0.0
 40
0.0493740214388993
 50
271.1859203831583045
 51
289.8481799257023113
  0
LINE
  5
31B72
  8
0
 10
6728.1070022349213104
 20
155.1946188517702865
 30
0.0
 11
6728.1008563932336983
 21
155.1162387924738084
 31
0.0
  0
ARC
  5
31B73
  8
0
 10
6728.0432558811371564
 20
155.128320545173807
 30
0.0
 40
0.0911201021540354
 50
88.8168720588193992
 51
120.3438859522290016
  0
ARC
  5
31B74
  8
0
 10
6728.0215539895343682
 20
155.1653936644962926
 30
0.0
 40
0.048162119479436
 50
120.3438859522290016
 51
142.6409015527264899
  0
ARC
  5
31B75
  8
0
 10
6728.0088908036641442
 20
155.1750610849171039
 30
0.0
 40
0.032230537826929
 50
142.6409015527264899
 51
226.3259653020716087
  0
ARC
  5
31B76
  8
0
 10
6728.0446765740362025
 20
155.0738092790059
 30
0.0
 40
0.079340770950467
 50
89.6672641510954236
 51
115.1561577230663005
  0
ARC
  5
31B77
  8
0
 10
6728.030074032893026
 20
155.1049034208272985
 30
0.0
 40
0.0449884804392454
 50
115.1563886431813017
 51
138.1633309578110129
  0
ARC
  5
31B78
  8
0
 10
6728.0174124273480629
 20
155.1162387924738084
 30
0.0
 40
0.0279941606418049
 50
138.1633309578110129
 51
181.5048097872195001
  0
ARC
  5
31B79
  8
0
 10
6728.0132667609259443
 20
155.1161298861239004
 30
0.0
 40
0.0238470639869637
 50
181.5048097872195001
 51
207.527768699148595
  0
ARC
  5
31B7A
  8
0
 10
6728.0335529621943351
 20
155.1267027133758916
 30
0.0
 40
0.0467231352827748
 50
207.527768699148595
 51
232.1700948409574892
  0
ARC
  5
31B7B
  8
0
 10
6728.0302059108626054
 20
155.1223923681421013
 30
0.0
 40
0.0412658622785049
 50
232.1700948409585123
 51
244.8767284065474996
  0
ARC
  5
31B7C
  8
0
 10
6728.0463305904650042
 20
155.1567785085838977
 30
0.0
 40
0.079244961092701
 50
244.8767284065474996
 51
259.7246551703494788
  0
ARC
  5
31B7D
  8
0
 10
6728.0451108985598694
 20
155.1570308199515864
 30
0.0
 40
0.0792854363870859
 50
260.624493165157503
 51
270.0191007124340103
  0
ARC
  5
31B7E
  8
0
 10
6728.0446359717052474
 20
155.0874904118805944
 30
0.0
 40
0.0402770249013154
 50
89.286778142406277
 51
119.5133889691672948
  0
ARC
  5
31B7F
  8
0
 10
6728.0347616499266223
 20
155.1049337044734955
 30
0.0
 40
0.0202328066061988
 50
119.5133889691672948
 51
145.3923658269283976
  0
ARC
  5
31B80
  8
0
 10
6728.0291982549224485
 20
155.1087727277592023
 30
0.0
 40
0.0134734084263372
 50
145.3923658269283976
 51
219.3393962567222957
  0
ARC
  5
31B81
  8
0
 10
6728.0377039694658379
 20
155.1157443464811934
 30
0.0
 40
0.0244711649009719
 50
219.3393962567222957
 51
250.1518200742976887
  0
ARC
  5
31B82
  8
0
 10
6728.0461592110814308
 20
155.1391678635735047
 30
0.0
 40
0.0493740214388993
 50
250.1518200742976887
 51
268.8140796168418092
  0
LINE
  5
31B83
  8
0
 10
6727.9832724250200044
 20
155.1946188517702865
 30
0.0
 11
6727.9894182667057976
 21
155.1162387924738084
 31
0.0
  0
ARC
  5
31B84
  8
0
 10
6728.7035529664563001
 20
154.9202304687887874
 30
0.0
 40
0.0911201021540354
 50
59.6561140477709486
 51
91.1831279411805866
  0
ARC
  5
31B85
  8
0
 10
6728.7252548580590883
 20
154.9573035881113015
 30
0.0
 40
0.048162119479436
 50
37.3590984472734533
 51
59.6561140477709486
  0
ARC
  5
31B86
  8
0
 10
6728.7379180439293123
 20
154.9669710085321981
 30
0.0
 40
0.032230537826929
 50
313.6740346979283913
 51
37.3590984472734533
  0
ARC
  5
31B87
  8
0
 10
6728.7021322735572539
 20
154.8657192026209941
 30
0.0
 40
0.07934077095047
 50
64.8438422769343532
 51
90.3327358489045906
  0
ARC
  5
31B88
  8
0
 10
6728.7167348147004304
 20
154.8968133444423074
 30
0.0
 40
0.0449884804392454
 50
41.8366690421890013
 51
64.8436113568186698
  0
ARC
  5
31B89
  8
0
 10
6728.729396420246303
 20
154.9081487160887889
 30
0.0
 40
0.0279941606418049
 50
358.4951902127805852
 51
41.8366690421890013
  0
ARC
  5
31B8A
  8
0
 10
6728.7335420866647837
 20
154.9080398097389946
 30
0.0
 40
0.0238470639869637
 50
332.4722313008514902
 51
358.4951902127805852
  0
ARC
  5
31B8B
  8
0
 10
6728.7132558853991213
 20
154.9186126369909005
 30
0.0
 40
0.0467231352827748
 50
307.8299051590415161
 51
332.4722313008514902
  0
ARC
  5
31B8C
  8
0
 10
6728.7166029367299416
 20
154.9143022917571955
 30
0.0
 40
0.0412658622785049
 50
295.1232715934525004
 51
307.8299051590415161
  0
ARC
  5
31B8D
  8
0
 10
6728.7004782571284522
 20
154.9486884321989919
 30
0.0
 40
0.079244961092701
 50
280.2753448296504075
 51
295.1232715934525004
  0
ARC
  5
31B8E
  8
0
 10
6728.7016979490326776
 20
154.9489407435665953
 30
0.0
 40
0.0792854363870778
 50
269.9808992875659897
 51
279.375506834842497
  0
ARC
  5
31B8F
  8
0
 10
6728.7021728758882091
 20
154.8794003354956885
 30
0.0
 40
0.0402770249013154
 50
60.4866110308327194
 51
90.7132218575937657
  0
ARC
  5
31B90
  8
0
 10
6728.7120471976659246
 20
154.8968436280885044
 30
0.0
 40
0.0202328066061988
 50
34.6076341730715882
 51
60.4866110308327194
  0
ARC
  5
31B91
  8
0
 10
6728.7176105926710079
 20
154.9006826513742112
 30
0.0
 40
0.0134734084263372
 50
320.6606037432777043
 51
34.6076341730715882
  0
ARC
  5
31B92
  8
0
 10
6728.7091048781267091
 20
154.9076542700962875
 30
0.0
 40
0.0244711649009719
 50
289.8481799257023113
 51
320.6606037432777043
  0
ARC
  5
31B93
  8
0
 10
6728.7006496365120256
 20
154.9310777871885989
 30
0.0
 40
0.0493740214388993
 50
271.1859203831583045
 51
289.8481799257023113
  0
LINE
  5
31B94
  8
0
 10
6728.763536422571633
 20
154.9865287753854091
 30
0.0
 11
6728.7573905808867494
 21
154.9081487160887889
 31
0.0
  0
ARC
  5
31B95
  8
0
 10
6728.6997900687865695
 20
154.9202304687887874
 30
0.0
 40
0.0911201021540354
 50
88.8168720588193992
 51
120.3438859522290016
  0
ARC
  5
31B96
  8
0
 10
6728.6780881771846907
 20
154.9573035881113015
 30
0.0
 40
0.048162119479436
 50
120.3438859522290016
 51
142.6409015527264899
  0
ARC
  5
31B97
  8
0
 10
6728.6654249913171952
 20
154.9669710085321981
 30
0.0
 40
0.032230537826929
 50
142.6409015527264899
 51
226.3259653020716087
  0
ARC
  5
31B98
  8
0
 10
6728.7012107616892536
 20
154.8657192026209941
 30
0.0
 40
0.079340770950467
 50
89.6672641510954236
 51
115.1561577230663005
  0
ARC
  5
31B99
  8
0
 10
6728.6866082205460771
 20
154.8968133444423074
 30
0.0
 40
0.0449884804392454
 50
115.1563886431813017
 51
138.1633309578110129
  0
ARC
  5
31B9A
  8
0
 10
6728.6739466150002045
 20
154.9081487160887889
 30
0.0
 40
0.0279941606418049
 50
138.1633309578110129
 51
181.5048097872195001
  0
ARC
  5
31B9B
  8
0
 10
6728.6698009485789953
 20
154.9080398097389946
 30
0.0
 40
0.0238470639869637
 50
181.5048097872195001
 51
207.527768699148595
  0
ARC
  5
31B9C
  8
0
 10
6728.6900871498455672
 20
154.9186126369909005
 30
0.0
 40
0.0467231352827748
 50
207.527768699148595
 51
232.1700948409574892
  0
ARC
  5
31B9D
  8
0
 10
6728.6867400985138374
 20
154.9143022917571955
 30
0.0
 40
0.0412658622785049
 50
232.1700948409585123
 51
244.8767284065474996
  0
ARC
  5
31B9E
  8
0
 10
6728.7028647781171458
 20
154.9486884321989919
 30
0.0
 40
0.079244961092701
 50
244.8767284065474996
 51
259.7246551703494788
  0
ARC
  5
31B9F
  8
0
 10
6728.7016450862111014
 20
154.9489407435665953
 30
0.0
 40
0.0792854363870859
 50
260.624493165157503
 51
270.0191007124340103
  0
ARC
  5
31BA0
  8
0
 10
6728.7011701593573889
 20
154.8794003354956885
 30
0.0
 40
0.0402770249013154
 50
89.286778142406277
 51
119.5133889691672948
  0
ARC
  5
31BA1
  8
0
 10
6728.6912958375787639
 20
154.8968436280885044
 30
0.0
 40
0.0202328066061988
 50
119.5133889691672948
 51
145.3923658269283976
  0
ARC
  5
31BA2
  8
0
 10
6728.6857324425745901
 20
154.9006826513742112
 30
0.0
 40
0.0134734084263372
 50
145.3923658269283976
 51
219.3393962567222957
  0
ARC
  5
31BA3
  8
0
 10
6728.6942381571170699
 20
154.9076542700962875
 30
0.0
 40
0.0244711649009719
 50
219.3393962567222957
 51
250.1518200742976887
  0
ARC
  5
31BA4
  8
0
 10
6728.7026933987317534
 20
154.9310777871885989
 30
0.0
 40
0.0493740214388993
 50
250.1518200742976887
 51
268.8140796168418092
  0
LINE
  5
31BA5
  8
0
 10
6728.639806612672146
 20
154.9865287753854091
 30
0.0
 11
6728.6459524543570296
 21
154.9081487160887889
 31
0.0
  0
ARC
  5
31BA6
  8
0
 10
6729.1745430276050683
 20
154.5915246751982011
 30
0.0
 40
0.0911201021540354
 50
59.6561140477709486
 51
91.1831279411805866
  0
ARC
  5
31BA7
  8
0
 10
6729.1962449192078566
 20
154.6285977945208003
 30
0.0
 40
0.048162119479436
 50
37.3590984472734533
 51
59.6561140477709486
  0
ARC
  5
31BA8
  8
0
 10
6729.2089081050780806
 20
154.6382652149416117
 30
0.0
 40
0.032230537826929
 50
313.6740346979283913
 51
37.3590984472734533
  0
ARC
  5
31BA9
  8
0
 10
6729.1731223347060222
 20
154.5370134090304077
 30
0.0
 40
0.07934077095047
 50
64.8438422769343532
 51
90.3327358489045906
  0
ARC
  5
31BAA
  8
0
 10
6729.1877248758482892
 20
154.5681075508516926
 30
0.0
 40
0.0449884804392454
 50
41.8366690421890013
 51
64.8436113568186698
  0
ARC
  5
31BAB
  8
0
 10
6729.2003864813941618
 20
154.5794429224982025
 30
0.0
 40
0.0279941606418049
 50
358.4951902127805852
 51
41.8366690421890013
  0
ARC
  5
31BAC
  8
0
 10
6729.204532147813552
 20
154.5793340161484082
 30
0.0
 40
0.0238470639869637
 50
332.4722313008514902
 51
358.4951902127805852
  0
ARC
  5
31BAD
  8
0
 10
6729.1842459465478896
 20
154.5899068434003993
 30
0.0
 40
0.0467231352827748
 50
307.8299051590415161
 51
332.4722313008514902
  0
ARC
  5
31BAE
  8
0
 10
6729.1875929978778004
 20
154.5855964981666091
 30
0.0
 40
0.0412658622785049
 50
295.1232715934525004
 51
307.8299051590415161
  0
ARC
  5
31BAF
  8
0
 10
6729.1714683182772205
 20
154.6199826386084055
 30
0.0
 40
0.079244961092701
 50
280.2753448296504075
 51
295.1232715934525004
  0
ARC
  5
31BB0
  8
0
 10
6729.1726880101823554
 20
154.6202349499760089
 30
0.0
 40
0.0792854363870778
 50
269.9808992875659897
 51
279.375506834842497
  0
ARC
  5
31BB1
  8
0
 10
6729.1731629370369774
 20
154.5506945419051021
 30
0.0
 40
0.0402770249013154
 50
60.4866110308327194
 51
90.7132218575937657
  0
ARC
  5
31BB2
  8
0
 10
6729.1830372588146929
 20
154.5681378344980033
 30
0.0
 40
0.0202328066061988
 50
34.6076341730715882
 51
60.4866110308327194
  0
ARC
  5
31BB3
  8
0
 10
6729.1886006538188667
 20
154.5719768577835964
 30
0.0
 40
0.0134734084263372
 50
320.6606037432777043
 51
34.6076341730715882
  0
ARC
  5
31BB4
  8
0
 10
6729.1800949392782059
 20
154.5789484765057011
 30
0.0
 40
0.0244711649009719
 50
289.8481799257023113
 51
320.6606037432777043
  0
ARC
  5
31BB5
  8
0
 10
6729.1716396976617034
 20
154.6023719935980125
 30
0.0
 40
0.0493740214388993
 50
271.1859203831583045
 51
289.8481799257023113
  0
LINE
  5
31BB6
  8
0
 10
6729.2345264837213108
 20
154.6578229817947943
 30
0.0
 11
6729.2283806420373367
 21
154.5794429224982025
 31
0.0
  0
ARC
  5
31BB7
  8
0
 10
6729.1707801299380662
 20
154.5915246751982011
 30
0.0
 40
0.0911201021540354
 50
88.8168720588193992
 51
120.3438859522290016
  0
ARC
  5
31BB8
  8
0
 10
6729.149078238335278
 20
154.6285977945208003
 30
0.0
 40
0.048162119479436
 50
120.3438859522290016
 51
142.6409015527264899
  0
ARC
  5
31BB9
  8
0
 10
6729.136415052465054
 20
154.6382652149416117
 30
0.0
 40
0.032230537826929
 50
142.6409015527264899
 51
226.3259653020716087
  0
ARC
  5
31BBA
  8
0
 10
6729.1722008228371124
 20
154.5370134090304077
 30
0.0
 40
0.079340770950467
 50
89.6672641510954236
 51
115.1561577230663005
  0
ARC
  5
31BBB
  8
0
 10
6729.1575982816948454
 20
154.5681075508516926
 30
0.0
 40
0.0449884804392454
 50
115.1563886431813017
 51
138.1633309578110129
  0
ARC
  5
31BBC
  8
0
 10
6729.1449366761489728
 20
154.5794429224982025
 30
0.0
 40
0.0279941606418049
 50
138.1633309578110129
 51
181.5048097872195001
  0
ARC
  5
31BBD
  8
0
 10
6729.1407910097277636
 20
154.5793340161484082
 30
0.0
 40
0.0238470639869637
 50
181.5048097872195001
 51
207.527768699148595
  0
ARC
  5
31BBE
  8
0
 10
6729.161077210995245
 20
154.5899068434003993
 30
0.0
 40
0.0467231352827748
 50
207.527768699148595
 51
232.1700948409574892
  0
ARC
  5
31BBF
  8
0
 10
6729.1577301596653342
 20
154.5855964981666091
 30
0.0
 40
0.0412658622785049
 50
232.1700948409585123
 51
244.8767284065474996
  0
ARC
  5
31BC0
  8
0
 10
6729.1738548392659141
 20
154.6199826386084055
 30
0.0
 40
0.079244961092701
 50
244.8767284065474996
 51
259.7246551703494788
  0
ARC
  5
31BC1
  8
0
 10
6729.1726351473607792
 20
154.6202349499760089
 30
0.0
 40
0.0792854363870859
 50
260.624493165157503
 51
270.0191007124340103
  0
ARC
  5
31BC2
  8
0
 10
6729.1721602205061572
 20
154.5506945419051021
 30
0.0
 40
0.0402770249013154
 50
89.286778142406277
 51
119.5133889691672948
  0
ARC
  5
31BC3
  8
0
 10
6729.1622858987284417
 20
154.5681378344980033
 30
0.0
 40
0.0202328066061988
 50
119.5133889691672948
 51
145.3923658269283976
  0
ARC
  5
31BC4
  8
0
 10
6729.1567225037242679
 20
154.5719768577835964
 30
0.0
 40
0.0134734084263372
 50
145.3923658269283976
 51
219.3393962567222957
  0
ARC
  5
31BC5
  8
0
 10
6729.1652282182649287
 20
154.5789484765057011
 30
0.0
 40
0.0244711649009719
 50
219.3393962567222957
 51
250.1518200742976887
  0
ARC
  5
31BC6
  8
0
 10
6729.1736834598823407
 20
154.6023719935980125
 30
0.0
 40
0.0493740214388993
 50
250.1518200742976887
 51
268.8140796168418092
  0
LINE
  5
31BC7
  8
0
 10
6729.1107966738218238
 20
154.6578229817947943
 30
0.0
 11
6729.1169425155057979
 21
154.5794429224982025
 31
0.0
  0
ARC
  5
31BC8
  8
0
 10
6729.6977566515433864
 20
154.4821067856038894
 30
0.0
 40
0.0911201021540354
 50
59.6561140477709486
 51
91.1831279411805866
  0
ARC
  5
31BC9
  8
0
 10
6729.7194585431452651
 20
154.5191799049264034
 30
0.0
 40
0.048162119479436
 50
37.3590984472734533
 51
59.6561140477709486
  0
ARC
  5
31BCA
  8
0
 10
6729.7321217290136701
 20
154.5288473253471864
 30
0.0
 40
0.032230537826929
 50
313.6740346979283913
 51
37.3590984472734533
  0
ARC
  5
31BCB
  8
0
 10
6729.6963359586407023
 20
154.4275955194360108
 30
0.0
 40
0.07934077095047
 50
64.8438422769343532
 51
90.3327358489045906
  0
ARC
  5
31BCC
  8
0
 10
6729.7109384997838788
 20
154.4586896612574094
 30
0.0
 40
0.0449884804392454
 50
41.8366690421890013
 51
64.8436113568186698
  0
ARC
  5
31BCD
  8
0
 10
6729.7236001053297514
 20
154.4700250329038909
 30
0.0
 40
0.0279941606418049
 50
358.4951902127805852
 51
41.8366690421890013
  0
ARC
  5
31BCE
  8
0
 10
6729.7277457717509606
 20
154.4699161265540113
 30
0.0
 40
0.0238470639869637
 50
332.4722313008514902
 51
358.4951902127805852
  0
ARC
  5
31BCF
  8
0
 10
6729.7074595704843887
 20
154.4804889538060024
 30
0.0
 40
0.0467231352827748
 50
307.8299051590415161
 51
332.4722313008514902
  0
ARC
  5
31BD0
  8
0
 10
6729.7108066218161184
 20
154.4761786085722974
 30
0.0
 40
0.0412658622785049
 50
295.1232715934525004
 51
307.8299051590415161
  0
ARC
  5
31BD1
  8
0
 10
6729.6946819422128101
 20
154.5105647490140086
 30
0.0
 40
0.079244961092701
 50
280.2753448296504075
 51
295.1232715934525004
  0
ARC
  5
31BD2
  8
0
 10
6729.6959016341188544
 20
154.5108170603816973
 30
0.0
 40
0.0792854363870778
 50
269.9808992875659897
 51
279.375506834842497
  0
ARC
  5
31BD3
  8
0
 10
6729.6963765609725669
 20
154.4412766523107905
 30
0.0
 40
0.0402770249013154
 50
60.4866110308327194
 51
90.7132218575937657
  0
ARC
  5
31BD4
  8
0
 10
6729.7062508827521015
 20
154.4587199449036063
 30
0.0
 40
0.0202328066061988
 50
34.6076341730715882
 51
60.4866110308327194
  0
ARC
  5
31BD5
  8
0
 10
6729.7118142777553658
 20
154.4625589681893132
 30
0.0
 40
0.0134734084263372
 50
320.6606037432777043
 51
34.6076341730715882
  0
ARC
  5
31BD6
  8
0
 10
6729.7033085632128859
 20
154.4695305869113042
 30
0.0
 40
0.0244711649009719
 50
289.8481799257023113
 51
320.6606037432777043
  0
ARC
  5
31BD7
  8
0
 10
6729.6948533215982025
 20
154.4929541040035872
 30
0.0
 40
0.0493740214388993
 50
271.1859203831583045
 51
289.8481799257023113
  0
LINE
  5
31BD8
  8
0
 10
6729.7577401076578099
 20
154.548405092200511
 30
0.0
 11
6729.7515942659729262
 21
154.4700250329038909
 31
0.0
  0
ARC
  5
31BD9
  8
0
 10
6729.6939937538745653
 20
154.4821067856038894
 30
0.0
 40
0.0911201021540354
 50
88.8168720588193992
 51
120.3438859522290016
  0
ARC
  5
31BDA
  8
0
 10
6729.6722918622708676
 20
154.5191799049264034
 30
0.0
 40
0.048162119479436
 50
120.3438859522290016
 51
142.6409015527264899
  0
ARC
  5
31BDB
  8
0
 10
6729.6596286764006436
 20
154.5288473253471864
 30
0.0
 40
0.032230537826929
 50
142.6409015527264899
 51
226.3259653020716087
  0
ARC
  5
31BDC
  8
0
 10
6729.6954144467754304
 20
154.4275955194360108
 30
0.0
 40
0.079340770950467
 50
89.6672641510954236
 51
115.1561577230663005
  0
ARC
  5
31BDD
  8
0
 10
6729.6808119056304349
 20
154.4586896612574094
 30
0.0
 40
0.0449884804392454
 50
115.1563886431813017
 51
138.1633309578110129
  0
ARC
  5
31BDE
  8
0
 10
6729.6681503000845623
 20
154.4700250329038909
 30
0.0
 40
0.0279941606418049
 50
138.1633309578110129
 51
181.5048097872195001
  0
ARC
  5
31BDF
  8
0
 10
6729.6640046336651722
 20
154.4699161265540113
 30
0.0
 40
0.0238470639869637
 50
181.5048097872195001
 51
207.527768699148595
  0
ARC
  5
31BE0
  8
0
 10
6729.6842908349308345
 20
154.4804889538060024
 30
0.0
 40
0.0467231352827748
 50
207.527768699148595
 51
232.1700948409574892
  0
ARC
  5
31BE1
  8
0
 10
6729.6809437836000143
 20
154.4761786085722974
 30
0.0
 40
0.0412658622785049
 50
232.1700948409585123
 51
244.8767284065474996
  0
ARC
  5
31BE2
  8
0
 10
6729.6970684632024131
 20
154.5105647490140086
 30
0.0
 40
0.079244961092701
 50
244.8767284065474996
 51
259.7246551703494788
  0
ARC
  5
31BE3
  8
0
 10
6729.6958487712972783
 20
154.5108170603816973
 30
0.0
 40
0.0792854363870859
 50
260.624493165157503
 51
270.0191007124340103
  0
ARC
  5
31BE4
  8
0
 10
6729.6953738444417468
 20
154.4412766523107905
 30
0.0
 40
0.0402770249013154
 50
89.286778142406277
 51
119.5133889691672948
  0
ARC
  5
31BE5
  8
0
 10
6729.6854995226640312
 20
154.4587199449036063
 30
0.0
 40
0.0202328066061988
 50
119.5133889691672948
 51
145.3923658269283976
  0
ARC
  5
31BE6
  8
0
 10
6729.6799361276607669
 20
154.4625589681893132
 30
0.0
 40
0.0134734084263372
 50
145.3923658269283976
 51
219.3393962567222957
  0
ARC
  5
31BE7
  8
0
 10
6729.6884418422032468
 20
154.4695305869113042
 30
0.0
 40
0.0244711649009719
 50
219.3393962567222957
 51
250.1518200742976887
  0
ARC
  5
31BE8
  8
0
 10
6729.6968970838179303
 20
154.4929541040035872
 30
0.0
 40
0.0493740214388993
 50
250.1518200742976887
 51
268.8140796168418092
  0
LINE
  5
31BE9
  8
0
 10
6729.6340102977583228
 20
154.548405092200511
 30
0.0
 11
6729.6401561394432065
 21
154.4700250329038909
 31
0.0
  0
ARC
  5
31BEA
  8
0
 10
6728.493192144481327
 20
154.5036927087838023
 30
0.0
 40
0.0911201021540354
 50
59.6561140477709486
 51
91.1831279411805866
  0
ARC
  5
31BEB
  8
0
 10
6728.5148940360850247
 20
154.5407658281062879
 30
0.0
 40
0.048162119479436
 50
37.3590984472734533
 51
59.6561140477709486
  0
ARC
  5
31BEC
  8
0
 10
6728.5275572219552487
 20
154.550433248527213
 30
0.0
 40
0.032230537826929
 50
313.6740346979283913
 51
37.3590984472734533
  0
ARC
  5
31BED
  8
0
 10
6728.4917714515813714
 20
154.449181442616009
 30
0.0
 40
0.07934077095047
 50
64.8438422769343532
 51
90.3327358489045906
  0
ARC
  5
31BEE
  8
0
 10
6728.5063739927236384
 20
154.4802755844372939
 30
0.0
 40
0.0449884804392454
 50
41.8366690421890013
 51
64.8436113568186698
  0
ARC
  5
31BEF
  8
0
 10
6728.5190355982713299
 20
154.4916109560838038
 30
0.0
 40
0.0279941606418049
 50
358.4951902127805852
 51
41.8366690421890013
  0
ARC
  5
31BF0
  8
0
 10
6728.5231812646907201
 20
154.4915020497340095
 30
0.0
 40
0.0238470639869637
 50
332.4722313008514902
 51
358.4951902127805852
  0
ARC
  5
31BF1
  8
0
 10
6728.5028950634241482
 20
154.5020748769858869
 30
0.0
 40
0.0467231352827748
 50
307.8299051590415161
 51
332.4722313008514902
  0
ARC
  5
31BF2
  8
0
 10
6728.506242114755878
 20
154.4977645317522104
 30
0.0
 40
0.0412658622785049
 50
295.1232715934525004
 51
307.8299051590415161
  0
ARC
  5
31BF3
  8
0
 10
6728.4901174351525697
 20
154.5321506721940068
 30
0.0
 40
0.079244961092701
 50
280.2753448296504075
 51
295.1232715934525004
  0
ARC
  5
31BF4
  8
0
 10
6728.491337127058614
 20
154.5324029835616102
 30
0.0
 40
0.0792854363870778
 50
269.9808992875659897
 51
279.375506834842497
  0
ARC
  5
31BF5
  8
0
 10
6728.491812053913236
 20
154.4628625754907034
 30
0.0
 40
0.0402770249013154
 50
60.4866110308327194
 51
90.7132218575937657
  0
ARC
  5
31BF6
  8
0
 10
6728.501686375691861
 20
154.4803058680834909
 30
0.0
 40
0.0202328066061988
 50
34.6076341730715882
 51
60.4866110308327194
  0
ARC
  5
31BF7
  8
0
 10
6728.5072497706951253
 20
154.4841448913691977
 30
0.0
 40
0.0134734084263372
 50
320.6606037432777043
 51
34.6076341730715882
  0
ARC
  5
31BF8
  8
0
 10
6728.4987440561526455
 20
154.4911165100913024
 30
0.0
 40
0.0244711649009719
 50
289.8481799257023113
 51
320.6606037432777043
  0
ARC
  5
31BF9
  8
0
 10
6728.490288814537962
 20
154.5145400271836138
 30
0.0
 40
0.0493740214388993
 50
271.1859203831583045
 51
289.8481799257023113
  0
LINE
  5
31BFA
  8
0
 10
6728.5531756005975694
 20
154.5699910153803955
 30
0.0
 11
6728.5470297589108668
 21
154.4916109560838038
 31
0.0
  0
ARC
  5
31BFB
  8
0
 10
6728.4894292468134154
 20
154.5036927087838023
 30
0.0
 40
0.0911201021540354
 50
88.8168720588193992
 51
120.3438859522290016
  0
ARC
  5
31BFC
  8
0
 10
6728.4677273552097176
 20
154.5407658281062879
 30
0.0
 40
0.048162119479436
 50
120.3438859522290016
 51
142.6409015527264899
  0
ARC
  5
31BFD
  8
0
 10
6728.4550641693422222
 20
154.550433248527213
 30
0.0
 40
0.032230537826929
 50
142.6409015527264899
 51
226.3259653020716087
  0
ARC
  5
31BFE
  8
0
 10
6728.4908499397142805
 20
154.449181442616009
 30
0.0
 40
0.079340770950467
 50
89.6672641510954236
 51
115.1561577230663005
  0
ARC
  5
31BFF
  8
0
 10
6728.476247398571104
 20
154.4802755844372939
 30
0.0
 40
0.0449884804392454
 50
115.1563886431813017
 51
138.1633309578110129
  0
ARC
  5
31C00
  8
0
 10
6728.4635857930261409
 20
154.4916109560838038
 30
0.0
 40
0.0279941606418049
 50
138.1633309578110129
 51
181.5048097872195001
  0
ARC
  5
31C01
  8
0
 10
6728.4594401266049317
 20
154.4915020497340095
 30
0.0
 40
0.0238470639869637
 50
181.5048097872195001
 51
207.527768699148595
  0
ARC
  5
31C02
  8
0
 10
6728.4797263278696846
 20
154.5020748769858869
 30
0.0
 40
0.0467231352827748
 50
207.527768699148595
 51
232.1700948409574892
  0
ARC
  5
31C03
  8
0
 10
6728.4763792765397739
 20
154.4977645317522104
 30
0.0
 40
0.0412658622785049
 50
232.1700948409585123
 51
244.8767284065474996
  0
ARC
  5
31C04
  8
0
 10
6728.4925039561430822
 20
154.5321506721940068
 30
0.0
 40
0.079244961092701
 50
244.8767284065474996
 51
259.7246551703494788
  0
ARC
  5
31C05
  8
0
 10
6728.4912842642370379
 20
154.5324029835616102
 30
0.0
 40
0.0792854363870859
 50
260.624493165157503
 51
270.0191007124340103
  0
ARC
  5
31C06
  8
0
 10
6728.4908093373833253
 20
154.4628625754907034
 30
0.0
 40
0.0402770249013154
 50
89.286778142406277
 51
119.5133889691672948
  0
ARC
  5
31C07
  8
0
 10
6728.4809350156028813
 20
154.4803058680834909
 30
0.0
 40
0.0202328066061988
 50
119.5133889691672948
 51
145.3923658269283976
  0
ARC
  5
31C08
  8
0
 10
6728.475371620599617
 20
154.4841448913691977
 30
0.0
 40
0.0134734084263372
 50
145.3923658269283976
 51
219.3393962567222957
  0
ARC
  5
31C09
  8
0
 10
6728.4838773351420969
 20
154.4911165100913024
 30
0.0
 40
0.0244711649009719
 50
219.3393962567222957
 51
250.1518200742976887
  0
ARC
  5
31C0A
  8
0
 10
6728.4923325767576898
 20
154.5145400271836138
 30
0.0
 40
0.0493740214388993
 50
250.1518200742976887
 51
268.8140796168418092
  0
LINE
  5
31C0B
  8
0
 10
6728.4294457906971729
 20
154.5699910153803955
 30
0.0
 11
6728.4355916323829661
 21
154.4916109560838038
 31
0.0
  0
ARC
  5
31C0C
  8
0
 10
6728.939055071689836
 20
154.2958731889497983
 30
0.0
 40
0.0911201021540354
 50
59.6561140477709486
 51
91.1831279411805866
  0
ARC
  5
31C0D
  8
0
 10
6728.9607569632926243
 20
154.3329463082723123
 30
0.0
 40
0.048162119479436
 50
37.3590984472734533
 51
59.6561140477709486
  0
ARC
  5
31C0E
  8
0
 10
6728.9734201491628482
 20
154.3426137286932089
 30
0.0
 40
0.032230537826929
 50
313.6740346979283913
 51
37.3590984472734533
  0
ARC
  5
31C0F
  8
0
 10
6728.9376343787889709
 20
154.2413619227818913
 30
0.0
 40
0.07934077095047
 50
64.8438422769343532
 51
90.3327358489045906
  0
ARC
  5
31C10
  8
0
 10
6728.9522369199321474
 20
154.2724560646032899
 30
0.0
 40
0.0449884804392454
 50
41.8366690421890013
 51
64.8436113568186698
  0
ARC
  5
31C11
  8
0
 10
6728.9648985254789295
 20
154.2837914362497997
 30
0.0
 40
0.0279941606418049
 50
358.4951902127805852
 51
41.8366690421890013
  0
ARC
  5
31C12
  8
0
 10
6728.9690441918992292
 20
154.2836825299000054
 30
0.0
 40
0.0238470639869637
 50
332.4722313008514902
 51
358.4951902127805852
  0
ARC
  5
31C13
  8
0
 10
6728.9487579906317478
 20
154.2942553571519113
 30
0.0
 40
0.0467231352827748
 50
307.8299051590415161
 51
332.4722313008514902
  0
ARC
  5
31C14
  8
0
 10
6728.9521050419643871
 20
154.2899450119180926
 30
0.0
 40
0.0412658622785049
 50
295.1232715934525004
 51
307.8299051590415161
  0
ARC
  5
31C15
  8
0
 10
6728.9359803623619882
 20
154.3243311523598891
 30
0.0
 40
0.079244961092701
 50
280.2753448296504075
 51
295.1232715934525004
  0
ARC
  5
31C16
  8
0
 10
6728.9372000542671231
 20
154.3245834637276062
 30
0.0
 40
0.0792854363870778
 50
269.9808992875659897
 51
279.375506834842497
  0
ARC
  5
31C17
  8
0
 10
6728.9376749811217451
 20
154.2550430556566994
 30
0.0
 40
0.0402770249013154
 50
60.4866110308327194
 51
90.7132218575937657
  0
ARC
  5
31C18
  8
0
 10
6728.9475493029003701
 20
154.2724863482494868
 30
0.0
 40
0.0202328066061988
 50
34.6076341730715882
 51
60.4866110308327194
  0
ARC
  5
31C19
  8
0
 10
6728.9531126979036344
 20
154.2763253715351937
 30
0.0
 40
0.0134734084263372
 50
320.6606037432777043
 51
34.6076341730715882
  0
ARC
  5
31C1A
  8
0
 10
6728.9446069833611546
 20
154.2832969902572131
 30
0.0
 40
0.0244711649009719
 50
289.8481799257023113
 51
320.6606037432777043
  0
ARC
  5
31C1B
  8
0
 10
6728.9361517417455616
 20
154.3067205073494961
 30
0.0
 40
0.0493740214388993
 50
271.1859203831583045
 51
289.8481799257023113
  0
LINE
  5
31C1C
  8
0
 10
6728.9990385278060785
 20
154.3621714955463915
 30
0.0
 11
6728.9928926861211949
 21
154.2837914362497997
 31
0.0
  0
ARC
  5
31C1D
  8
0
 10
6728.9352921740228339
 20
154.2958731889497983
 30
0.0
 40
0.0911201021540354
 50
88.8168720588193992
 51
120.3438859522290016
  0
ARC
  5
31C1E
  8
0
 10
6728.9135902824200457
 20
154.3329463082723123
 30
0.0
 40
0.048162119479436
 50
120.3438859522290016
 51
142.6409015527264899
  0
ARC
  5
31C1F
  8
0
 10
6728.9009270965498217
 20
154.3426137286932089
 30
0.0
 40
0.032230537826929
 50
142.6409015527264899
 51
226.3259653020716087
  0
ARC
  5
31C20
  8
0
 10
6728.93671286692188
 20
154.2413619227818913
 30
0.0
 40
0.079340770950467
 50
89.6672641510954236
 51
115.1561577230663005
  0
ARC
  5
31C21
  8
0
 10
6728.922110325779613
 20
154.2724560646032899
 30
0.0
 40
0.0449884804392454
 50
115.1563886431813017
 51
138.1633309578110129
  0
ARC
  5
31C22
  8
0
 10
6728.9094487202337405
 20
154.2837914362497997
 30
0.0
 40
0.0279941606418049
 50
138.1633309578110129
 51
181.5048097872195001
  0
ARC
  5
31C23
  8
0
 10
6728.9053030538134408
 20
154.2836825299000054
 30
0.0
 40
0.0238470639869637
 50
181.5048097872195001
 51
207.527768699148595
  0
ARC
  5
31C24
  8
0
 10
6728.9255892550800127
 20
154.2942553571519113
 30
0.0
 40
0.0467231352827748
 50
207.527768699148595
 51
232.1700948409574892
  0
ARC
  5
31C25
  8
0
 10
6728.9222422037501019
 20
154.2899450119180926
 30
0.0
 40
0.0412658622785049
 50
232.1700948409585123
 51
244.8767284065474996
  0
ARC
  5
31C26
  8
0
 10
6728.9383668833506817
 20
154.3243311523598891
 30
0.0
 40
0.079244961092701
 50
244.8767284065474996
 51
259.7246551703494788
  0
ARC
  5
31C27
  8
0
 10
6728.9371471914437279
 20
154.3245834637276062
 30
0.0
 40
0.0792854363870859
 50
260.624493165157503
 51
270.0191007124340103
  0
ARC
  5
31C28
  8
0
 10
6728.9366722645909249
 20
154.2550430556566994
 30
0.0
 40
0.0402770249013154
 50
89.286778142406277
 51
119.5133889691672948
  0
ARC
  5
31C29
  8
0
 10
6728.9267979428113904
 20
154.2724863482494868
 30
0.0
 40
0.0202328066061988
 50
119.5133889691672948
 51
145.3923658269283976
  0
ARC
  5
31C2A
  8
0
 10
6728.9212345478090356
 20
154.2763253715351937
 30
0.0
 40
0.0134734084263372
 50
145.3923658269283976
 51
219.3393962567222957
  0
ARC
  5
31C2B
  8
0
 10
6728.9297402623496964
 20
154.2832969902572131
 30
0.0
 40
0.0244711649009719
 50
219.3393962567222957
 51
250.1518200742976887
  0
ARC
  5
31C2C
  8
0
 10
6728.9381955039661989
 20
154.3067205073494961
 30
0.0
 40
0.0493740214388993
 50
250.1518200742976887
 51
268.8140796168418092
  0
LINE
  5
31C2D
  8
0
 10
6728.875308717905682
 20
154.3621714955463915
 30
0.0
 11
6728.8814545595905656
 21
154.2837914362497997
 31
0.0
  0
ARC
  5
31C2E
  8
0
 10
6729.3845005335333553
 20
154.0872395892648115
 30
0.0
 40
0.0911201021540354
 50
59.6561140477709486
 51
91.1831279411805866
  0
ARC
  5
31C2F
  8
0
 10
6729.4062024251361436
 20
154.1243127085874107
 30
0.0
 40
0.048162119479436
 50
37.3590984472734533
 51
59.6561140477709486
  0
ARC
  5
31C30
  8
0
 10
6729.4188656110045486
 20
154.1339801290081937
 30
0.0
 40
0.032230537826929
 50
313.6740346979283913
 51
37.3590984472734533
  0
ARC
  5
31C31
  8
0
 10
6729.3830798406333997
 20
154.0327283230969897
 30
0.0
 40
0.07934077095047
 50
64.8438422769343532
 51
90.3327358489045906
  0
ARC
  5
31C32
  8
0
 10
6729.3976823817756667
 20
154.0638224649183883
 30
0.0
 40
0.0449884804392454
 50
41.8366690421890013
 51
64.8436113568186698
  0
ARC
  5
31C33
  8
0
 10
6729.4103439873206298
 20
154.0751578365648982
 30
0.0
 40
0.0279941606418049
 50
358.4951902127805852
 51
41.8366690421890013
  0
ARC
  5
31C34
  8
0
 10
6729.4144896537427485
 20
154.0750489302149902
 30
0.0
 40
0.0238470639869637
 50
332.4722313008514902
 51
358.4951902127805852
  0
ARC
  5
31C35
  8
0
 10
6729.3942034524761766
 20
154.0856217574670097
 30
0.0
 40
0.0467231352827748
 50
307.8299051590415161
 51
332.4722313008514902
  0
ARC
  5
31C36
  8
0
 10
6729.3975505038060874
 20
154.081311412233191
 30
0.0
 40
0.0412658622785049
 50
295.1232715934525004
 51
307.8299051590415161
  0
ARC
  5
31C37
  8
0
 10
6729.381425824204598
 20
154.1156975526749875
 30
0.0
 40
0.079244961092701
 50
280.2753448296504075
 51
295.1232715934525004
  0
ARC
  5
31C38
  8
0
 10
6729.3826455161097329
 20
154.1159498640427046
 30
0.0
 40
0.0792854363870778
 50
269.9808992875659897
 51
279.375506834842497
  0
ARC
  5
31C39
  8
0
 10
6729.3831204429652644
 20
154.0464094559717125
 30
0.0
 40
0.0402770249013154
 50
60.4866110308327194
 51
90.7132218575937657
  0
ARC
  5
31C3A
  8
0
 10
6729.3929947647429799
 20
154.0638527485646136
 30
0.0
 40
0.0202328066061988
 50
34.6076341730715882
 51
60.4866110308327194
  0
ARC
  5
31C3B
  8
0
 10
6729.3985581597471537
 20
154.0676917718502921
 30
0.0
 40
0.0134734084263372
 50
320.6606037432777043
 51
34.6076341730715882
  0
ARC
  5
31C3C
  8
0
 10
6729.3900524452037644
 20
154.0746633905723115
 30
0.0
 40
0.0244711649009719
 50
289.8481799257023113
 51
320.6606037432777043
  0
ARC
  5
31C3D
  8
0
 10
6729.3815972035881714
 20
154.0980869076645945
 30
0.0
 40
0.0493740214388993
 50
271.1859203831583045
 51
289.8481799257023113
  0
LINE
  5
31C3E
  8
0
 10
6729.4444839896486883
 20
154.1535378958614046
 30
0.0
 11
6729.4383381479628952
 21
154.0751578365648982
 31
0.0
  0
ARC
  5
31C3F
  8
0
 10
6729.3807376358663532
 20
154.0872395892648115
 30
0.0
 40
0.0911201021540354
 50
88.8168720588193992
 51
120.3438859522290016
  0
ARC
  5
31C40
  8
0
 10
6729.3590357442626555
 20
154.1243127085874107
 30
0.0
 40
0.048162119479436
 50
120.3438859522290016
 51
142.6409015527264899
  0
ARC
  5
31C41
  8
0
 10
6729.3463725583924315
 20
154.1339801290081937
 30
0.0
 40
0.032230537826929
 50
142.6409015527264899
 51
226.3259653020716087
  0
ARC
  5
31C42
  8
0
 10
6729.3821583287653993
 20
154.0327283230969897
 30
0.0
 40
0.079340770950467
 50
89.6672641510954236
 51
115.1561577230663005
  0
ARC
  5
31C43
  8
0
 10
6729.3675557876222229
 20
154.0638224649183883
 30
0.0
 40
0.0449884804392454
 50
115.1563886431813017
 51
138.1633309578110129
  0
ARC
  5
31C44
  8
0
 10
6729.3548941820763503
 20
154.0751578365648982
 30
0.0
 40
0.0279941606418049
 50
138.1633309578110129
 51
181.5048097872195001
  0
ARC
  5
31C45
  8
0
 10
6729.3507485156560506
 20
154.0750489302149902
 30
0.0
 40
0.0238470639869637
 50
181.5048097872195001
 51
207.527768699148595
  0
ARC
  5
31C46
  8
0
 10
6729.3710347169226225
 20
154.0856217574670097
 30
0.0
 40
0.0467231352827748
 50
207.527768699148595
 51
232.1700948409574892
  0
ARC
  5
31C47
  8
0
 10
6729.3676876655918022
 20
154.081311412233191
 30
0.0
 40
0.0412658622785049
 50
232.1700948409585123
 51
244.8767284065474996
  0
ARC
  5
31C48
  8
0
 10
6729.383812345194201
 20
154.1156975526749875
 30
0.0
 40
0.079244961092701
 50
244.8767284065474996
 51
259.7246551703494788
  0
ARC
  5
31C49
  8
0
 10
6729.3825926532890662
 20
154.1159498640427046
 30
0.0
 40
0.0792854363870859
 50
260.624493165157503
 51
270.0191007124340103
  0
ARC
  5
31C4A
  8
0
 10
6729.3821177264344442
 20
154.0464094559717125
 30
0.0
 40
0.0402770249013154
 50
89.286778142406277
 51
119.5133889691672948
  0
ARC
  5
31C4B
  8
0
 10
6729.3722434046540002
 20
154.0638527485646136
 30
0.0
 40
0.0202328066061988
 50
119.5133889691672948
 51
145.3923658269283976
  0
ARC
  5
31C4C
  8
0
 10
6729.3666800096507359
 20
154.0676917718502921
 30
0.0
 40
0.0134734084263372
 50
145.3923658269283976
 51
219.3393962567222957
  0
ARC
  5
31C4D
  8
0
 10
6729.3751857241932157
 20
154.0746633905723115
 30
0.0
 40
0.0244711649009719
 50
219.3393962567222957
 51
250.1518200742976887
  0
ARC
  5
31C4E
  8
0
 10
6729.3836409658078992
 20
154.0980869076645945
 30
0.0
 40
0.0493740214388993
 50
250.1518200742976887
 51
268.8140796168418092
  0
LINE
  5
31C4F
  8
0
 10
6729.3207541797501108
 20
154.1535378958614046
 30
0.0
 11
6729.3269000214349944
 21
154.0751578365648982
 31
0.0
  0
ARC
  5
31C50
  8
0
 10
6727.9423289379956259
 20
154.2461557644087122
 30
0.0
 40
0.0911201021540354
 50
59.6561140477709486
 51
91.1831279411805866
  0
ARC
  5
31C51
  8
0
 10
6727.9640308295984141
 20
154.2832288837313115
 30
0.0
 40
0.048162119479436
 50
37.3590984472734533
 51
59.6561140477709486
  0
ARC
  5
31C52
  8
0
 10
6727.9766940154668191
 20
154.2928963041520944
 30
0.0
 40
0.032230537826929
 50
313.6740346979283913
 51
37.3590984472734533
  0
ARC
  5
31C53
  8
0
 10
6727.9409082450947608
 20
154.1916444982408905
 30
0.0
 40
0.07934077095047
 50
64.8438422769343532
 51
90.3327358489045906
  0
ARC
  5
31C54
  8
0
 10
6727.9555107862370278
 20
154.2227386400622038
 30
0.0
 40
0.0449884804392454
 50
41.8366690421890013
 51
64.8436113568186698
  0
ARC
  5
31C55
  8
0
 10
6727.9681723917829004
 20
154.2340740117087137
 30
0.0
 40
0.0279941606418049
 50
358.4951902127805852
 51
41.8366690421890013
  0
ARC
  5
31C56
  8
0
 10
6727.972318058205019
 20
154.2339651053588909
 30
0.0
 40
0.0238470639869637
 50
332.4722313008514902
 51
358.4951902127805852
  0
ARC
  5
31C57
  8
0
 10
6727.9520318569384472
 20
154.2445379326109105
 30
0.0
 40
0.0467231352827748
 50
307.8299051590415161
 51
332.4722313008514902
  0
ARC
  5
31C58
  8
0
 10
6727.9553789082683579
 20
154.2402275873770918
 30
0.0
 40
0.0412658622785049
 50
295.1232715934525004
 51
307.8299051590415161
  0
ARC
  5
31C59
  8
0
 10
6727.9392542286668686
 20
154.2746137278188883
 30
0.0
 40
0.079244961092701
 50
280.2753448296504075
 51
295.1232715934525004
  0
ARC
  5
31C5A
  8
0
 10
6727.9404739205720034
 20
154.2748660391864917
 30
0.0
 40
0.0792854363870778
 50
269.9808992875659897
 51
279.375506834842497
  0
ARC
  5
31C5B
  8
0
 10
6727.9409488474266254
 20
154.2053256311156133
 30
0.0
 40
0.0402770249013154
 50
60.4866110308327194
 51
90.7132218575937657
  0
ARC
  5
31C5C
  8
0
 10
6727.9508231692052505
 20
154.222768923708486
 30
0.0
 40
0.0202328066061988
 50
34.6076341730715882
 51
60.4866110308327194
  0
ARC
  5
31C5D
  8
0
 10
6727.9563865642076053
 20
154.2266079469941076
 30
0.0
 40
0.0134734084263372
 50
320.6606037432777043
 51
34.6076341730715882
  0
ARC
  5
31C5E
  8
0
 10
6727.9478808496678539
 20
154.2335795657162123
 30
0.0
 40
0.0244711649009719
 50
289.8481799257023113
 51
320.6606037432777043
  0
ARC
  5
31C5F
  8
0
 10
6727.9394256080513514
 20
154.2570030828084953
 30
0.0
 40
0.0493740214388993
 50
271.1859203831583045
 51
289.8481799257023113
  0
LINE
  5
31C60
  8
0
 10
6728.0023123941118683
 20
154.3124540710053054
 30
0.0
 11
6727.9961665524269847
 21
154.2340740117087137
 31
0.0
  0
ARC
  5
31C61
  8
0
 10
6727.9385660403277143
 20
154.2461557644087122
 30
0.0
 40
0.0911201021540354
 50
88.8168720588193992
 51
120.3438859522290016
  0
ARC
  5
31C62
  8
0
 10
6727.9168641487240166
 20
154.2832288837313115
 30
0.0
 40
0.048162119479436
 50
120.3438859522290016
 51
142.6409015527264899
  0
ARC
  5
31C63
  8
0
 10
6727.9042009628547021
 20
154.2928963041520944
 30
0.0
 40
0.032230537826929
 50
142.6409015527264899
 51
226.3259653020716087
  0
ARC
  5
31C64
  8
0
 10
6727.9399867332267604
 20
154.1916444982408905
 30
0.0
 40
0.079340770950467
 50
89.6672641510954236
 51
115.1561577230663005
  0
ARC
  5
31C65
  8
0
 10
6727.9253841920854029
 20
154.2227386400622038
 30
0.0
 40
0.0449884804392454
 50
115.1563886431813017
 51
138.1633309578110129
  0
ARC
  5
31C66
  8
0
 10
6727.9127225865377113
 20
154.2340740117087137
 30
0.0
 40
0.0279941606418049
 50
138.1633309578110129
 51
181.5048097872195001
  0
ARC
  5
31C67
  8
0
 10
6727.9085769201192306
 20
154.2339651053588909
 30
0.0
 40
0.0238470639869637
 50
181.5048097872195001
 51
207.527768699148595
  0
ARC
  5
31C68
  8
0
 10
6727.9288631213839835
 20
154.2445379326109105
 30
0.0
 40
0.0467231352827748
 50
207.527768699148595
 51
232.1700948409574892
  0
ARC
  5
31C69
  8
0
 10
6727.9255160700549823
 20
154.2402275873770918
 30
0.0
 40
0.0412658622785049
 50
232.1700948409585123
 51
244.8767284065474996
  0
ARC
  5
31C6A
  8
0
 10
6727.9416407496546526
 20
154.2746137278188883
 30
0.0
 40
0.079244961092701
 50
244.8767284065474996
 51
259.7246551703494788
  0
ARC
  5
31C6B
  8
0
 10
6727.9404210577513368
 20
154.2748660391864917
 30
0.0
 40
0.0792854363870859
 50
260.624493165157503
 51
270.0191007124340103
  0
ARC
  5
31C6C
  8
0
 10
6727.9399461308948958
 20
154.2053256311156133
 30
0.0
 40
0.0402770249013154
 50
89.286778142406277
 51
119.5133889691672948
  0
ARC
  5
31C6D
  8
0
 10
6727.9300718091180897
 20
154.222768923708486
 30
0.0
 40
0.0202328066061988
 50
119.5133889691672948
 51
145.3923658269283976
  0
ARC
  5
31C6E
  8
0
 10
6727.9245084141139159
 20
154.2266079469941076
 30
0.0
 40
0.0134734084263372
 50
145.3923658269283976
 51
219.3393962567222957
  0
ARC
  5
31C6F
  8
0
 10
6727.9330141286545768
 20
154.2335795657162123
 30
0.0
 40
0.0244711649009719
 50
219.3393962567222957
 51
250.1518200742976887
  0
ARC
  5
31C70
  8
0
 10
6727.9414693702710792
 20
154.2570030828084953
 30
0.0
 40
0.0493740214388993
 50
250.1518200742976887
 51
268.8140796168418092
  0
LINE
  5
31C71
  8
0
 10
6727.8785825842123813
 20
154.3124540710053054
 30
0.0
 11
6727.884728425897265
 21
154.2340740117087137
 31
0.0
  0
ARC
  5
31C72
  8
0
 10
6728.5732257696972738
 20
154.0601984898775072
 30
0.0
 40
0.0911201021540354
 50
59.6561140477709486
 51
91.1831279411805866
  0
ARC
  5
31C73
  8
0
 10
6728.5949276612991525
 20
154.0972716091999928
 30
0.0
 40
0.048162119479436
 50
37.3590984472734533
 51
59.6561140477709486
  0
ARC
  5
31C74
  8
0
 10
6728.607590847170286
 20
154.1069390296208894
 30
0.0
 40
0.032230537826929
 50
313.6740346979283913
 51
37.3590984472734533
  0
ARC
  5
31C75
  8
0
 10
6728.5718050767964087
 20
154.0056872237097139
 30
0.0
 40
0.07934077095047
 50
64.8438422769343532
 51
90.3327358489045906
  0
ARC
  5
31C76
  8
0
 10
6728.5864076179386757
 20
154.0367813655309988
 30
0.0
 40
0.0449884804392454
 50
41.8366690421890013
 51
64.8436113568186698
  0
ARC
  5
31C77
  8
0
 10
6728.5990692234863673
 20
154.0481167371775086
 30
0.0
 40
0.0279941606418049
 50
358.4951902127805852
 51
41.8366690421890013
  0
ARC
  5
31C78
  8
0
 10
6728.6032148899066669
 20
154.0480078308276859
 30
0.0
 40
0.0238470639869637
 50
332.4722313008514902
 51
358.4951902127805852
  0
ARC
  5
31C79
  8
0
 10
6728.5829286886400951
 20
154.0585806580797055
 30
0.0
 40
0.0467231352827748
 50
307.8299051590415161
 51
332.4722313008514902
  0
ARC
  5
31C7A
  8
0
 10
6728.5862757399700058
 20
154.0542703128458868
 30
0.0
 40
0.0412658622785049
 50
295.1232715934525004
 51
307.8299051590415161
  0
ARC
  5
31C7B
  8
0
 10
6728.570151060369426
 20
154.088656453287598
 30
0.0
 40
0.079244961092701
 50
280.2753448296504075
 51
295.1232715934525004
  0
ARC
  5
31C7C
  8
0
 10
6728.5713707522727418
 20
154.0889087646552866
 30
0.0
 40
0.0792854363870778
 50
269.9808992875659897
 51
279.375506834842497
  0
ARC
  5
31C7D
  8
0
 10
6728.5718456791291828
 20
154.0193683565844083
 30
0.0
 40
0.0402770249013154
 50
60.4866110308327194
 51
90.7132218575937657
  0
ARC
  5
31C7E
  8
0
 10
6728.5817200009068983
 20
154.0368116491771957
 30
0.0
 40
0.0202328066061988
 50
34.6076341730715882
 51
60.4866110308327194
  0
ARC
  5
31C7F
  8
0
 10
6728.5872833959101627
 20
154.0406506724629025
 30
0.0
 40
0.0134734084263372
 50
320.6606037432777043
 51
34.6076341730715882
  0
ARC
  5
31C80
  8
0
 10
6728.5787776813685923
 20
154.0476222911850073
 30
0.0
 40
0.0244711649009719
 50
289.8481799257023113
 51
320.6606037432777043
  0
ARC
  5
31C81
  8
0
 10
6728.5703224397539088
 20
154.071045808277205
 30
0.0
 40
0.0493740214388993
 50
271.1859203831583045
 51
289.8481799257023113
  0
LINE
  5
31C82
  8
0
 10
6728.6332092258116973
 20
154.1264967964741004
 30
0.0
 11
6728.6270633841277231
 21
154.0481167371775086
 31
0.0
  0
ARC
  5
31C83
  8
0
 10
6728.5694628720293622
 20
154.0601984898775072
 30
0.0
 40
0.0911201021540354
 50
88.8168720588193992
 51
120.3438859522290016
  0
ARC
  5
31C84
  8
0
 10
6728.5477609804256645
 20
154.0972716091999928
 30
0.0
 40
0.048162119479436
 50
120.3438859522290016
 51
142.6409015527264899
  0
ARC
  5
31C85
  8
0
 10
6728.5350977945572595
 20
154.1069390296208894
 30
0.0
 40
0.032230537826929
 50
142.6409015527264899
 51
226.3259653020716087
  0
ARC
  5
31C86
  8
0
 10
6728.5708835649293178
 20
154.0056872237097139
 30
0.0
 40
0.079340770950467
 50
89.6672641510954236
 51
115.1561577230663005
  0
ARC
  5
31C87
  8
0
 10
6728.5562810237879603
 20
154.0367813655309988
 30
0.0
 40
0.0449884804392454
 50
115.1563886431813017
 51
138.1633309578110129
  0
ARC
  5
31C88
  8
0
 10
6728.5436194182411782
 20
154.0481167371775086
 30
0.0
 40
0.0279941606418049
 50
138.1633309578110129
 51
181.5048097872195001
  0
ARC
  5
31C89
  8
0
 10
6728.539473751819969
 20
154.0480078308276859
 30
0.0
 40
0.0238470639869637
 50
181.5048097872195001
 51
207.527768699148595
  0
ARC
  5
31C8A
  8
0
 10
6728.5597599530847219
 20
154.0585806580797055
 30
0.0
 40
0.0467231352827748
 50
207.527768699148595
 51
232.1700948409574892
  0
ARC
  5
31C8B
  8
0
 10
6728.5564129017557207
 20
154.0542703128458868
 30
0.0
 40
0.0412658622785049
 50
232.1700948409585123
 51
244.8767284065474996
  0
ARC
  5
31C8C
  8
0
 10
6728.5725375813563005
 20
154.088656453287598
 30
0.0
 40
0.079244961092701
 50
244.8767284065474996
 51
259.7246551703494788
  0
ARC
  5
31C8D
  8
0
 10
6728.5713178894529847
 20
154.0889087646552866
 30
0.0
 40
0.0792854363870859
 50
260.624493165157503
 51
270.0191007124340103
  0
ARC
  5
31C8E
  8
0
 10
6728.5708429625956342
 20
154.0193683565844083
 30
0.0
 40
0.0402770249013154
 50
89.286778142406277
 51
119.5133889691672948
  0
ARC
  5
31C8F
  8
0
 10
6728.5609686408188281
 20
154.0368116491771957
 30
0.0
 40
0.0202328066061988
 50
119.5133889691672948
 51
145.3923658269283976
  0
ARC
  5
31C90
  8
0
 10
6728.5554052458146543
 20
154.0406506724629025
 30
0.0
 40
0.0134734084263372
 50
145.3923658269283976
 51
219.3393962567222957
  0
ARC
  5
31C91
  8
0
 10
6728.5639109603580437
 20
154.0476222911850073
 30
0.0
 40
0.0244711649009719
 50
219.3393962567222957
 51
250.1518200742976887
  0
ARC
  5
31C92
  8
0
 10
6728.5723662019727271
 20
154.071045808277205
 30
0.0
 40
0.0493740214388993
 50
250.1518200742976887
 51
268.8140796168418092
  0
LINE
  5
31C93
  8
0
 10
6728.5094794159131197
 20
154.1264967964741004
 30
0.0
 11
6728.5156252575989129
 21
154.0481167371775086
 31
0.0
  0
ARC
  5
31C94
  8
0
 10
6728.89724383524117
 20
153.7732661079045897
 30
0.0
 40
0.0911201021540354
 50
59.6561140477709486
 51
91.1831279411805866
  0
ARC
  5
31C95
  8
0
 10
6728.9189457268457772
 20
153.810339227227189
 30
0.0
 40
0.048162119479436
 50
37.3590984472734533
 51
59.6561140477709486
  0
ARC
  5
31C96
  8
0
 10
6728.9316089127160012
 20
153.8200066476480004
 30
0.0
 40
0.032230537826929
 50
313.6740346979283913
 51
37.3590984472734533
  0
ARC
  5
31C97
  8
0
 10
6728.8958231423421239
 20
153.7187548417367964
 30
0.0
 40
0.07934077095047
 50
64.8438422769343532
 51
90.3327358489045906
  0
ARC
  5
31C98
  8
0
 10
6728.9104256834843909
 20
153.7498489835581097
 30
0.0
 40
0.0449884804392454
 50
41.8366690421890013
 51
64.8436113568186698
  0
ARC
  5
31C99
  8
0
 10
6728.923087289031173
 20
153.7611843552045912
 30
0.0
 40
0.0279941606418049
 50
358.4951902127805852
 51
41.8366690421890013
  0
ARC
  5
31C9A
  8
0
 10
6728.9272329554523822
 20
153.7610754488547968
 30
0.0
 40
0.0238470639869637
 50
332.4722313008514902
 51
358.4951902127805852
  0
ARC
  5
31C9B
  8
0
 10
6728.9069467541849008
 20
153.771648276106788
 30
0.0
 40
0.0467231352827748
 50
307.8299051590415161
 51
332.4722313008514902
  0
ARC
  5
31C9C
  8
0
 10
6728.9102938055148115
 20
153.7673379308729977
 30
0.0
 40
0.0412658622785049
 50
295.1232715934525004
 51
307.8299051590415161
  0
ARC
  5
31C9D
  8
0
 10
6728.8941691259142317
 20
153.8017240713147942
 30
0.0
 40
0.079244961092701
 50
280.2753448296504075
 51
295.1232715934525004
  0
ARC
  5
31C9E
  8
0
 10
6728.895388817820276
 20
153.8019763826825113
 30
0.0
 40
0.0792854363870778
 50
269.9808992875659897
 51
279.375506834842497
  0
ARC
  5
31C9F
  8
0
 10
6728.8958637446739885
 20
153.7324359746114908
 30
0.0
 40
0.0402770249013154
 50
60.4866110308327194
 51
90.7132218575937657
  0
ARC
  5
31CA0
  8
0
 10
6728.9057380664526136
 20
153.7498792672043919
 30
0.0
 40
0.0202328066061988
 50
34.6076341730715882
 51
60.4866110308327194
  0
ARC
  5
31CA1
  8
0
 10
6728.9113014614549684
 20
153.7537182904900135
 30
0.0
 40
0.0134734084263372
 50
320.6606037432777043
 51
34.6076341730715882
  0
ARC
  5
31CA2
  8
0
 10
6728.902795746913398
 20
153.7606899092120898
 30
0.0
 40
0.0244711649009719
 50
289.8481799257023113
 51
320.6606037432777043
  0
ARC
  5
31CA3
  8
0
 10
6728.8943405052978051
 20
153.7841134263044012
 30
0.0
 40
0.0493740214388993
 50
271.1859203831583045
 51
289.8481799257023113
  0
LINE
  5
31CA4
  8
0
 10
6728.9572272913592315
 20
153.8395644145012113
 30
0.0
 11
6728.9510814496716193
 21
153.7611843552045912
 31
0.0
  0
ARC
  5
31CA5
  8
0
 10
6728.8934809375750774
 20
153.7732661079045897
 30
0.0
 40
0.0911201021540354
 50
88.8168720588193992
 51
120.3438859522290016
  0
ARC
  5
31CA6
  8
0
 10
6728.8717790459713797
 20
153.810339227227189
 30
0.0
 40
0.048162119479436
 50
120.3438859522290016
 51
142.6409015527264899
  0
ARC
  5
31CA7
  8
0
 10
6728.8591158601020652
 20
153.8200066476480004
 30
0.0
 40
0.032230537826929
 50
142.6409015527264899
 51
226.3259653020716087
  0
ARC
  5
31CA8
  8
0
 10
6728.8949016304741235
 20
153.7187548417367964
 30
0.0
 40
0.079340770950467
 50
89.6672641510954236
 51
115.1561577230663005
  0
ARC
  5
31CA9
  8
0
 10
6728.8802990893318565
 20
153.7498489835581097
 30
0.0
 40
0.0449884804392454
 50
115.1563886431813017
 51
138.1633309578110129
  0
ARC
  5
31CAA
  8
0
 10
6728.8676374837859839
 20
153.7611843552045912
 30
0.0
 40
0.0279941606418049
 50
138.1633309578110129
 51
181.5048097872195001
  0
ARC
  5
31CAB
  8
0
 10
6728.8634918173638653
 20
153.7610754488547968
 30
0.0
 40
0.0238470639869637
 50
181.5048097872195001
 51
207.527768699148595
  0
ARC
  5
31CAC
  8
0
 10
6728.8837780186313466
 20
153.771648276106788
 30
0.0
 40
0.0467231352827748
 50
207.527768699148595
 51
232.1700948409574892
  0
ARC
  5
31CAD
  8
0
 10
6728.8804309673014359
 20
153.7673379308729977
 30
0.0
 40
0.0412658622785049
 50
232.1700948409585123
 51
244.8767284065474996
  0
ARC
  5
31CAE
  8
0
 10
6728.8965556469038347
 20
153.8017240713147942
 30
0.0
 40
0.079244961092701
 50
244.8767284065474996
 51
259.7246551703494788
  0
ARC
  5
31CAF
  8
0
 10
6728.8953359549959714
 20
153.8019763826825113
 30
0.0
 40
0.0792854363870859
 50
260.624493165157503
 51
270.0191007124340103
  0
ARC
  5
31CB0
  8
0
 10
6728.8948610281422589
 20
153.7324359746114908
 30
0.0
 40
0.0402770249013154
 50
89.286778142406277
 51
119.5133889691672948
  0
ARC
  5
31CB1
  8
0
 10
6728.8849867063654528
 20
153.7498792672043919
 30
0.0
 40
0.0202328066061988
 50
119.5133889691672948
 51
145.3923658269283976
  0
ARC
  5
31CB2
  8
0
 10
6728.879423311361279
 20
153.7537182904900135
 30
0.0
 40
0.0134734084263372
 50
145.3923658269283976
 51
219.3393962567222957
  0
ARC
  5
31CB3
  8
0
 10
6728.8879290259028494
 20
153.7606899092120898
 30
0.0
 40
0.0244711649009719
 50
219.3393962567222957
 51
250.1518200742976887
  0
ARC
  5
31CB4
  8
0
 10
6728.8963842675184424
 20
153.7841134263044012
 30
0.0
 40
0.0493740214388993
 50
250.1518200742976887
 51
268.8140796168418092
  0
LINE
  5
31CB5
  8
0
 10
6728.833497481457016
 20
153.8395644145012113
 30
0.0
 11
6728.8396433231437186
 21
153.7611843552045912
 31
0.0
  0
ARC
  5
31CB6
  8
0
 10
6728.1119805982252728
 20
153.9091800140465125
 30
0.0
 40
0.0911201021540354
 50
59.6561140477709486
 51
91.1831279411805866
  0
ARC
  5
31CB7
  8
0
 10
6728.1336824898289706
 20
153.9462531333689981
 30
0.0
 40
0.048162119479436
 50
37.3590984472734533
 51
59.6561140477709486
  0
ARC
  5
31CB8
  8
0
 10
6728.146345675698285
 20
153.9559205537898094
 30
0.0
 40
0.032230537826929
 50
313.6740346979283913
 51
37.3590984472734533
  0
ARC
  5
31CB9
  8
0
 10
6728.1105599053262267
 20
153.8546687478786055
 30
0.0
 40
0.07934077095047
 50
64.8438422769343532
 51
90.3327358489045906
  0
ARC
  5
31CBA
  8
0
 10
6728.1251624464694032
 20
153.8857628897000041
 30
0.0
 40
0.0449884804392454
 50
41.8366690421890013
 51
64.8436113568186698
  0
ARC
  5
31CBB
  8
0
 10
6728.1378240520161853
 20
153.8970982613465139
 30
0.0
 40
0.0279941606418049
 50
358.4951902127805852
 51
41.8366690421890013
  0
ARC
  5
31CBC
  8
0
 10
6728.1419697184355755
 20
153.8969893549966059
 30
0.0
 40
0.0238470639869637
 50
332.4722313008514902
 51
358.4951902127805852
  0
ARC
  5
31CBD
  8
0
 10
6728.1216835171690036
 20
153.9075621822485971
 30
0.0
 40
0.0467231352827748
 50
307.8299051590415161
 51
332.4722313008514902
  0
ARC
  5
31CBE
  8
0
 10
6728.1250305684989144
 20
153.9032518370148921
 30
0.0
 40
0.0412658622785049
 50
295.1232715934525004
 51
307.8299051590415161
  0
ARC
  5
31CBF
  8
0
 10
6728.1089058888983345
 20
153.9376379774566033
 30
0.0
 40
0.079244961092701
 50
280.2753448296504075
 51
295.1232715934525004
  0
ARC
  5
31CC0
  8
0
 10
6728.1101255808043788
 20
153.9378902888242919
 30
0.0
 40
0.0792854363870778
 50
269.9808992875659897
 51
279.375506834842497
  0
ARC
  5
31CC1
  8
0
 10
6728.1106005076580914
 20
153.8683498807534136
 30
0.0
 40
0.0402770249013154
 50
60.4866110308327194
 51
90.7132218575937657
  0
ARC
  5
31CC2
  8
0
 10
6728.1204748294348974
 20
153.885793173346201
 30
0.0
 40
0.0202328066061988
 50
34.6076341730715882
 51
60.4866110308327194
  0
ARC
  5
31CC3
  8
0
 10
6728.1260382244399807
 20
153.8896321966319078
 30
0.0
 40
0.0134734084263372
 50
320.6606037432777043
 51
34.6076341730715882
  0
ARC
  5
31CC4
  8
0
 10
6728.1175325098965914
 20
153.8966038153538989
 30
0.0
 40
0.0244711649009719
 50
289.8481799257023113
 51
320.6606037432777043
  0
ARC
  5
31CC5
  8
0
 10
6728.1090772682819079
 20
153.9200273324462103
 30
0.0
 40
0.0493740214388993
 50
271.1859203831583045
 51
289.8481799257023113
  0
LINE
  5
31CC6
  8
0
 10
6728.1719640543433343
 20
153.9754783206431057
 30
0.0
 11
6728.1658182126557222
 21
153.8970982613465139
 31
0.0
  0
ARC
  5
31CC7
  8
0
 10
6728.1082177005582707
 20
153.9091800140465125
 30
0.0
 40
0.0911201021540354
 50
88.8168720588193992
 51
120.3438859522290016
  0
ARC
  5
31CC8
  8
0
 10
6728.0865158089536635
 20
153.9462531333689981
 30
0.0
 40
0.048162119479436
 50
120.3438859522290016
 51
142.6409015527264899
  0
ARC
  5
31CC9
  8
0
 10
6728.073852623086168
 20
153.9559205537898094
 30
0.0
 40
0.032230537826929
 50
142.6409015527264899
 51
226.3259653020716087
  0
ARC
  5
31CCA
  8
0
 10
6728.1096383934582263
 20
153.8546687478786055
 30
0.0
 40
0.079340770950467
 50
89.6672641510954236
 51
115.1561577230663005
  0
ARC
  5
31CCB
  8
0
 10
6728.0950358523159593
 20
153.8857628897000041
 30
0.0
 40
0.0449884804392454
 50
115.1563886431813017
 51
138.1633309578110129
  0
ARC
  5
31CCC
  8
0
 10
6728.0823742467691773
 20
153.8970982613465139
 30
0.0
 40
0.0279941606418049
 50
138.1633309578110129
 51
181.5048097872195001
  0
ARC
  5
31CCD
  8
0
 10
6728.0782285803497871
 20
153.8969893549966059
 30
0.0
 40
0.0238470639869637
 50
181.5048097872195001
 51
207.527768699148595
  0
ARC
  5
31CCE
  8
0
 10
6728.0985147816154495
 20
153.9075621822485971
 30
0.0
 40
0.0467231352827748
 50
207.527768699148595
 51
232.1700948409574892
  0
ARC
  5
31CCF
  8
0
 10
6728.0951677302846292
 20
153.9032518370148921
 30
0.0
 40
0.0412658622785049
 50
232.1700948409585123
 51
244.8767284065474996
  0
ARC
  5
31CD0
  8
0
 10
6728.1112924098879375
 20
153.9376379774566033
 30
0.0
 40
0.079244961092701
 50
244.8767284065474996
 51
259.7246551703494788
  0
ARC
  5
31CD1
  8
0
 10
6728.1100727179809837
 20
153.9378902888242919
 30
0.0
 40
0.0792854363870859
 50
260.624493165157503
 51
270.0191007124340103
  0
ARC
  5
31CD2
  8
0
 10
6728.1095977911263617
 20
153.8683498807534136
 30
0.0
 40
0.0402770249013154
 50
89.286778142406277
 51
119.5133889691672948
  0
ARC
  5
31CD3
  8
0
 10
6728.0997234693468272
 20
153.885793173346201
 30
0.0
 40
0.0202328066061988
 50
119.5133889691672948
 51
145.3923658269283976
  0
ARC
  5
31CD4
  8
0
 10
6728.0941600743453819
 20
153.8896321966319078
 30
0.0
 40
0.0134734084263372
 50
145.3923658269283976
 51
219.3393962567222957
  0
ARC
  5
31CD5
  8
0
 10
6728.1026657888869522
 20
153.8966038153538989
 30
0.0
 40
0.0244711649009719
 50
219.3393962567222957
 51
250.1518200742976887
  0
ARC
  5
31CD6
  8
0
 10
6728.1111210305007262
 20
153.9200273324462103
 30
0.0
 40
0.0493740214388993
 50
250.1518200742976887
 51
268.8140796168418092
  0
LINE
  5
31CD7
  8
0
 10
6728.0482342444411188
 20
153.9754783206431057
 30
0.0
 11
6728.0543800861278214
 21
153.8970982613465139
 31
0.0
  0
ARC
  5
31CD8
  8
0
 10
6728.2831771947403467
 20
153.5725111622417955
 30
0.0
 40
0.0911201021540354
 50
59.6561140477709486
 51
91.1831279411805866
  0
ARC
  5
31CD9
  8
0
 10
6728.3048790863422255
 20
153.6095842815643095
 30
0.0
 40
0.048162119479436
 50
37.3590984472734533
 51
59.6561140477709486
  0
ARC
  5
31CDA
  8
0
 10
6728.3175422722106305
 20
153.6192517019850925
 30
0.0
 40
0.032230537826929
 50
313.6740346979283913
 51
37.3590984472734533
  0
ARC
  5
31CDB
  8
0
 10
6728.2817565018385721
 20
153.5179998960738885
 30
0.0
 40
0.07934077095047
 50
64.8438422769343532
 51
90.3327358489045906
  0
ARC
  5
31CDC
  8
0
 10
6728.2963590429817486
 20
153.5490940378952018
 30
0.0
 40
0.0449884804392454
 50
41.8366690421890013
 51
64.8436113568186698
  0
ARC
  5
31CDD
  8
0
 10
6728.3090206485276212
 20
153.560429409541797
 30
0.0
 40
0.0279941606418049
 50
358.4951902127805852
 51
41.8366690421890013
  0
ARC
  5
31CDE
  8
0
 10
6728.3131663149488304
 20
153.560320503191889
 30
0.0
 40
0.0238470639869637
 50
332.4722313008514902
 51
358.4951902127805852
  0
ARC
  5
31CDF
  8
0
 10
6728.2928801136822585
 20
153.5708933304439086
 30
0.0
 40
0.0467231352827748
 50
307.8299051590415161
 51
332.4722313008514902
  0
ARC
  5
31CE0
  8
0
 10
6728.2962271650121693
 20
153.5665829852100899
 30
0.0
 40
0.0412658622785049
 50
295.1232715934525004
 51
307.8299051590415161
  0
ARC
  5
31CE1
  8
0
 10
6728.2801024854106799
 20
153.6009691256518863
 30
0.0
 40
0.079244961092701
 50
280.2753448296504075
 51
295.1232715934525004
  0
ARC
  5
31CE2
  8
0
 10
6728.2813221773149053
 20
153.6012214370194897
 30
0.0
 40
0.0792854363870778
 50
269.9808992875659897
 51
279.375506834842497
  0
ARC
  5
31CE3
  8
0
 10
6728.2817971041713463
 20
153.5316810289486114
 30
0.0
 40
0.0402770249013154
 50
60.4866110308327194
 51
90.7132218575937657
  0
ARC
  5
31CE4
  8
0
 10
6728.2916714259490618
 20
153.5491243215415125
 30
0.0
 40
0.0202328066061988
 50
34.6076341730715882
 51
60.4866110308327194
  0
ARC
  5
31CE5
  8
0
 10
6728.2972348209541451
 20
153.5529633448271909
 30
0.0
 40
0.0134734084263372
 50
320.6606037432777043
 51
34.6076341730715882
  0
ARC
  5
31CE6
  8
0
 10
6728.2887291064107558
 20
153.5599349635492104
 30
0.0
 40
0.0244711649009719
 50
289.8481799257023113
 51
320.6606037432777043
  0
ARC
  5
31CE7
  8
0
 10
6728.2802738647960723
 20
153.5833584806414933
 30
0.0
 40
0.0493740214388993
 50
271.1859203831583045
 51
289.8481799257023113
  0
LINE
  5
31CE8
  8
0
 10
6728.3431606508547702
 20
153.6388094688383035
 30
0.0
 11
6728.3370148091698866
 21
153.560429409541797
 31
0.0
  0
ARC
  5
31CE9
  8
0
 10
6728.2794142970706162
 20
153.5725111622417955
 30
0.0
 40
0.0911201021540354
 50
88.8168720588193992
 51
120.3438859522290016
  0
ARC
  5
31CEA
  8
0
 10
6728.2577124054678279
 20
153.6095842815643095
 30
0.0
 40
0.048162119479436
 50
120.3438859522290016
 51
142.6409015527264899
  0
ARC
  5
31CEB
  8
0
 10
6728.2450492195994229
 20
153.6192517019850925
 30
0.0
 40
0.032230537826929
 50
142.6409015527264899
 51
226.3259653020716087
  0
ARC
  5
31CEC
  8
0
 10
6728.2808349899705718
 20
153.5179998960738885
 30
0.0
 40
0.079340770950467
 50
89.6672641510954236
 51
115.1561577230663005
  0
ARC
  5
31CED
  8
0
 10
6728.2662324488301238
 20
153.5490940378952018
 30
0.0
 40
0.0449884804392454
 50
115.1563886431813017
 51
138.1633309578110129
  0
ARC
  5
31CEE
  8
0
 10
6728.2535708432833417
 20
153.560429409541797
 30
0.0
 40
0.0279941606418049
 50
138.1633309578110129
 51
181.5048097872195001
  0
ARC
  5
31CEF
  8
0
 10
6728.2494251768621325
 20
153.560320503191889
 30
0.0
 40
0.0238470639869637
 50
181.5048097872195001
 51
207.527768699148595
  0
ARC
  5
31CF0
  8
0
 10
6728.2697113781277949
 20
153.5708933304439086
 30
0.0
 40
0.0467231352827748
 50
207.527768699148595
 51
232.1700948409574892
  0
ARC
  5
31CF1
  8
0
 10
6728.2663643267978841
 20
153.5665829852100899
 30
0.0
 40
0.0412658622785049
 50
232.1700948409585123
 51
244.8767284065474996
  0
ARC
  5
31CF2
  8
0
 10
6728.2824890063993735
 20
153.6009691256518863
 30
0.0
 40
0.079244961092701
 50
244.8767284065474996
 51
259.7246551703494788
  0
ARC
  5
31CF3
  8
0
 10
6728.2812693144951481
 20
153.6012214370194897
 30
0.0
 40
0.0792854363870859
 50
260.624493165157503
 51
270.0191007124340103
  0
ARC
  5
31CF4
  8
0
 10
6728.2807943876387071
 20
153.5316810289486114
 30
0.0
 40
0.0402770249013154
 50
89.286778142406277
 51
119.5133889691672948
  0
ARC
  5
31CF5
  8
0
 10
6728.2709200658609916
 20
153.5491243215415125
 30
0.0
 40
0.0202328066061988
 50
119.5133889691672948
 51
145.3923658269283976
  0
ARC
  5
31CF6
  8
0
 10
6728.2653566708568178
 20
153.5529633448271909
 30
0.0
 40
0.0134734084263372
 50
145.3923658269283976
 51
219.3393962567222957
  0
ARC
  5
31CF7
  8
0
 10
6728.2738623853992976
 20
153.5599349635492104
 30
0.0
 40
0.0244711649009719
 50
219.3393962567222957
 51
250.1518200742976887
  0
ARC
  5
31CF8
  8
0
 10
6728.2823176270158001
 20
153.5833584806414933
 30
0.0
 40
0.0493740214388993
 50
250.1518200742976887
 51
268.8140796168418092
  0
LINE
  5
31CF9
  8
0
 10
6728.2194308409552832
 20
153.6388094688383035
 30
0.0
 11
6728.2255766826410763
 21
153.560429409541797
 31
0.0
  0
ARC
  5
31CFA
  8
0
 10
6728.0479040182235622
 20
154.7119106674441866
 30
0.0
 40
0.0911201021540354
 50
59.6561140477709486
 51
91.1831279411805866
  0
ARC
  5
31CFB
  8
0
 10
6728.0696059098272599
 20
154.7489837867667006
 30
0.0
 40
0.048162119479436
 50
37.3590984472734533
 51
59.6561140477709486
  0
ARC
  5
31CFC
  8
0
 10
6728.0822690956965744
 20
154.758651207187512
 30
0.0
 40
0.032230537826929
 50
313.6740346979283913
 51
37.3590984472734533
  0
ARC
  5
31CFD
  8
0
 10
6728.0464833253226971
 20
154.6573994012763933
 30
0.0
 40
0.07934077095047
 50
64.8438422769343532
 51
90.3327358489045906
  0
ARC
  5
31CFE
  8
0
 10
6728.0610858664676925
 20
154.6884935430977066
 30
0.0
 40
0.0449884804392454
 50
41.8366690421890013
 51
64.8436113568186698
  0
ARC
  5
31CFF
  8
0
 10
6728.0737474720126556
 20
154.6998289147441881
 30
0.0
 40
0.0279941606418049
 50
358.4951902127805852
 51
41.8366690421890013
  0
ARC
  5
31D00
  8
0
 10
6728.0778931384329553
 20
154.6997200083943937
 30
0.0
 40
0.0238470639869637
 50
332.4722313008514902
 51
358.4951902127805852
  0
ARC
  5
31D01
  8
0
 10
6728.0576069371672929
 20
154.7102928356462996
 30
0.0
 40
0.0467231352827748
 50
307.8299051590415161
 51
332.4722313008514902
  0
ARC
  5
31D02
  8
0
 10
6728.0609539884981132
 20
154.7059824904125946
 30
0.0
 40
0.0412658622785049
 50
295.1232715934525004
 51
307.8299051590415161
  0
ARC
  5
31D03
  8
0
 10
6728.0448293088948049
 20
154.7403686308543058
 30
0.0
 40
0.079244961092701
 50
280.2753448296504075
 51
295.1232715934525004
  0
ARC
  5
31D04
  8
0
 10
6728.0460490008008492
 20
154.7406209422219945
 30
0.0
 40
0.0792854363870778
 50
269.9808992875659897
 51
279.375506834842497
  0
ARC
  5
31D05
  8
0
 10
6728.0465239276545617
 20
154.6710805341510877
 30
0.0
 40
0.0402770249013154
 50
60.4866110308327194
 51
90.7132218575937657
  0
ARC
  5
31D06
  8
0
 10
6728.0563982494340962
 20
154.6885238267439036
 30
0.0
 40
0.0202328066061988
 50
34.6076341730715882
 51
60.4866110308327194
  0
ARC
  5
31D07
  8
0
 10
6728.0619616444373605
 20
154.6923628500296104
 30
0.0
 40
0.0134734084263372
 50
320.6606037432777043
 51
34.6076341730715882
  0
ARC
  5
31D08
  8
0
 10
6728.0534559298948807
 20
154.6993344687516867
 30
0.0
 40
0.0244711649009719
 50
289.8481799257023113
 51
320.6606037432777043
  0
ARC
  5
31D09
  8
0
 10
6728.0450006882801972
 20
154.7227579858439981
 30
0.0
 40
0.0493740214388993
 50
271.1859203831583045
 51
289.8481799257023113
  0
LINE
  5
31D0A
  8
0
 10
6728.1078874743398046
 20
154.7782089740408082
 30
0.0
 11
6728.101741632654921
 21
154.6998289147441881
 31
0.0
  0
ARC
  5
31D0B
  8
0
 10
6728.0441411205565601
 20
154.7119106674441866
 30
0.0
 40
0.0911201021540354
 50
88.8168720588193992
 51
120.3438859522290016
  0
ARC
  5
31D0C
  8
0
 10
6728.0224392289519528
 20
154.7489837867667006
 30
0.0
 40
0.048162119479436
 50
120.3438859522290016
 51
142.6409015527264899
  0
ARC
  5
31D0D
  8
0
 10
6728.0097760430835478
 20
154.758651207187512
 30
0.0
 40
0.032230537826929
 50
142.6409015527264899
 51
226.3259653020716087
  0
ARC
  5
31D0E
  8
0
 10
6728.0455618134556062
 20
154.6573994012763933
 30
0.0
 40
0.079340770950467
 50
89.6672641510954236
 51
115.1561577230663005
  0
ARC
  5
31D0F
  8
0
 10
6728.0309592723142487
 20
154.6884935430977066
 30
0.0
 40
0.0449884804392454
 50
115.1563886431813017
 51
138.1633309578110129
  0
ARC
  5
31D10
  8
0
 10
6728.0182976667683761
 20
154.6998289147441881
 30
0.0
 40
0.0279941606418049
 50
138.1633309578110129
 51
181.5048097872195001
  0
ARC
  5
31D11
  8
0
 10
6728.0141520003471669
 20
154.6997200083943937
 30
0.0
 40
0.0238470639869637
 50
181.5048097872195001
 51
207.5277686991470887
  0
ARC
  5
31D12
  8
0
 10
6728.0344382016137388
 20
154.7102928356462996
 30
0.0
 40
0.0467231352827748
 50
207.5277686991470887
 51
232.1700948409574892
  0
ARC
  5
31D13
  8
0
 10
6728.031091150282009
 20
154.7059824904125946
 30
0.0
 40
0.0412658622785049
 50
232.1700948409585123
 51
244.8767284065474996
  0
ARC
  5
31D14
  8
0
 10
6728.0472158298853174
 20
154.7403686308543058
 30
0.0
 40
0.079244961092701
 50
244.8767284065474996
 51
259.7246551703494788
  0
ARC
  5
31D15
  8
0
 10
6728.045996137979273
 20
154.7406209422219945
 30
0.0
 40
0.0792854363870859
 50
260.624493165157503
 51
270.0191007124340103
  0
ARC
  5
31D16
  8
0
 10
6728.045521211124651
 20
154.6710805341510877
 30
0.0
 40
0.0402770249013154
 50
89.286778142406277
 51
119.5133889691672948
  0
ARC
  5
31D17
  8
0
 10
6728.0356468893451165
 20
154.6885238267439036
 30
0.0
 40
0.0202328066061988
 50
119.5133889691672948
 51
145.3923658269283976
  0
ARC
  5
31D18
  8
0
 10
6728.0300834943427617
 20
154.6923628500296104
 30
0.0
 40
0.0134734084263372
 50
145.3923658269283976
 51
219.3393962567222957
  0
ARC
  5
31D19
  8
0
 10
6728.038589208884332
 20
154.6993344687516867
 30
0.0
 40
0.0244711649009719
 50
219.3393962567222957
 51
250.1518200742976887
  0
ARC
  5
31D1A
  8
0
 10
6728.047044450499925
 20
154.7227579858439981
 30
0.0
 40
0.0493740214388993
 50
250.1518200742976887
 51
268.8140796168418092
  0
LINE
  5
31D1B
  8
0
 10
6727.9841576644403176
 20
154.7782089740408082
 30
0.0
 11
6727.9903035061252012
 21
154.6998289147441881
 31
0.0
  0
ARC
  5
31D1D
  8
0
 10
6727.5731266670472905
 20
153.2087084103955874
 30
0.0
 40
3.9473315605517021
 50
89.6162159085957057
 51
116.0892340830168052
  0
ARC
  5
31D1E
  8
0
 10
6726.7648969654837856
 20
154.8592954496803031
 30
0.0
 40
2.1094869466778738
 50
116.0892340830168052
 51
148.6250046112625967
  0
ARC
  5
31D1F
  8
0
 10
6725.9284650244908335
 20
155.3796989963325075
 30
0.0
 40
1.124452980059643
 50
149.075020899020501
 51
178.7231004515064114
  0
ARC
  5
31D20
  8
0
 10
6727.5833489422757339
 20
152.777791487258213
 30
0.0
 40
3.986122932943299
 50
89.7668859993319472
 51
116.2756150940759028
  0
ARC
  5
31D21
  8
0
 10
6726.7512729930704154
 20
154.4631746978400884
 30
0.0
 40
2.1065307027616011
 50
116.2756150940759028
 51
142.1257137443182899
  0
ARC
  5
31D22
  8
0
 10
6726.1768030859429928
 20
154.9097519644622878
 30
0.0
 40
1.37889969559957
 50
142.1184506964357013
 51
170.6189866738932892
  0
ARC
  5
31D23
  8
0
 10
6725.9774739382446569
 20
154.9667735612630963
 30
0.0
 40
1.173182664165153
 50
171.7798720481295902
 51
198.8184522459235097
  0
ARC
  5
31D24
  8
0
 10
6726.3833276817249498
 20
155.1395543139182109
 30
0.0
 40
1.6134056105359851
 50
199.9772402789321859
 51
230.3062586442289899
  0
ARC
  5
31D25
  8
0
 10
6727.1830545414240987
 20
156.102670836937591
 30
0.0
 40
2.865266806929851
 50
230.3014915127037909
 51
251.0971992111890927
  0
ARC
  5
31D26
  8
0
 10
6727.59137924908282
 20
157.295099504273594
 30
0.0
 40
4.1256695971393311
 50
251.0971992111890927
 51
261.2733745820943909
  0
ARC
  5
31D27
  8
0
 10
6727.5800126293188441
 20
157.2210484744186942
 30
0.0
 40
4.0507512744978609
 50
261.2733745820943909
 51
270.2765856078653997
  0
LINE
  5
31D28
  8
0
 10
6730.394842455080834
 20
155.4047565950486955
 30
0.0
 11
6730.394842455080834
 21
154.9667735612630963
 31
0.0
  0
ARC
  5
31D29
  8
0
 10
6727.6260070621128762
 20
153.2087084103955874
 30
0.0
 40
3.9473315605517021
 50
63.9107659169832232
 51
90.3837840914043085
  0
ARC
  5
31D2A
  8
0
 10
6728.4342367636772906
 20
154.8592954496803031
 30
0.0
 40
2.1094869466778738
 50
31.3749953887373998
 51
63.9107659169832232
  0
ARC
  5
31D2B
  8
0
 10
6729.2706687046702427
 20
155.3796989963325075
 30
0.0
 40
1.124452980059643
 50
1.2768995484935499
 51
30.9249791009794492
  0
ARC
  5
31D2C
  8
0
 10
6727.6157847868862518
 20
152.777791487258213
 30
0.0
 40
3.986122932943299
 50
63.7243849059240475
 51
90.2331140006680243
  0
ARC
  5
31D2D
  8
0
 10
6728.4478607360906608
 20
154.4631746978400884
 30
0.0
 40
2.1065307027616011
 50
37.8742862556816817
 51
63.7243849059240475
  0
ARC
  5
31D2E
  8
0
 10
6729.0223306432189929
 20
154.9097519644622878
 30
0.0
 40
1.37889969559957
 50
9.3810133261066326
 51
37.8815493035642277
  0
ARC
  5
31D2F
  8
0
 10
6729.2216597909164193
 20
154.9667735612630963
 30
0.0
 40
1.173182664165153
 50
341.181547754076405
 51
8.2201279518703441
  0
ARC
  5
31D30
  8
0
 10
6728.8158060474370359
 20
155.1395543139182109
 30
0.0
 40
1.6134056105359851
 50
309.6937413557710101
 51
340.0227597210677004
  0
ARC
  5
31D31
  8
0
 10
6728.016079187736068
 20
156.102670836937591
 30
0.0
 40
2.865266806929851
 50
288.9028007888109073
 51
309.6985084872961806
  0
ARC
  5
31D32
  8
0
 10
6727.6077544800800752
 20
157.295099504273594
 30
0.0
 40
4.1256695971393311
 50
278.7266254179056091
 51
288.9028007888109073
  0
ARC
  5
31D33
  8
0
 10
6727.6191210998431416
 20
157.2210484744186942
 30
0.0
 40
4.0507512744978609
 50
269.723414392134714
 51
278.7266254179056091
  0
ENDSEC
  0
EOF
