  0
SECTION
  2
HEADER
  9
$ACADVER
  1
AC1009
  9
$INSBASE
 10
6584.403832150929702
 20
226.8388574421844908
 30
0.0
  9
$EXTMIN
 10
6583.2227297887302484
 20
222.7050023455844894
 30
0.0
  9
$EXTMAX
 10
6585.5849345131300652
 20
226.8388574421844908
 30
0.0
  9
$LIMMIN
 10
0.0
 20
0.0
  9
$LIMMAX
 10
11.6929133858000007
 20
8.2677165353999982
  9
$ORTHOMODE
 70
     0
  9
$REGENMODE
 70
     1
  9
$FILLMODE
 70
     1
  9
$QTEXTMODE
 70
     0
  9
$MIRRTEXT
 70
     0
  9
$DRAGMODE
 70
     2
  9
$LTSCALE
 40
0.6431102362
  9
$OSMODE
 70
  4095
  9
$ATTMODE
 70
     1
  9
$TEXTSIZE
 40
0.2
  9
$TRACEWID
 40
0.05
  9
$TEXTSTYLE
  7
STANDARD
  9
$CLAYER
  8
0
  9
$CELTYPE
  6
BYLAYER
  9
$CECOLOR
 62
   256
  9
$DIMSCALE
 40
1.0
  9
$DIMASZ
 40
0.1875
  9
$DIMEXO
 40
0.0625
  9
$DIMDLI
 40
0.4443307087
  9
$DIMRND
 40
0.0
  9
$DIMDLE
 40
0.0
  9
$DIMEXE
 40
0.125
  9
$DIMTP
 40
0.01
  9
$DIMTM
 40
0.01
  9
$DIMTXT
 40
2.0
  9
$DIMCEN
 40
0.1052362205
  9
$DIMTSZ
 40
0.0
  9
$DIMTOL
 70
     1
  9
$DIMLIM
 70
     0
  9
$DIMTIH
 70
     1
  9
$DIMTOH
 70
     1
  9
$DIMSE1
 70
     0
  9
$DIMSE2
 70
     0
  9
$DIMTAD
 70
     0
  9
$DIMZIN
 70
     0
  9
$DIMBLK
  1

  9
$DIMASO
 70
     1
  9
$DIMSHO
 70
     1
  9
$DIMPOST
  1
\X
  9
$DIMAPOST
  1

  9
$DIMALT
 70
     1
  9
$DIMALTD
 70
     2
  9
$DIMALTF
 40
25.3999999999999986
  9
$DIMLFAC
 40
1.0
  9
$DIMTOFL
 70
     0
  9
$DIMTVP
 40
0.0
  9
$DIMTIX
 70
     0
  9
$DIMSOXD
 70
     0
  9
$DIMSAH
 70
     0
  9
$DIMBLK1
  1

  9
$DIMBLK2
  1

  9
$DIMSTYLE
  2
STANDARD
  9
$DIMCLRD
 70
     0
  9
$DIMCLRE
 70
     0
  9
$DIMCLRT
 70
     0
  9
$DIMTFAC
 40
1.0
  9
$DIMGAP
 40
0.09
  9
$LUNITS
 70
     2
  9
$LUPREC
 70
     4
  9
$SKETCHINC
 40
0.1
  9
$FILLETRAD
 40
0.0
  9
$AUNITS
 70
     0
  9
$AUPREC
 70
     0
  9
$MENU
  1
.
  9
$ELEVATION
 40
0.0
  9
$PELEVATION
 40
0.0
  9
$THICKNESS
 40
0.0
  9
$LIMCHECK
 70
     0
  9
$BLIPMODE
 70
     0
  9
$CHAMFERA
 40
0.0
  9
$CHAMFERB
 40
0.0
  9
$SKPOLY
 70
     0
  9
$TDCREATE
 40
2458060.468368056230247
  9
$TDUPDATE
 40
2460549.6517245369032025
  9
$TDINDWG
 40
0.9537917824
  9
$TDUSRTIMER
 40
0.9537917824
  9
$USRTIMER
 70
     1
  9
$ANGBASE
 50
0.0
  9
$ANGDIR
 70
     0
  9
$PDMODE
 70
     0
  9
$PDSIZE
 40
0.3125
  9
$PLINEWID
 40
0.0
  9
$COORDS
 70
     0
  9
$SPLFRAME
 70
     0
  9
$SPLINETYPE
 70
     6
  9
$SPLINESEGS
 70
     8
  9
$ATTDIA
 70
     1
  9
$ATTREQ
 70
     1
  9
$HANDLING
 70
     1
  9
$HANDSEED
  5
2FCA8
  9
$SURFTAB1
 70
     6
  9
$SURFTAB2
 70
     6
  9
$SURFTYPE
 70
     6
  9
$SURFU
 70
     6
  9
$SURFV
 70
     6
  9
$UCSNAME
  2

  9
$UCSORG
 10
0.0
 20
0.0
 30
0.0
  9
$UCSXDIR
 10
1.0
 20
0.0
 30
0.0
  9
$UCSYDIR
 10
0.0
 20
1.0
 30
0.0
  9
$PUCSNAME
  2

  9
$PUCSORG
 10
0.0
 20
0.0
 30
0.0
  9
$PUCSXDIR
 10
1.0
 20
0.0
 30
0.0
  9
$PUCSYDIR
 10
0.0
 20
1.0
 30
0.0
  9
$USERI1
 70
     0
  9
$USERI2
 70
     0
  9
$USERI3
 70
     0
  9
$USERI4
 70
     0
  9
$USERI5
 70
     0
  9
$USERR1
 40
0.0
  9
$USERR2
 40
0.0
  9
$USERR3
 40
0.0
  9
$USERR4
 40
0.0
  9
$USERR5
 40
0.0
  9
$WORLDVIEW
 70
     1
  9
$SHADEDGE
 70
     3
  9
$SHADEDIF
 70
    70
  9
$TILEMODE
 70
     1
  9
$MAXACTVP
 70
    64
  9
$PLIMCHECK
 70
     0
  9
$PEXTMIN
 10
1.0000000000000000E+20
 20
1.0000000000000000E+20
 30
1.0000000000000000E+20
  9
$PEXTMAX
 10
-1.0000000000000000E+20
 20
-1.0000000000000000E+20
 30
-1.0000000000000000E+20
  9
$PLIMMIN
 10
0.0
 20
0.0
  9
$PLIMMAX
 10
12.0
 20
9.0
  9
$UNITMODE
 70
     0
  9
$VISRETAIN
 70
     1
  9
$PLINEGEN
 70
     0
  9
$PSLTSCALE
 70
     1
  0
ENDSEC
  0
SECTION
  2
TABLES
  0
TABLE
  2
VPORT
 70
     1
  0
VPORT
  2
*ACTIVE
 70
     0
 10
0.0
 20
0.0
 11
1.0
 21
1.0
 12
2673.0384757056181115
 22
92.192324791345456
 13
0.0
 23
0.0
 14
1.0
 24
1.0
 15
0.0
 25
0.0
 16
0.0
 26
0.0
 36
60.4960186965801583
 17
3911.3653564453120453
 27
132.5796051025390057
 37
0.0
 40
4.1631386037778091
 41
2.2423167848699759
 42
50.0
 43
0.0
 44
0.0
 50
0.0
 51
0.0
 71
     0
 72
   100
 73
     1
 74
     1
 75
     0
 76
     0
 77
     0
 78
     0
  0
ENDTAB
  0
TABLE
  2
LTYPE
 70
     2
  0
LTYPE
  2
CONTINUOUS
 70
     0
  3
Solid line
 72
    65
 73
     0
 40
0.0
  0
LTYPE
  2
PHANTOM2
 70
     0
  3
___ _ _ ___ _ _ ___ _ _ ___ _ _
 72
    65
 73
     6
 40
1.25
 49
0.625
 49
-0.125
 49
0.125
 49
-0.125
 49
0.125
 49
-0.125
  0
ENDTAB
  0
TABLE
  2
LAYER
 70
     2
  0
LAYER
  2
0
 70
     0
 62
   255
  6
CONTINUOUS
  0
LAYER
  2
DEFPOINTS
 70
     0
 62
     7
  6
CONTINUOUS
  0
ENDTAB
  0
TABLE
  2
STYLE
 70
     1
  0
STYLE
  2
STANDARD
 70
     0
 40
0.0
 41
0.8
 50
0.0
 71
     0
 42
0.2
  3
txt
  4

  0
ENDTAB
  0
TABLE
  2
VIEW
 70
     0
  0
ENDTAB
  0
TABLE
  2
UCS
 70
     0
  0
ENDTAB
  0
TABLE
  2
APPID
 70
    11
  0
APPID
  2
ACAD
 70
     0
  0
APPID
  2
ACAD_MLEADERVER
 70
     0
  0
APPID
  2
ACAD_EXEMPT_FROM_CAD_STANDARDS
 70
     0
  0
APPID
  2
ACAD_NAV_VCDISPLAY
 70
     0
  0
APPID
  2
ACAECLAYERSTANDARD
 70
     0
  0
APPID
  2
ACCMTRANSPARENCY
 70
     0
  0
APPID
  2
ACAD_DSTYLE_DIMJAG
 70
     0
  0
APPID
  2
ACAD_DSTYLE_DIMTALN
 70
     0
  0
APPID
  2
ACDBATTR
 70
     0
  0
APPID
  2
ACADANNOTATIVE
 70
     0
  0
APPID
  2
DCO15
 70
     0
  0
ENDTAB
  0
TABLE
  2
DIMSTYLE
 70
     1
  0
DIMSTYLE
  2
STANDARD
 70
     0
  3

  4

  5

  6

  7

 40
1.0
 41
0.1875
 42
0.0625
 43
0.38
 44
0.125
 45
0.0
 46
0.0
 47
0.01
 48
0.01
140
0.15625
141
0.09
142
0.0
143
25.3999999999999986
144
1.0
145
0.0
146
1.0
147
0.09
 71
     1
 72
     0
 73
     1
 74
     1
 75
     0
 76
     0
 77
     0
 78
     4
170
     0
171
     2
172
     0
173
     0
174
     0
175
     0
176
     0
177
     0
178
     0
  0
ENDTAB
  0
ENDSEC
  0
SECTION
  2
BLOCKS
  0
BLOCK
  8
0
  2
$MODEL_SPACE
 70
     0
 10
0.0
 20
0.0
 30
0.0
  3
$MODEL_SPACE
  1

  0
ENDBLK
  5
21
  8
0
  0
BLOCK
 67
     1
  8
0
  2
$PAPER_SPACE
 70
     0
 10
0.0
 20
0.0
 30
0.0
  3
$PAPER_SPACE
  1

  0
ENDBLK
  5
1D
 67
     1
  8
0
  0
BLOCK
  8
0
  2
_FILLED
 70
     0
 10
0.0
 20
0.0
 30
0.0
  3
_FILLED
  1

  0
SOLID
  5
26C2A
  8
0
  6
BYBLOCK
 62
     0
 10
0.0
 20
0.0
 30
0.0
 11
-1.0
 21
0.1666666667
 31
0.0
 12
-1.0
 22
-0.1666666667
 32
0.0
 13
-1.0
 23
-0.1666666667
 33
0.0
  0
ENDBLK
  5
26C2B
  8
0
  6
BYBLOCK
 62
     0
  0
ENDSEC
  0
SECTION
  2
ENTITIES
  0
ATTDEF
  5
26A5B
  8
DEFPOINTS
 10
6584.3930934261779839
 20
226.8367893054627871
 30
0.0
 40
0.001
  1
P33011-00
  3

  2
MODELNUMBER
 70
     0
1001
ACDBATTR
1070
     0
1070
     1
  0
ATTDEF
  5
26A5C
  8
DEFPOINTS
 10
6584.3929676165198543
 20
226.8351224650837139
 30
0.0
 40
0.001
  1

  3

  2
TRADENAME
 70
     0
1001
ACDBATTR
1070
     0
1070
     1
  0
ATTDEF
  5
26A5D
  8
DEFPOINTS
 10
6584.3930934261779839
 20
226.8334559721295136
 30
0.0
 40
0.001
  1
SHOWER ARM
  3

  2
PRODUCT
 70
     0
1001
ACDBATTR
1070
     0
1070
     1
  0
LINE
  5
2F9C7
  8
0
 10
6585.5769345131311638
 20
226.8388574421844908
 30
0.0
 11
6583.2307297887300592
 21
226.8388574421844908
 31
0.0
  0
LINE
  5
2F9C8
  8
0
 10
6584.6267347709472233
 20
226.5203534772437024
 30
0.0
 11
6584.1809295309285517
 21
226.5203534772437024
 31
0.0
  0
LINE
  5
2F9C9
  8
0
 10
6583.2227297887302484
 20
226.8308574421845094
 30
0.0
 11
6583.2227297887302484
 21
226.6916322686982141
 31
0.0
  0
LINE
  5
2F9CA
  8
0
 10
6583.4566440154312659
 20
226.8308574421845094
 30
0.0
 11
6583.4566440154312659
 21
226.6894520649441915
 31
0.0
  0
ARC
  5
2F9CB
  8
0
 10
6583.4646440154301672
 20
226.8308574421845094
 30
0.0
 40
0.008
 50
90.0
 51
180.0000000000129887
  0
ARC
  5
2F9CC
  8
0
 10
6583.2307297887300592
 20
226.8308574421845094
 30
0.0
 40
0.008
 50
90.0
 51
180.0000000000194973
  0
LINE
  5
2F9CD
  8
0
 10
6583.384901468471071
 20
226.5253192916393061
 30
0.0
 11
6583.2250583463355724
 21
226.6859900403107133
 31
0.0
  0
ARC
  5
2F9CE
  8
0
 10
6584.5171221373811932
 20
448.1693825283634851
 30
0.0
 40
221.6492840159262983
 50
269.708778108264994
 51
269.9130950279412104
  0
ARC
  5
2F9CF
  8
0
 10
6583.5304322144147591
 20
226.5302947680490036
 30
0.0
 40
0.008
 50
202.4579176365085971
 51
269.7449331010723768
  0
ARC
  5
2F9D0
  8
0
 10
6583.3905729108646483
 20
226.5309615200264943
 30
0.0
 40
0.008
 50
224.8520519489800904
 51
269.7087781082129254
  0
ARC
  5
2F9D1
  8
0
 10
6583.2307297887300592
 20
226.6916322686982141
 30
0.0
 40
0.008
 50
179.9999999999739089
 51
224.8520519498875103
  0
LINE
  5
2F9D2
  8
0
 10
6583.4574185484780173
 20
226.6859900403107133
 30
0.0
 11
6583.5230389315729553
 21
226.527238729952586
 31
0.0
  0
ARC
  5
2F9D3
  8
0
 10
6583.4648662509907808
 20
226.6894739120346003
 30
0.0
 40
0.0082222645840579
 50
180.1522387819813957
 51
205.0691609670143976
  0
LINE
  5
2F9D4
  8
0
 10
6583.2250583463355724
 20
226.6859900403107133
 30
0.0
 11
6585.5826059555238317
 21
226.6859900403107133
 31
0.0
  0
LINE
  5
2F9D5
  8
0
 10
6583.9510762454301585
 20
223.019962975584491
 30
0.0
 11
6583.9510762454301585
 21
226.5208212949980009
 31
0.0
  0
LINE
  5
2F9D6
  8
0
 10
6583.9510762454301585
 20
223.019962975584491
 30
0.0
 11
6584.8565880564310646
 21
223.019962975584491
 31
0.0
  0
LINE
  5
2F9D7
  8
0
 10
6584.035437213629848
 20
222.7050023455844894
 30
0.0
 11
6584.7722270882295561
 21
222.7050023455844894
 31
0.0
  0
LINE
  5
2F9D8
  8
0
 10
6583.9869931348903265
 20
222.9969880941565066
 30
0.0
 11
6583.9876691212130027
 21
222.975236014487507
 31
0.0
  0
LINE
  5
2F9D9
  8
0
 10
6583.9894488118115987
 20
222.9179686254205137
 30
0.0
 11
6583.9898750535976433
 21
222.9042528962955032
 31
0.0
  0
LINE
  5
2F9DA
  8
0
 10
6583.991655289269147
 20
222.8469679677675117
 30
0.0
 11
6583.9920825271674403
 21
222.833220185430406
 31
0.0
  0
LINE
  5
2F9DB
  8
0
 10
6583.9938609051878302
 20
222.7759950328783987
 30
0.0
 11
6583.9942887971938035
 21
222.7622262025251985
 31
0.0
  0
LINE
  5
2F9DC
  8
0
 10
6584.0207327560628983
 20
222.7192569336851022
 30
0.0
 11
6584.035437213629848
 21
222.7050023455844894
 31
0.0
  0
LINE
  5
2F9DD
  8
0
 10
6585.5849345131300652
 20
226.8308574421845094
 30
0.0
 11
6585.5849345131300652
 21
226.6916322686982141
 31
0.0
  0
LINE
  5
2F9DE
  8
0
 10
6585.3510202864299572
 20
226.8308574421845094
 30
0.0
 11
6585.3510202864299572
 21
226.6894520649441915
 31
0.0
  0
ARC
  5
2F9DF
  8
0
 10
6585.3430202864301464
 20
226.8308574421845094
 30
0.0
 40
0.008
 50
359.9999999999869829
 51
90.0
  0
ARC
  5
2F9E0
  8
0
 10
6585.5769345131311638
 20
226.8308574421845094
 30
0.0
 40
0.008
 50
359.9999999999805027
 51
90.0
  0
LINE
  5
2F9E1
  8
0
 10
6585.4227628333901521
 20
226.5253192916393061
 30
0.0
 11
6585.5826059555238317
 21
226.6859900403107133
 31
0.0
  0
ARC
  5
2F9E2
  8
0
 10
6584.2905421644800299
 20
448.1693825283634851
 30
0.0
 40
221.6492840159262983
 50
270.0869049720587896
 51
270.291221891735006
  0
ARC
  5
2F9E3
  8
0
 10
6585.2772320874455545
 20
226.5302947680490036
 30
0.0
 40
0.008
 50
270.2550668989276232
 51
337.5420823634914882
  0
ARC
  5
2F9E4
  8
0
 10
6585.4170913909965748
 20
226.5309615200264943
 30
0.0
 40
0.008
 50
270.2912218917870746
 51
315.1479480510199096
  0
ARC
  5
2F9E5
  8
0
 10
6585.5769345131311638
 20
226.6916322686982141
 30
0.0
 40
0.008
 50
315.1479480501125181
 51
0.0000000000260551
  0
LINE
  5
2F9E6
  8
0
 10
6585.3502457533822962
 20
226.6859900403107133
 30
0.0
 11
6585.2846253702864487
 21
226.527238729952586
 31
0.0
  0
ARC
  5
2F9E7
  8
0
 10
6585.3427980508713517
 20
226.6894739120346003
 30
0.0
 40
0.0082222645840579
 50
334.9308390329856024
 51
359.8477612180186043
  0
LINE
  5
2F9E8
  8
0
 10
6584.8565880564310646
 20
223.019962975584491
 30
0.0
 11
6584.8565880564310646
 21
226.5208212949980009
 31
0.0
  0
LINE
  5
2F9E9
  8
0
 10
6584.8213851541304393
 20
223.019962975584491
 30
0.0
 11
6584.821099021709415
 21
223.0107557253917037
 31
0.0
  0
LINE
  5
2F9EA
  8
0
 10
6584.8193192814223949
 20
222.9534867374244129
 30
0.0
 11
6584.8188919570966391
 21
222.9397361740344934
 31
0.0
  0
LINE
  5
2F9EB
  8
0
 10
6584.817113328486812
 20
222.8825029579512034
 30
0.0
 11
6584.8166849459294099
 21
222.8687183424605962
 31
0.0
  0
LINE
  5
2F9EC
  8
0
 10
6584.8149066160276561
 20
222.8114947383189985
 30
0.0
 11
6584.8144786397506323
 21
222.7977231962800886
 31
0.0
  0
LINE
  5
2F9ED
  8
0
 10
6584.8102890924938038
 20
222.7418998775480077
 30
0.0
 11
6584.7722270882295561
 21
222.7050023455844894
 31
0.0
  0
LINE
  5
2F9EE
  8
0
 10
6584.0410250852382887
 20
222.7309897167247073
 30
0.0
 11
6584.0408904699743289
 21
222.735286701743604
 31
0.0
  0
LINE
  5
2F9EF
  8
0
 10
6584.0388012039566092
 20
222.8019770936909936
 30
0.0
 11
6584.0386660141421089
 21
222.806292418639913
 31
0.0
  0
LINE
  5
2F9F0
  8
0
 10
6584.0365780102129065
 20
222.8729425240179012
 30
0.0
 11
6584.0364405233658545
 21
222.8773311713744079
 31
0.0
  0
LINE
  5
2F9F1
  8
0
 10
6584.0343540833346196
 20
222.9439313564525946
 30
0.0
 11
6584.0342163847581105
 21
222.9483267622676976
 31
0.0
  0
LINE
  5
2F9F2
  8
0
 10
6584.019854608030073
 20
223.019962975584491
 30
0.0
 11
6584.019854608030073
 21
223.0170707326367108
 31
0.0
  0
LINE
  5
2F9F3
  8
0
 10
6584.019854608030073
 20
223.0170707326367108
 30
0.0
 11
6583.9869931348903265
 21
222.9969880941565066
 31
0.0
  0
LINE
  5
2F9F4
  8
0
 10
6583.9876691212130027
 20
222.975236014487507
 30
0.0
 11
6584.0342163847581105
 21
222.9483267622676976
 31
0.0
  0
LINE
  5
2F9F5
  8
0
 10
6584.0343540833346196
 20
222.9439313564525946
 30
0.0
 11
6583.9894488118115987
 21
222.9179686254205137
 31
0.0
  0
LINE
  5
2F9F6
  8
0
 10
6583.9898750535976433
 20
222.9042528962955032
 30
0.0
 11
6584.0364405233658545
 21
222.8773311713744079
 31
0.0
  0
LINE
  5
2F9F7
  8
0
 10
6584.0365780102129065
 20
222.8729425240179012
 30
0.0
 11
6583.991655289269147
 21
222.8469679677675117
 31
0.0
  0
LINE
  5
2F9F8
  8
0
 10
6583.9920825271674403
 20
222.833220185430406
 30
0.0
 11
6584.0386660141421089
 21
222.806292418639913
 31
0.0
  0
LINE
  5
2F9F9
  8
0
 10
6584.0388012039566092
 20
222.8019770936909936
 30
0.0
 11
6583.9938609051878302
 21
222.7759950328783987
 31
0.0
  0
LINE
  5
2F9FA
  8
0
 10
6583.9942887971938035
 20
222.7622262025251985
 30
0.0
 11
6584.0408904699743289
 21
222.735286701743604
 31
0.0
  0
LINE
  5
2F9FB
  8
0
 10
6584.0410250852382887
 20
222.7309897167247073
 30
0.0
 11
6584.0207327560628983
 21
222.7192569336851022
 31
0.0
  0
LINE
  5
2F9FC
  8
0
 10
6584.821099021709415
 20
223.0107557253917037
 30
0.0
 11
6584.7745675822707199
 21
222.9838555419842123
 31
0.0
  0
LINE
  5
2F9FD
  8
0
 10
6584.7744266739446175
 20
222.9794416842555904
 30
0.0
 11
6584.8193192814223949
 21
222.9534867374244129
 31
0.0
  0
LINE
  5
2F9FE
  8
0
 10
6584.8188919570966391
 20
222.9397361740344934
 30
0.0
 11
6584.7722992879944286
 21
222.9128027616951897
 31
0.0
  0
LINE
  5
2F9FF
  8
0
 10
6584.7721616009766876
 20
222.9084898092312983
 30
0.0
 11
6584.817113328486812
 21
222.8825029579512034
 31
0.0
  0
LINE
  5
2FA00
  8
0
 10
6584.8166849459294099
 20
222.8687183424605962
 30
0.0
 11
6584.7700309946749258
 21
222.8417500114445033
 31
0.0
  0
LINE
  5
2FA01
  8
0
 10
6584.7698958234868769
 20
222.8375158656679105
 30
0.0
 11
6584.8149066160276561
 21
222.8114947383191122
 31
0.0
  0
LINE
  5
2FA02
  8
0
 10
6584.8144786397506323
 20
222.7977231962800886
 30
0.0
 11
6584.7677633851362771
 21
222.7707186801195007
 31
0.0
  0
LINE
  5
2FA03
  8
0
 10
6584.7676306804696651
 20
222.7665617964443072
 30
0.0
 11
6584.8102890924938038
 21
222.7418998775480077
 31
0.0
  0
LINE
  5
2FA04
  8
0
 10
6584.7676306804696651
 20
222.7665617964443072
 30
0.0
 11
6584.7677633851362771
 21
222.7707186801195007
 31
0.0
  0
LINE
  5
2FA05
  8
0
 10
6584.7698958234868769
 20
222.8375158656679105
 30
0.0
 11
6584.7700309946749258
 21
222.8417500114445033
 31
0.0
  0
LINE
  5
2FA06
  8
0
 10
6584.7721616009766876
 20
222.9084898092312983
 30
0.0
 11
6584.7722992879944286
 21
222.9128027616951897
 31
0.0
  0
LINE
  5
2FA07
  8
0
 10
6584.7744266739446175
 20
222.9794416842555904
 30
0.0
 11
6584.7745675822707199
 21
222.9838555419842123
 31
0.0
  0
LINE
  5
2FA08
  8
0
 10
6583.9876691212130027
 20
222.975236014487507
 30
0.0
 11
6584.821099021709415
 21
223.0107557253917037
 31
0.0
  0
LINE
  5
2FA09
  8
0
 10
6584.7745675822707199
 20
222.9838555419842123
 30
0.0
 11
6584.0342163847581105
 21
222.9483267622676976
 31
0.0
  0
LINE
  5
2FA0A
  8
0
 10
6584.0343540833346196
 20
222.9439313564525946
 30
0.0
 11
6584.7744266739446175
 21
222.9794416842555904
 31
0.0
  0
LINE
  5
2FA0B
  8
0
 10
6584.8193192814223949
 20
222.9534867374244129
 30
0.0
 11
6583.9894488118115987
 21
222.9179686254205137
 31
0.0
  0
LINE
  5
2FA0C
  8
0
 10
6583.9898750535976433
 20
222.9042528962955032
 30
0.0
 11
6584.8188919570966391
 21
222.9397361740344934
 31
0.0
  0
LINE
  5
2FA0D
  8
0
 10
6584.7722992879944286
 20
222.9128027616951897
 30
0.0
 11
6584.0364405233658545
 21
222.8773311713744079
 31
0.0
  0
LINE
  5
2FA0E
  8
0
 10
6584.0365780102129065
 20
222.8729425240179012
 30
0.0
 11
6584.7721616009766876
 21
222.9084898092312983
 31
0.0
  0
LINE
  5
2FA0F
  8
0
 10
6584.817113328486812
 20
222.8825029579512034
 30
0.0
 11
6583.991655289269147
 21
222.8469679677675117
 31
0.0
  0
LINE
  5
2FA10
  8
0
 10
6583.9920825271674403
 20
222.833220185430406
 30
0.0
 11
6584.8166849459294099
 21
222.8687183424605962
 31
0.0
  0
LINE
  5
2FA11
  8
0
 10
6584.7700309946749258
 20
222.8417500114445033
 30
0.0
 11
6584.0386660141421089
 21
222.806292418639913
 31
0.0
  0
LINE
  5
2FA12
  8
0
 10
6584.0388012039566092
 20
222.8019770936909936
 30
0.0
 11
6584.7698958234868769
 21
222.8375158656679105
 31
0.0
  0
LINE
  5
2FA13
  8
0
 10
6584.8149066160276561
 20
222.8114947383189985
 30
0.0
 11
6583.9938609051878302
 21
222.7759950328783987
 31
0.0
  0
LINE
  5
2FA14
  8
0
 10
6583.9942887971938035
 20
222.7622262025251985
 30
0.0
 11
6584.8144786397506323
 21
222.7977231962800886
 31
0.0
  0
LINE
  5
2FA15
  8
0
 10
6584.7677633851362771
 20
222.7707186801195007
 30
0.0
 11
6584.0408904699743289
 21
222.735286701743604
 31
0.0
  0
LINE
  5
2FA16
  8
0
 10
6584.0410250852382887
 20
222.7309897167247073
 30
0.0
 11
6584.7676306804696651
 21
222.7665617964443072
 31
0.0
  0
LINE
  5
2FA17
  8
0
 10
6584.8102890924938038
 20
222.7418998775480077
 30
0.0
 11
6584.0207327560628983
 21
222.7192569336851022
 31
0.0
  0
ENDSEC
  0
EOF
