  0
SECTION
  2
HEADER
  9
$ACADVER
  1
AC1009
  9
$INSBASE
 10
259.608817525862321
 20
18.3491618128408689
 30
0.0
  9
$EXTMIN
 10
258.424297580691416
 20
10.2774614232243398
 30
-0.0015258207003583
  9
$EXTMAX
 10
260.7963039824197722
 20
18.3541809744998687
 30
0.0000000349246037
  9
$LIMMIN
 10
0.0
 20
0.0
  9
$LIMMAX
 10
11.6929133858000007
 20
8.2677165353999982
  9
$ORTHOMODE
 70
     0
  9
$REGENMODE
 70
     1
  9
$FILLMODE
 70
     1
  9
$QTEXTMODE
 70
     0
  9
$MIRRTEXT
 70
     0
  9
$DRAGMODE
 70
     2
  9
$LTSCALE
 40
0.6431102362
  9
$OSMODE
 70
  4095
  9
$ATTMODE
 70
     1
  9
$TEXTSIZE
 40
0.2
  9
$TRACEWID
 40
0.05
  9
$TEXTSTYLE
  7
STANDARD
  9
$CLAYER
  8
0
  9
$CELTYPE
  6
BYLAYER
  9
$CECOLOR
 62
   256
  9
$DIMSCALE
 40
1.0
  9
$DIMASZ
 40
0.1875
  9
$DIMEXO
 40
0.0625
  9
$DIMDLI
 40
0.4443307087
  9
$DIMRND
 40
0.0
  9
$DIMDLE
 40
0.0
  9
$DIMEXE
 40
0.125
  9
$DIMTP
 40
0.01
  9
$DIMTM
 40
0.01
  9
$DIMTXT
 40
1.0
  9
$DIMCEN
 40
0.1052362205
  9
$DIMTSZ
 40
0.0
  9
$DIMTOL
 70
     1
  9
$DIMLIM
 70
     0
  9
$DIMTIH
 70
     1
  9
$DIMTOH
 70
     1
  9
$DIMSE1
 70
     0
  9
$DIMSE2
 70
     0
  9
$DIMTAD
 70
     0
  9
$DIMZIN
 70
     0
  9
$DIMBLK
  1

  9
$DIMASO
 70
     1
  9
$DIMSHO
 70
     1
  9
$DIMPOST
  1
\X
  9
$DIMAPOST
  1

  9
$DIMALT
 70
     1
  9
$DIMALTD
 70
     2
  9
$DIMALTF
 40
25.3999999999999986
  9
$DIMLFAC
 40
1.0
  9
$DIMTOFL
 70
     0
  9
$DIMTVP
 40
0.0
  9
$DIMTIX
 70
     0
  9
$DIMSOXD
 70
     0
  9
$DIMSAH
 70
     0
  9
$DIMBLK1
  1

  9
$DIMBLK2
  1

  9
$DIMSTYLE
  2
STANDARD
  9
$DIMCLRD
 70
     0
  9
$DIMCLRE
 70
     0
  9
$DIMCLRT
 70
     0
  9
$DIMTFAC
 40
1.0
  9
$DIMGAP
 40
0.09
  9
$LUNITS
 70
     2
  9
$LUPREC
 70
     4
  9
$SKETCHINC
 40
0.1
  9
$FILLETRAD
 40
0.0
  9
$AUNITS
 70
     0
  9
$AUPREC
 70
     0
  9
$MENU
  1
.
  9
$ELEVATION
 40
0.0
  9
$PELEVATION
 40
0.0
  9
$THICKNESS
 40
0.0
  9
$LIMCHECK
 70
     0
  9
$BLIPMODE
 70
     0
  9
$CHAMFERA
 40
0.0
  9
$CHAMFERB
 40
0.0
  9
$SKPOLY
 70
     0
  9
$TDCREATE
 40
2458172.4620254631154239
  9
$TDUPDATE
 40
2460544.5021412041969597
  9
$TDINDWG
 40
0.1101440046
  9
$TDUSRTIMER
 40
0.1101440046
  9
$USRTIMER
 70
     1
  9
$ANGBASE
 50
0.0
  9
$ANGDIR
 70
     0
  9
$PDMODE
 70
     0
  9
$PDSIZE
 40
0.3125
  9
$PLINEWID
 40
0.0
  9
$COORDS
 70
     1
  9
$SPLFRAME
 70
     0
  9
$SPLINETYPE
 70
     6
  9
$SPLINESEGS
 70
     8
  9
$ATTDIA
 70
     1
  9
$ATTREQ
 70
     1
  9
$HANDLING
 70
     1
  9
$HANDSEED
  5
40C8
  9
$SURFTAB1
 70
     6
  9
$SURFTAB2
 70
     6
  9
$SURFTYPE
 70
     6
  9
$SURFU
 70
     6
  9
$SURFV
 70
     6
  9
$UCSNAME
  2

  9
$UCSORG
 10
0.0
 20
0.0
 30
0.0
  9
$UCSXDIR
 10
1.0
 20
0.0
 30
0.0
  9
$UCSYDIR
 10
0.0
 20
1.0
 30
0.0
  9
$PUCSNAME
  2

  9
$PUCSORG
 10
0.0
 20
0.0
 30
0.0
  9
$PUCSXDIR
 10
1.0
 20
0.0
 30
0.0
  9
$PUCSYDIR
 10
0.0
 20
1.0
 30
0.0
  9
$USERI1
 70
     0
  9
$USERI2
 70
     0
  9
$USERI3
 70
     0
  9
$USERI4
 70
     0
  9
$USERI5
 70
     0
  9
$USERR1
 40
0.0
  9
$USERR2
 40
0.0
  9
$USERR3
 40
0.0
  9
$USERR4
 40
0.0
  9
$USERR5
 40
0.0
  9
$WORLDVIEW
 70
     1
  9
$SHADEDGE
 70
     3
  9
$SHADEDIF
 70
    70
  9
$TILEMODE
 70
     1
  9
$MAXACTVP
 70
    64
  9
$PLIMCHECK
 70
     0
  9
$PEXTMIN
 10
1.0000000000000000E+20
 20
1.0000000000000000E+20
 30
1.0000000000000000E+20
  9
$PEXTMAX
 10
-1.0000000000000000E+20
 20
-1.0000000000000000E+20
 30
-1.0000000000000000E+20
  9
$PLIMMIN
 10
0.0
 20
0.0
  9
$PLIMMAX
 10
12.0
 20
9.0
  9
$UNITMODE
 70
     0
  9
$VISRETAIN
 70
     1
  9
$PLINEGEN
 70
     0
  9
$PSLTSCALE
 70
     1
  0
ENDSEC
  0
SECTION
  2
TABLES
  0
TABLE
  2
VPORT
 70
     1
  0
VPORT
  2
*ACTIVE
 70
     0
 10
0.0
 20
0.0
 11
1.0
 21
1.0
 12
92.9103658341196876
 22
1.1475304430898909
 13
0.0
 23
0.0
 14
1.0
 24
1.0
 15
0.0
 25
0.0
 16
0.0
 26
0.0
 36
16.5150948445327401
 17
166.6999349474359065
 27
13.1682907557722206
 37
0.0
 40
8.1415928006833642
 41
2.558981233243967
 42
50.0
 43
0.0
 44
0.0
 50
0.0
 51
0.0
 71
     0
 72
   100
 73
     1
 74
     1
 75
     0
 76
     0
 77
     0
 78
     0
  0
ENDTAB
  0
TABLE
  2
LTYPE
 70
     2
  0
LTYPE
  2
CONTINUOUS
 70
     0
  3
Solid line
 72
    65
 73
     0
 40
0.0
  0
LTYPE
  2
PHANTOM2
 70
     0
  3
___ _ _ ___ _ _ ___ _ _ ___ _ _
 72
    65
 73
     6
 40
1.25
 49
0.625
 49
-0.125
 49
0.125
 49
-0.125
 49
0.125
 49
-0.125
  0
ENDTAB
  0
TABLE
  2
LAYER
 70
     2
  0
LAYER
  2
0
 70
     0
 62
   255
  6
CONTINUOUS
  0
LAYER
  2
DEFPOINTS
 70
     0
 62
     7
  6
CONTINUOUS
  0
ENDTAB
  0
TABLE
  2
STYLE
 70
     1
  0
STYLE
  2
STANDARD
 70
     0
 40
0.0
 41
0.8
 50
0.0
 71
     0
 42
0.2
  3
txt
  4

  0
ENDTAB
  0
TABLE
  2
VIEW
 70
     3
  0
ENDTAB
  0
TABLE
  2
UCS
 70
     0
  0
ENDTAB
  0
TABLE
  2
APPID
 70
     9
  0
APPID
  2
ACAD
 70
     0
  0
APPID
  2
ACAD_MLEADERVER
 70
     0
  0
APPID
  2
ACAD_EXEMPT_FROM_CAD_STANDARDS
 70
     0
  0
APPID
  2
ACAD_DSTYLE_DIMJAG
 70
     0
  0
APPID
  2
ACAD_DSTYLE_DIMTALN
 70
     0
  0
APPID
  2
ACAD_NAV_VCDISPLAY
 70
     0
  0
APPID
  2
ACAECLAYERSTANDARD
 70
     0
  0
APPID
  2
ACCMTRANSPARENCY
 70
     0
  0
APPID
  2
ACDBATTR
 70
     0
  0
ENDTAB
  0
TABLE
  2
DIMSTYLE
 70
     1
  0
DIMSTYLE
  2
STANDARD
 70
     0
  3

  4

  5

  6

  7

 40
1.0
 41
0.1875
 42
0.0625
 43
0.38
 44
0.125
 45
0.0
 46
0.0
 47
0.01
 48
0.01
140
0.15625
141
0.09
142
0.0
143
25.3999999999999986
144
1.0
145
0.0
146
1.0
147
0.09
 71
     1
 72
     0
 73
     1
 74
     1
 75
     0
 76
     0
 77
     0
 78
     4
170
     0
171
     2
172
     0
173
     0
174
     0
175
     0
176
     0
177
     0
178
     0
  0
ENDTAB
  0
ENDSEC
  0
SECTION
  2
BLOCKS
  0
BLOCK
  8
0
  2
$MODEL_SPACE
 70
     0
 10
0.0
 20
0.0
 30
0.0
  3
$MODEL_SPACE
  1

  0
ENDBLK
  5
21
  8
0
  0
BLOCK
 67
     1
  8
0
  2
$PAPER_SPACE
 70
     0
 10
0.0
 20
0.0
 30
0.0
  3
$PAPER_SPACE
  1

  0
ENDBLK
  5
1D
 67
     1
  8
0
  0
BLOCK
  8
0
  2
_FILLED
 70
     0
 10
0.0
 20
0.0
 30
0.0
  3
_FILLED
  1

  0
SOLID
  5
252B
  8
0
  6
BYBLOCK
 62
     0
 10
0.0
 20
0.0
 30
0.0
 11
-1.0
 21
0.1666666667
 31
0.0
 12
-1.0
 22
-0.1666666667
 32
0.0
 13
-1.0
 23
-0.1666666667
 33
0.0
  0
ENDBLK
  5
252C
  8
0
  6
BYBLOCK
 62
     0
  0
ENDSEC
  0
SECTION
  2
ENTITIES
  0
ATTDEF
  5
157D
  8
DEFPOINTS
 10
259.6031596548389757
 20
18.3530790342833683
 30
0.0
 40
0.001
  1
P33012-00
  3

  2
MODELNUMBER
 70
     0
1001
ACDBATTR
1070
     0
1070
     1
  0
ATTDEF
  5
157E
  8
DEFPOINTS
 10
259.6031596548389757
 20
18.3514123676166996
 30
0.0
 40
0.001
  1

  3

  2
TRADENAME
 70
     0
1001
ACDBATTR
1070
     0
1070
     1
  0
ATTDEF
  5
157F
  8
DEFPOINTS
 10
259.6031596548389757
 20
18.3497457009500415
 30
0.0
 40
0.001
  1
SHOWER ARM
  3

  2
PRODUCT
 70
     0
1001
ACDBATTR
1070
     0
1070
     1
  0
LINE
  5
4019
  8
0
 10
258.4356021715623228
 20
18.3491618128408689
 30
0.0
 11
260.7820328801623191
 21
18.3491618128408689
 31
0.0
  0
LINE
  5
401A
  8
0
 10
258.5980983335044243
 20
18.0306578439408689
 30
0.0
 11
260.6195107339200945
 21
18.0306578439408689
 31
0.0
  0
LINE
  5
401B
  8
0
 10
258.4277021715623164
 20
18.3412618128408589
 30
0.0
 11
258.4277021715623164
 21
18.2018953691782102
 31
0.0
  0
LINE
  5
401C
  8
0
 10
258.4300016221985743
 20
18.19632366864559
 30
0.0
 11
258.5924977841406758
 21
18.032986143408241
 31
0.0
  0
ARC
  5
401D
  8
0
 10
258.4356021715623228
 20
18.3412618128408695
 30
0.0
 40
0.0079
 50
89.9999999999967457
 51
180.0000000000127045
  0
ARC
  5
401E
  8
0
 10
258.4356021715623228
 20
18.2018953691782102
 30
0.0
 40
0.0079
 50
179.9999999999936051
 51
224.8520519497770067
  0
ARC
  5
401F
  8
0
 10
258.5980983335044243
 20
18.0385578439408683
 30
0.0
 40
0.0079
 50
224.8520519497992893
 51
270.0000000000097771
  0
LINE
  5
4020
  8
0
 10
258.4300016221985743
 20
18.19632366864559
 30
0.0
 11
260.7876074453268984
 21
18.19632366864559
 31
0.0
  0
LINE
  5
4021
  8
0
 10
258.6616163981623231
 20
18.3412877970408701
 30
0.0
 11
258.6616163967623265
 21
18.2015277403408611
 31
0.0
  0
LINE
  5
4022
  8
0
 10
258.6666496934622046
 20
18.195452726640859
 30
0.0
 11
258.7330280495257284
 21
18.0349122627092413
 31
0.0
  0
LINE
  5
4023
  8
0
 10
258.6616163967623265
 20
18.2015277403408611
 30
0.0
 11
258.6666496934622046
 21
18.195452726640859
 31
0.0
  0
ARC
  5
4024
  8
0
 10
258.6718380435938229
 20
18.3413537858676499
 30
0.0
 40
0.01022185843372
 50
150.5810709666264984
 51
180.3698839376237117
  0
ARC
  5
4025
  8
0
 10
258.6679711942657036
 20
18.343534326913769
 30
0.0
 40
0.0057825698669057
 50
103.2995218111912976
 51
150.581070966625191
  0
LINE
  5
4026
  8
0
 10
259.1560486282622833
 20
18.0306578439408689
 30
0.0
 11
259.1560486282622833
 21
10.59325630104086
 31
0.0
  0
LINE
  5
4027
  8
0
 10
259.1560486282622833
 20
10.59325630104086
 30
0.0
 11
260.0615604392622799
 21
10.59325630104086
 31
0.0
  0
LINE
  5
4028
  8
0
 10
259.1986449661787901
 20
10.3553482292262196
 30
0.0
 11
259.1982228424657251
 21
10.3689314459972195
 31
0.0
  0
LINE
  5
4029
  8
0
 10
259.1964433291557839
 20
10.4261931308599909
 30
0.0
 11
259.196020707273874
 21
10.4397923778434905
 31
0.0
  0
LINE
  5
402A
  8
0
 10
259.1942419406241811
 20
10.4970300364648494
 30
0.0
 11
259.1938142957947093
 21
10.5107909132824897
 31
0.0
  0
LINE
  5
402B
  8
0
 10
259.1920347863351139
 20
10.56805247425409
 30
0.0
 11
259.1912515305622833
 21
10.59325630104086
 31
0.0
  0
LINE
  5
402C
  8
0
 10
259.2404095964623139
 20
10.2782956710408708
 30
0.0
 11
259.9771994710621925
 21
10.2782956710408708
 31
0.0
  0
LINE
  5
402D
  8
0
 10
259.2126844701851951
 20
10.3051725723034995
 30
0.0
 11
259.2404095964623139
 21
10.2782956710408708
 31
0.0
  0
LINE
  5
402E
  8
0
 10
260.7899068958623161
 20
18.3412618128408589
 30
0.0
 11
260.7899068958623161
 21
18.2018953691782102
 31
0.0
  0
LINE
  5
402F
  8
0
 10
260.7876074452258877
 20
18.19632366864559
 30
0.0
 11
260.6251112832837862
 21
18.032986143408241
 31
0.0
  0
ARC
  5
4030
  8
0
 10
260.7820068958623096
 20
18.3412618128408695
 30
0.0
 40
0.0079
 50
359.9999999999870965
 51
90.0
  0
ARC
  5
4031
  8
0
 10
260.7820068958623096
 20
18.2018953691782102
 30
0.0
 40
0.0079
 50
315.1479480502227943
 51
0.000000000006412
  0
ARC
  5
4032
  8
0
 10
260.6195107339200945
 20
18.0385578439408683
 30
0.0
 40
0.0079
 50
269.9999999999869829
 51
315.1479480502006254
  0
LINE
  5
4033
  8
0
 10
260.5559926692623094
 20
18.3412877970408701
 30
0.0
 11
260.5559926706621923
 21
18.2015277403408611
 31
0.0
  0
LINE
  5
4034
  8
0
 10
260.5509593739622005
 20
18.195452726640859
 30
0.0
 11
260.4845810178987904
 21
18.0349122627092413
 31
0.0
  0
LINE
  5
4035
  8
0
 10
260.5559926706621923
 20
18.2015277403408611
 30
0.0
 11
260.5509593739622005
 21
18.195452726640859
 31
0.0
  0
ARC
  5
4036
  8
0
 10
260.5457710238306959
 20
18.3413537858676499
 30
0.0
 40
0.01022185843372
 50
359.6301160623760893
 51
29.4189290333735087
  0
ARC
  5
4037
  8
0
 10
260.5496378731587015
 20
18.343534326913769
 30
0.0
 40
0.0057825698669057
 50
29.4189290333747486
 51
76.700478188808674
  0
LINE
  5
4038
  8
0
 10
260.0615604391621787
 20
18.0306578439408689
 30
0.0
 11
260.0615604391621787
 21
10.59325630104086
 31
0.0
  0
LINE
  5
4039
  8
0
 10
260.0178506339045157
 20
10.3195187607725494
 30
0.0
 11
260.0182789464054167
 21
10.3333011221170796
 31
0.0
  0
LINE
  5
403A
  8
0
 10
260.020056844841406
 20
10.39051084310635
 30
0.0
 11
260.0204846373882219
 21
10.4042764732181308
 31
0.0
  0
LINE
  5
403B
  8
0
 10
260.0222645206974903
 20
10.4615500640269197
 30
0.0
 11
260.0226908327044271
 21
10.4752680529024005
 31
0.0
  0
LINE
  5
403C
  8
0
 10
260.0244706874996723
 20
10.5325407261822299
 30
0.0
 11
260.0248976662311975
 21
10.5462801691092398
 31
0.0
  0
LINE
  5
403D
  8
0
 10
259.9813774511428051
 20
10.2823458297187909
 30
0.0
 11
259.9771994709623186
 21
10.2782956710408708
 31
0.0
  0
LINE
  5
403F
  8
0
 10
259.1920347863351139
 20
10.56805247425409
 30
0.0
 11
259.2386406758122916
 21
10.5411108177408703
 31
0.0
  0
LINE
  5
4040
  8
0
 10
259.2386406758122916
 20
10.5367060253746203
 30
0.0
 11
259.1938142957947093
 21
10.5107909132824897
 31
0.0
  0
LINE
  5
4041
  8
0
 10
259.2386406758122916
 20
10.5411108177408703
 30
0.0
 11
259.2386406758122916
 21
10.5367060253746203
 31
0.0
  0
LINE
  5
4042
  8
0
 10
259.1942419406241811
 20
10.4970300364648494
 30
0.0
 11
259.2408267854123096
 21
10.4701005453408698
 31
0.0
  0
LINE
  5
4043
  8
0
 10
259.2408267854123096
 20
10.4656957529746197
 30
0.0
 11
259.196020707273874
 21
10.4397923778434905
 31
0.0
  0
LINE
  5
4044
  8
0
 10
259.2408267854123096
 20
10.4701005453408698
 30
0.0
 11
259.2408267854123096
 21
10.4656957529746197
 31
0.0
  0
LINE
  5
4045
  8
0
 10
259.1964433291557839
 20
10.4261931308599909
 30
0.0
 11
259.2430493277121855
 21
10.3992514112908694
 31
0.0
  0
LINE
  5
4046
  8
0
 10
259.2430493277121855
 20
10.3948466189246194
 30
0.0
 11
259.1982228424657251
 21
10.3689314459972195
 31
0.0
  0
LINE
  5
4047
  8
0
 10
259.2430493277121855
 20
10.3992514112908694
 30
0.0
 11
259.2430493277121855
 21
10.3948466189246194
 31
0.0
  0
LINE
  5
4048
  8
0
 10
259.1986449661787901
 20
10.3553482292262196
 30
0.0
 11
259.2452524707122734
 21
10.3284056390908692
 31
0.0
  0
LINE
  5
4049
  8
0
 10
259.2452524707122734
 20
10.3240008467246192
 30
0.0
 11
259.2126844701851951
 21
10.3051725723034995
 31
0.0
  0
LINE
  5
404A
  8
0
 10
259.2452524707122734
 20
10.3284056390908692
 30
0.0
 11
259.2452524707122734
 21
10.3240008467246192
 31
0.0
  0
LINE
  5
404B
  8
0
 10
260.0089171720853187
 20
10.59325630104086
 30
0.0
 11
259.9800887818122987
 21
10.5765903658305405
 31
0.0
  0
LINE
  5
404C
  8
0
 10
259.9800887818122987
 20
10.5721859258408699
 30
0.0
 11
260.0248976662311975
 21
10.5462801691092398
 31
0.0
  0
LINE
  5
404D
  8
0
 10
259.9800887818122987
 20
10.5765903658305405
 30
0.0
 11
259.9800887818122987
 21
10.5721859258408699
 31
0.0
  0
LINE
  5
404E
  8
0
 10
260.0244706874996723
 20
10.5325407261822299
 30
0.0
 11
259.9778567512121867
 21
10.5055928170305393
 31
0.0
  0
LINE
  5
404F
  8
0
 10
259.9778567512121867
 20
10.5011883770408705
 30
0.0
 11
260.0226908327044271
 21
10.4752680529024005
 31
0.0
  0
LINE
  5
4050
  8
0
 10
259.9778567512121867
 20
10.5055928170305393
 30
0.0
 11
259.9778567512121867
 21
10.5011883770408705
 31
0.0
  0
LINE
  5
4051
  8
0
 10
260.0222645206974903
 20
10.4615500640269197
 30
0.0
 11
259.975649776612272
 21
10.4346016878805408
 31
0.0
  0
LINE
  5
4052
  8
0
 10
259.975649776612272
 20
10.4301972478908702
 30
0.0
 11
260.0204846373882219
 21
10.4042764732181308
 31
0.0
  0
LINE
  5
4053
  8
0
 10
259.975649776612272
 20
10.4346016878805408
 30
0.0
 11
259.975649776612272
 21
10.4301972478908702
 31
0.0
  0
LINE
  5
4054
  8
0
 10
260.020056844841406
 20
10.39051084310635
 30
0.0
 11
259.9734983321122854
 21
10.3635949747805398
 31
0.0
  0
LINE
  5
4055
  8
0
 10
259.9734983321122854
 20
10.3591905347908693
 30
0.0
 11
260.0182789464054167
 21
10.3333011221170796
 31
0.0
  0
LINE
  5
4056
  8
0
 10
259.9734983321122854
 20
10.3635949747805398
 30
0.0
 11
259.9734983321122854
 21
10.3591905347908693
 31
0.0
  0
LINE
  5
4057
  8
0
 10
260.0178506339045157
 20
10.3195187607725494
 30
0.0
 11
259.9712731791123019
 21
10.2925919418805396
 31
0.0
  0
LINE
  5
4058
  8
0
 10
259.9712731791123019
 20
10.2881875018908708
 30
0.0
 11
259.9813774511428051
 21
10.2823458297187909
 31
0.0
  0
LINE
  5
4059
  8
0
 10
259.9712731791123019
 20
10.2925919418805396
 30
0.0
 11
259.9712731791123019
 21
10.2881875018908708
 31
0.0
  0
LINE
  5
405A
  8
0
 10
259.2386406758122916
 20
10.5389084215577409
 30
0.0
 11
259.9800887818122987
 21
10.5743881458356999
 31
0.0
  0
LINE
  5
405B
  8
0
 10
259.1938142957947093
 20
10.5107909132824897
 30
0.0
 11
260.0248976662311975
 21
10.5462801691092398
 31
0.0
  0
LINE
  5
405C
  8
0
 10
259.1942419406241811
 20
10.4970300364648494
 30
0.0
 11
260.0244706874996723
 21
10.5325407261822299
 31
0.0
  0
LINE
  5
405D
  8
0
 10
259.2408267854123096
 20
10.4678981491577403
 30
0.0
 11
259.9778567512121867
 21
10.5033905970357004
 31
0.0
  0
LINE
  5
405E
  8
0
 10
259.196020707273874
 20
10.4397923778434905
 30
0.0
 11
260.0226908327044271
 21
10.4752680529024005
 31
0.0
  0
LINE
  5
405F
  8
0
 10
259.1964433291557839
 20
10.4261931308599909
 30
0.0
 11
260.0222645206974903
 21
10.4615500640269197
 31
0.0
  0
LINE
  5
4060
  8
0
 10
259.2430493277121855
 20
10.3970490151077399
 30
0.0
 11
259.975649776612272
 21
10.4323994678857002
 31
0.0
  0
LINE
  5
4061
  8
0
 10
259.1982228424657251
 20
10.3689314459972195
 30
0.0
 11
260.0204846373882219
 21
10.4042764732181308
 31
0.0
  0
LINE
  5
4062
  8
0
 10
259.1986449661787901
 20
10.3553482292262196
 30
0.0
 11
260.020056844841406
 21
10.39051084310635
 31
0.0
  0
LINE
  5
4063
  8
0
 10
259.2452524707122734
 20
10.3262032429077397
 30
0.0
 11
259.9734983321122854
 21
10.3613927547856992
 31
0.0
  0
LINE
  5
4064
  8
0
 10
259.2126844701851951
 20
10.3051725723034995
 30
0.0
 11
260.0182789464054167
 21
10.3333011221170796
 31
0.0
  0
LINE
  5
4065
  8
0
 10
259.2404095964623139
 20
10.2782956710408708
 30
0.0
 11
260.0178506339045157
 21
10.3195187607725494
 31
0.0
  0
LINE
  5
4066
  8
0
 10
259.9712731791123019
 20
10.2903897218857008
 30
0.0
 11
259.6088045337622816
 21
10.2782956710408708
 31
0.0
  0
LINE
  5
4067
  8
0
 10
259.1920347863351139
 20
10.56805247425409
 30
0.0
 11
259.6088045337622816
 21
10.59325630104086
 31
0.0
  0
ENDSEC
  0
EOF
