  0
SECTION
  2
HEADER
  9
$ACADVER
  1
AC1009
  9
$INSBASE
 10
7139.4392872483467727
 20
110.0698916520964019
 30
0.0
  9
$EXTMIN
 10
7133.0403558078469359
 20
104.0711315943605939
 30
-0.0000000349181948
  9
$EXTMAX
 10
7145.5787458969098225
 20
111.0614008992326944
 30
0.0000000814935746
  9
$LIMMIN
 10
0.0
 20
0.0
  9
$LIMMAX
 10
11.6929133858000007
 20
8.2677165353999982
  9
$ORTHOMODE
 70
     0
  9
$REGENMODE
 70
     1
  9
$FILLMODE
 70
     1
  9
$QTEXTMODE
 70
     0
  9
$MIRRTEXT
 70
     0
  9
$DRAGMODE
 70
     2
  9
$LTSCALE
 40
0.6431102362
  9
$OSMODE
 70
  4095
  9
$ATTMODE
 70
     1
  9
$TEXTSIZE
 40
0.2
  9
$TRACEWID
 40
0.05
  9
$TEXTSTYLE
  7
STANDARD
  9
$CLAYER
  8
0
  9
$CELTYPE
  6
BYLAYER
  9
$CECOLOR
 62
   256
  9
$DIMSCALE
 40
1.0
  9
$DIMASZ
 40
0.1875
  9
$DIMEXO
 40
0.0625
  9
$DIMDLI
 40
0.4443307087
  9
$DIMRND
 40
0.0
  9
$DIMDLE
 40
0.0
  9
$DIMEXE
 40
0.125
  9
$DIMTP
 40
0.01
  9
$DIMTM
 40
0.01
  9
$DIMTXT
 40
2.0
  9
$DIMCEN
 40
0.1052362205
  9
$DIMTSZ
 40
0.0
  9
$DIMTOL
 70
     1
  9
$DIMLIM
 70
     0
  9
$DIMTIH
 70
     1
  9
$DIMTOH
 70
     1
  9
$DIMSE1
 70
     0
  9
$DIMSE2
 70
     0
  9
$DIMTAD
 70
     0
  9
$DIMZIN
 70
     0
  9
$DIMBLK
  1

  9
$DIMASO
 70
     1
  9
$DIMSHO
 70
     1
  9
$DIMPOST
  1
\X
  9
$DIMAPOST
  1

  9
$DIMALT
 70
     1
  9
$DIMALTD
 70
     2
  9
$DIMALTF
 40
25.3999999999999986
  9
$DIMLFAC
 40
1.0
  9
$DIMTOFL
 70
     0
  9
$DIMTVP
 40
0.0
  9
$DIMTIX
 70
     0
  9
$DIMSOXD
 70
     0
  9
$DIMSAH
 70
     0
  9
$DIMBLK1
  1

  9
$DIMBLK2
  1

  9
$DIMSTYLE
  2
STANDARD
  9
$DIMCLRD
 70
     0
  9
$DIMCLRE
 70
     0
  9
$DIMCLRT
 70
     0
  9
$DIMTFAC
 40
1.0
  9
$DIMGAP
 40
0.09
  9
$LUNITS
 70
     2
  9
$LUPREC
 70
     4
  9
$SKETCHINC
 40
0.1
  9
$FILLETRAD
 40
0.0
  9
$AUNITS
 70
     0
  9
$AUPREC
 70
     0
  9
$MENU
  1
.
  9
$ELEVATION
 40
0.0
  9
$PELEVATION
 40
0.0
  9
$THICKNESS
 40
0.0
  9
$LIMCHECK
 70
     0
  9
$BLIPMODE
 70
     0
  9
$CHAMFERA
 40
0.0
  9
$CHAMFERB
 40
0.0
  9
$SKPOLY
 70
     0
  9
$TDCREATE
 40
2458060.468368056230247
  9
$TDUPDATE
 40
2460544.4243981479667127
  9
$TDINDWG
 40
0.9407825231
  9
$TDUSRTIMER
 40
0.9407825231
  9
$USRTIMER
 70
     1
  9
$ANGBASE
 50
0.0
  9
$ANGDIR
 70
     0
  9
$PDMODE
 70
     0
  9
$PDSIZE
 40
0.3125
  9
$PLINEWID
 40
0.0
  9
$COORDS
 70
     0
  9
$SPLFRAME
 70
     0
  9
$SPLINETYPE
 70
     6
  9
$SPLINESEGS
 70
     8
  9
$ATTDIA
 70
     1
  9
$ATTREQ
 70
     1
  9
$HANDLING
 70
     1
  9
$HANDSEED
  5
3355E
  9
$SURFTAB1
 70
     6
  9
$SURFTAB2
 70
     6
  9
$SURFTYPE
 70
     6
  9
$SURFU
 70
     6
  9
$SURFV
 70
     6
  9
$UCSNAME
  2

  9
$UCSORG
 10
0.0
 20
0.0
 30
0.0
  9
$UCSXDIR
 10
1.0
 20
0.0
 30
0.0
  9
$UCSYDIR
 10
0.0
 20
1.0
 30
0.0
  9
$PUCSNAME
  2

  9
$PUCSORG
 10
0.0
 20
0.0
 30
0.0
  9
$PUCSXDIR
 10
1.0
 20
0.0
 30
0.0
  9
$PUCSYDIR
 10
0.0
 20
1.0
 30
0.0
  9
$USERI1
 70
     0
  9
$USERI2
 70
     0
  9
$USERI3
 70
     0
  9
$USERI4
 70
     0
  9
$USERI5
 70
     0
  9
$USERR1
 40
0.0
  9
$USERR2
 40
0.0
  9
$USERR3
 40
0.0
  9
$USERR4
 40
0.0
  9
$USERR5
 40
0.0
  9
$WORLDVIEW
 70
     1
  9
$SHADEDGE
 70
     3
  9
$SHADEDIF
 70
    70
  9
$TILEMODE
 70
     1
  9
$MAXACTVP
 70
    64
  9
$PLIMCHECK
 70
     0
  9
$PEXTMIN
 10
1.0000000000000000E+20
 20
1.0000000000000000E+20
 30
1.0000000000000000E+20
  9
$PEXTMAX
 10
-1.0000000000000000E+20
 20
-1.0000000000000000E+20
 30
-1.0000000000000000E+20
  9
$PLIMMIN
 10
0.0
 20
0.0
  9
$PLIMMAX
 10
12.0
 20
9.0
  9
$UNITMODE
 70
     0
  9
$VISRETAIN
 70
     1
  9
$PLINEGEN
 70
     0
  9
$PSLTSCALE
 70
     1
  0
ENDSEC
  0
SECTION
  2
TABLES
  0
TABLE
  2
VPORT
 70
     1
  0
VPORT
  2
*ACTIVE
 70
     0
 10
0.0
 20
0.0
 11
1.0
 21
1.0
 12
3227.9441944070658792
 22
-25.0133388557423508
 13
0.0
 23
0.0
 14
1.0
 24
1.0
 15
0.0
 25
0.0
 16
0.0
 26
0.0
 36
60.4960186965801583
 17
3911.3653564453120453
 27
132.5796051025390057
 37
0.0
 40
7.039787151187574
 41
2.2423167848699759
 42
50.0
 43
0.0
 44
0.0
 50
0.0
 51
0.0
 71
     0
 72
   100
 73
     1
 74
     1
 75
     0
 76
     0
 77
     0
 78
     0
  0
ENDTAB
  0
TABLE
  2
LTYPE
 70
     2
  0
LTYPE
  2
CONTINUOUS
 70
     0
  3
Solid line
 72
    65
 73
     0
 40
0.0
  0
LTYPE
  2
PHANTOM2
 70
     0
  3
___ _ _ ___ _ _ ___ _ _ ___ _ _
 72
    65
 73
     6
 40
1.25
 49
0.625
 49
-0.125
 49
0.125
 49
-0.125
 49
0.125
 49
-0.125
  0
ENDTAB
  0
TABLE
  2
LAYER
 70
     2
  0
LAYER
  2
0
 70
     0
 62
   255
  6
CONTINUOUS
  0
LAYER
  2
DEFPOINTS
 70
     0
 62
     7
  6
CONTINUOUS
  0
ENDTAB
  0
TABLE
  2
STYLE
 70
     1
  0
STYLE
  2
STANDARD
 70
     0
 40
0.0
 41
0.8
 50
0.0
 71
     0
 42
0.2
  3
txt
  4

  0
ENDTAB
  0
TABLE
  2
VIEW
 70
     0
  0
ENDTAB
  0
TABLE
  2
UCS
 70
     0
  0
ENDTAB
  0
TABLE
  2
APPID
 70
    11
  0
APPID
  2
ACAD
 70
     0
  0
APPID
  2
ACAD_MLEADERVER
 70
     0
  0
APPID
  2
ACAD_EXEMPT_FROM_CAD_STANDARDS
 70
     0
  0
APPID
  2
ACAD_NAV_VCDISPLAY
 70
     0
  0
APPID
  2
ACAECLAYERSTANDARD
 70
     0
  0
APPID
  2
ACCMTRANSPARENCY
 70
     0
  0
APPID
  2
ACAD_DSTYLE_DIMJAG
 70
     0
  0
APPID
  2
ACAD_DSTYLE_DIMTALN
 70
     0
  0
APPID
  2
ACDBATTR
 70
     0
  0
APPID
  2
ACADANNOTATIVE
 70
     0
  0
APPID
  2
DCO15
 70
     0
  0
ENDTAB
  0
TABLE
  2
DIMSTYLE
 70
     1
  0
DIMSTYLE
  2
STANDARD
 70
     0
  3

  4

  5

  6

  7

 40
1.0
 41
0.1875
 42
0.0625
 43
0.38
 44
0.125
 45
0.0
 46
0.0
 47
0.01
 48
0.01
140
0.15625
141
0.09
142
0.0
143
25.3999999999999986
144
1.0
145
0.0
146
1.0
147
0.09
 71
     1
 72
     0
 73
     1
 74
     1
 75
     0
 76
     0
 77
     0
 78
     4
170
     0
171
     2
172
     0
173
     0
174
     0
175
     0
176
     0
177
     0
178
     0
  0
ENDTAB
  0
ENDSEC
  0
SECTION
  2
BLOCKS
  0
BLOCK
  8
0
  2
$MODEL_SPACE
 70
     0
 10
0.0
 20
0.0
 30
0.0
  3
$MODEL_SPACE
  1

  0
ENDBLK
  5
21
  8
0
  0
BLOCK
 67
     1
  8
0
  2
$PAPER_SPACE
 70
     0
 10
0.0
 20
0.0
 30
0.0
  3
$PAPER_SPACE
  1

  0
ENDBLK
  5
1D
 67
     1
  8
0
  0
BLOCK
  8
0
  2
_FILLED
 70
     0
 10
0.0
 20
0.0
 30
0.0
  3
_FILLED
  1

  0
SOLID
  5
257AF
  8
0
  6
BYBLOCK
 62
     0
 10
0.0
 20
0.0
 30
0.0
 11
-1.0
 21
0.1666666667
 31
0.0
 12
-1.0
 22
-0.1666666667
 32
0.0
 13
-1.0
 23
-0.1666666667
 33
0.0
  0
ENDBLK
  5
257B0
  8
0
  6
BYBLOCK
 62
     0
  0
ENDSEC
  0
SECTION
  2
ENTITIES
  0
ATTDEF
  5
256E4
  8
DEFPOINTS
 10
7139.4283486149197415
 20
110.0732334833969048
 30
0.0
 40
0.001
  1
P33163-00
  3

  2
MODELNUMBER
 70
     0
1001
ACDBATTR
1070
     0
1070
     1
  0
ATTDEF
  5
256E5
  8
DEFPOINTS
 10
7139.4282228052634309
 20
110.0715666430178032
 30
0.0
 40
0.001
  1
BEZEL
  3

  2
TRADENAME
 70
     0
1001
ACDBATTR
1070
     0
1070
     1
  0
ATTDEF
  5
256E6
  8
DEFPOINTS
 10
7139.4283486149197415
 20
110.069900150063603
 30
0.0
 40
0.001
  1
BATHROOM SINK FAUCET
  3

  2
PRODUCT
 70
     0
1001
ACDBATTR
1070
     0
1070
     1
  0
LINE
  5
332C6
  8
0
 10
7133.7306258310463818
 20
109.5187105496963937
 30
0.0
 11
7133.7306258310463818
 21
110.6210727544963959
 31
0.0
  0
LINE
  5
332C7
  8
0
 10
7133.5337754373458665
 20
109.1250396835963983
 30
0.0
 11
7133.5337754373458665
 21
111.0147436205964055
 31
0.0
  0
LINE
  5
332C8
  8
0
 10
7138.8846846144024312
 20
104.0773202847291969
 30
0.0
 11
7138.8846846144024312
 21
110.8538715523962992
 31
0.0
  0
LINE
  5
332C9
  8
0
 10
7138.6518856735456211
 20
104.2828424175396975
 30
0.0
 11
7138.6518856735456211
 21
110.6161850343603987
 31
0.0
  0
ARC
  5
332CA
  8
0
 10
7138.6648856735464506
 20
104.2828424175396975
 30
0.0
 40
0.013
 50
180.0
 51
229.3978980032075867
  0
LINE
  5
332CC
  8
0
 10
7138.4550352798460153
 20
109.1250396835963983
 30
0.0
 11
7138.4550352798460153
 21
111.0147436205964055
 31
0.0
  0
LINE
  5
332CD
  8
0
 10
7133.5731754373446165
 20
111.0541436205964061
 30
0.0
 11
7135.4628793743459028
 21
111.0541436205964061
 31
0.0
  0
LINE
  5
332CE
  8
0
 10
7138.8929152630244062
 20
104.0743829097963982
 30
0.0
 11
7139.9856592336664107
 21
104.0743829097963982
 31
0.0
  0
LINE
  5
332CF
  8
0
 10
7133.5731754373446165
 20
109.0856396835963977
 30
0.0
 11
7135.4628793743459028
 21
109.0856396835963977
 31
0.0
  0
LINE
  5
332D0
  8
0
 10
7133.966846303445891
 20
110.8572932268964024
 30
0.0
 11
7135.0692085082446283
 21
110.8572932268964024
 31
0.0
  0
LINE
  5
332D1
  8
0
 10
7134.0353383098463382
 20
110.6919388961964046
 30
0.0
 11
7135.000716501846
 21
110.6919388961964046
 31
0.0
  0
LINE
  5
332D2
  8
0
 10
7133.7306258310463818
 20
110.6210727544963959
 30
0.0
 11
7133.966846303445891
 21
110.8572932268964024
 31
0.0
  0
LINE
  5
332D3
  8
0
 10
7133.8959801617456833
 20
110.5525807480964033
 30
0.0
 11
7133.8959801617456833
 21
109.5872025560964005
 31
0.0
  0
LINE
  5
332D4
  8
0
 10
7134.0353383098463382
 20
110.6919388961964046
 30
0.0
 11
7133.8959801617456833
 21
110.5525807480964033
 31
0.0
  0
LINE
  5
332D5
  8
0
 10
7134.0353383098463382
 20
110.6919388961964046
 30
0.0
 11
7133.966846303445891
 21
110.8572932268964024
 31
0.0
  0
LINE
  5
332D6
  8
0
 10
7133.8959801617456833
 20
110.5525807480964033
 30
0.0
 11
7133.7306258310463818
 21
110.6210727544963959
 31
0.0
  0
ARC
  5
332D7
  8
0
 10
7133.5731754373446165
 20
111.0147436205964055
 30
0.0
 40
0.0394
 50
90.0
 51
180.0
  0
ARC
  5
332D8
  8
0
 10
7133.5524924984638346
 20
111.0396830680484044
 30
0.0
 40
0.007
 50
65.3559651871418907
 51
129.6698092853094124
  0
ARC
  5
332D9
  8
0
 10
7133.5482373405138787
 20
111.0354281879455982
 30
0.0
 40
0.007
 50
140.3264493794478085
 51
204.6437934822087072
  0
LINE
  5
332DA
  8
0
 10
7133.5418749168711656
 20
111.0325093584899037
 30
0.0
 11
7133.7306258310463818
 21
110.6210727544963959
 31
0.0
  0
LINE
  5
332DB
  8
0
 10
7133.966846303445891
 20
110.8572932268964024
 30
0.0
 11
7133.5554113547168527
 21
111.0460454793967955
 31
0.0
  0
LINE
  5
332DC
  8
0
 10
7133.966846303445891
 20
109.2824900772964014
 30
0.0
 11
7135.0692085082446283
 21
109.2824900772964014
 31
0.0
  0
LINE
  5
332DD
  8
0
 10
7134.0353383098463382
 20
109.4478444079963992
 30
0.0
 11
7135.000716501846
 21
109.4478444079963992
 31
0.0
  0
LINE
  5
332DE
  8
0
 10
7133.7306258310463818
 20
109.5187105496963937
 30
0.0
 11
7133.966846303445891
 21
109.2824900772964014
 31
0.0
  0
LINE
  5
332DF
  8
0
 10
7134.0353383098463382
 20
109.4478444079963992
 30
0.0
 11
7133.8959801617456833
 21
109.5872025560964005
 31
0.0
  0
LINE
  5
332E0
  8
0
 10
7134.0353383098463382
 20
109.4478444079963992
 30
0.0
 11
7133.966846303445891
 21
109.2824900772964014
 31
0.0
  0
LINE
  5
332E1
  8
0
 10
7133.8959801617456833
 20
109.5872025560964005
 30
0.0
 11
7133.7306258310463818
 21
109.5187105496963937
 31
0.0
  0
ARC
  5
332E2
  8
0
 10
7133.5731754373446165
 20
109.1250396835963983
 30
0.0
 40
0.0394
 50
180.0
 51
270.0
  0
ARC
  5
332E3
  8
0
 10
7133.5524924984638346
 20
109.1001002361443994
 30
0.0
 40
0.007
 50
230.3301907146905876
 51
294.6440348128580808
  0
ARC
  5
332E4
  8
0
 10
7133.5482373405138787
 20
109.1043551162471061
 30
0.0
 40
0.007
 50
155.3562065177912928
 51
219.6735506205521915
  0
LINE
  5
332E5
  8
0
 10
7133.5418749168711656
 20
109.1072739457029002
 30
0.0
 11
7133.7306258310463818
 21
109.5187105496963937
 31
0.0
  0
LINE
  5
332E6
  8
0
 10
7133.966846303445891
 20
109.2824900772964014
 30
0.0
 11
7133.5554113547168527
 21
109.0937378247959941
 31
0.0
  0
LINE
  5
332E7
  8
0
 10
7135.305428980646866
 20
109.5187105496963937
 30
0.0
 11
7135.305428980646866
 21
110.6210727544963959
 31
0.0
  0
LINE
  5
332E8
  8
0
 10
7135.5022793743455622
 20
109.1250396835963983
 30
0.0
 11
7135.5022793743455622
 21
111.0147436205964055
 31
0.0
  0
LINE
  5
332E9
  8
0
 10
7135.305428980646866
 20
110.6210727544963959
 30
0.0
 11
7135.0692085082446283
 21
110.8572932268964024
 31
0.0
  0
LINE
  5
332EA
  8
0
 10
7135.1400746499457455
 20
110.5525807480964033
 30
0.0
 11
7135.1400746499457455
 21
109.5872025560964005
 31
0.0
  0
LINE
  5
332EB
  8
0
 10
7135.000716501846
 20
110.6919388961964046
 30
0.0
 11
7135.1400746499457455
 21
110.5525807480964033
 31
0.0
  0
LINE
  5
332EC
  8
0
 10
7135.000716501846
 20
110.6919388961964046
 30
0.0
 11
7135.0692085082446283
 21
110.8572932268964024
 31
0.0
  0
LINE
  5
332ED
  8
0
 10
7135.1400746499457455
 20
110.5525807480964033
 30
0.0
 11
7135.305428980646866
 21
110.6210727544963959
 31
0.0
  0
ARC
  5
332EE
  8
0
 10
7135.4628793743459028
 20
111.0147436205964055
 30
0.0
 40
0.0394
 50
0.0
 51
90.0
  0
ARC
  5
332EF
  8
0
 10
7135.4835623132266846
 20
111.0396830680484044
 30
0.0
 40
0.007
 50
50.3301907146905307
 51
114.6440348128580951
  0
ARC
  5
332F0
  8
0
 10
7135.4878174711766405
 20
111.0354281879455982
 30
0.0
 40
0.007
 50
335.3562065177912928
 51
39.6735506205522199
  0
LINE
  5
332F1
  8
0
 10
7135.4941798948193536
 20
111.0325093584899037
 30
0.0
 11
7135.305428980646866
 21
110.6210727544963959
 31
0.0
  0
LINE
  5
332F2
  8
0
 10
7135.0692085082446283
 20
110.8572932268964024
 30
0.0
 11
7135.4806434569718476
 21
111.0460454793967955
 31
0.0
  0
LINE
  5
332F3
  8
0
 10
7135.305428980646866
 20
109.5187105496963937
 30
0.0
 11
7135.0692085082446283
 21
109.2824900772964014
 31
0.0
  0
LINE
  5
332F4
  8
0
 10
7135.000716501846
 20
109.4478444079963992
 30
0.0
 11
7135.1400746499457455
 21
109.5872025560964005
 31
0.0
  0
LINE
  5
332F5
  8
0
 10
7135.000716501846
 20
109.4478444079963992
 30
0.0
 11
7135.0692085082446283
 21
109.2824900772964014
 31
0.0
  0
LINE
  5
332F6
  8
0
 10
7135.1400746499457455
 20
109.5872025560964005
 30
0.0
 11
7135.305428980646866
 21
109.5187105496963937
 31
0.0
  0
ARC
  5
332F7
  8
0
 10
7135.4628793743459028
 20
109.1250396835963983
 30
0.0
 40
0.0394
 50
270.0
 51
0.0
  0
ARC
  5
332F8
  8
0
 10
7135.4835623132266846
 20
109.1001002361443994
 30
0.0
 40
0.007
 50
245.3559651871418907
 51
309.669809285309384
  0
ARC
  5
332F9
  8
0
 10
7135.4878174711766405
 20
109.1043551162471061
 30
0.0
 40
0.007
 50
320.3264493794478085
 51
24.6437934822087001
  0
LINE
  5
332FA
  8
0
 10
7135.4941798948193536
 20
109.1072739457029002
 30
0.0
 11
7135.305428980646866
 21
109.5187105496963937
 31
0.0
  0
LINE
  5
332FB
  8
0
 10
7135.0692085082446283
 20
109.2824900772964014
 30
0.0
 11
7135.4806434569718476
 21
109.0937378247959941
 31
0.0
  0
LINE
  5
332FC
  8
0
 10
7138.4944352798447653
 20
111.0541436205964061
 30
0.0
 11
7140.3841392168460516
 21
111.0541436205964061
 31
0.0
  0
ARC
  5
332FD
  8
0
 10
7138.4944352798447653
 20
111.0147436205964055
 30
0.0
 40
0.0394
 50
90.0
 51
180.0000000000048885
  0
LINE
  5
332FE
  8
0
 10
7138.8929938659812251
 20
110.8572932268964024
 30
0.0
 11
7139.9855806307095918
 21
110.8572932268964024
 31
0.0
  0
LINE
  5
332FF
  8
0
 10
7138.6553418135254105
 20
110.6245288943765956
 30
0.0
 11
7138.8846846144024312
 21
110.8538715523962992
 31
0.0
  0
ARC
  5
33300
  8
0
 10
7138.8929938659812251
 20
110.8454932268963944
 30
0.0
 40
0.0117999999999974
 50
90.0
 51
134.7628402570377091
  0
ARC
  5
33301
  8
0
 10
7138.6636856735458423
 20
110.6161850343603987
 30
0.0
 40
0.0118
 50
135.0000000124774999
 51
180.0000000000260059
  0
LINE
  5
33302
  8
0
 10
7138.6553418135254105
 20
110.6245288943765956
 30
0.0
 11
7138.4656880871316389
 21
111.0416872452799026
 31
0.0
  0
LINE
  5
33303
  8
0
 10
7138.8846846144024312
 20
110.8538715523962992
 30
0.0
 11
7138.4674916551948627
 21
111.0434908133406964
 31
0.0
  0
ARC
  5
33304
  8
0
 10
7138.4944352798447653
 20
109.1250396835963983
 30
0.0
 40
0.0394
 50
179.9999999999951115
 51
270.0
  0
LINE
  5
33305
  8
0
 10
7138.6518856735456211
 20
109.5076523569483982
 30
0.0
 11
7138.4656880871316389
 21
109.0980960589129012
 31
0.0
  0
LINE
  5
33306
  8
0
 10
7138.6518856735456211
 20
109.1801018090838937
 30
0.0
 11
7138.4674916551948627
 21
109.0962924908520932
 31
0.0
  0
LINE
  5
33307
  8
0
 10
7138.4944352798447653
 20
109.0856396835963977
 30
0.0
 11
7138.6518856735456211
 21
109.0856396835963977
 31
0.0
  0
LINE
  5
3330A
  8
0
 10
7138.656425246607796
 20
104.2729722009234052
 30
0.0
 11
7138.8846846144024312
 21
104.0773202847291969
 31
0.0
  0
ARC
  5
3330C
  8
0
 10
7138.8929152630244062
 20
104.0873829097964034
 30
0.0
 40
0.0130000000000043
 50
230.7188079541095078
 51
270.0
  0
LINE
  5
3330D
  8
0
 10
7145.1479486656453446
 20
109.5187105496963937
 30
0.0
 11
7145.1479486656453446
 21
110.6210727544963959
 31
0.0
  0
LINE
  5
3330E
  8
0
 10
7145.3447990593458599
 20
109.1250396835963983
 30
0.0
 11
7145.3447990593458599
 21
111.0147436205964055
 31
0.0
  0
LINE
  5
3330F
  8
0
 10
7139.9938898822902047
 20
104.0773202847291969
 30
0.0
 11
7139.9938898822902047
 21
110.8538715523962992
 31
0.0
  0
LINE
  5
33310
  8
0
 10
7140.2266888231451958
 20
104.2828424175396975
 30
0.0
 11
7140.2266888231451958
 21
110.6161850343603987
 31
0.0
  0
ARC
  5
33311
  8
0
 10
7140.2136888231452758
 20
104.2828424175396975
 30
0.0
 40
0.013
 50
310.6021019967923849
 51
0.0
  0
LINE
  5
33313
  8
0
 10
7140.4235392168457111
 20
109.1250396835963983
 30
0.0
 11
7140.4235392168457111
 21
111.0147436205964055
 31
0.0
  0
LINE
  5
33314
  8
0
 10
7145.3053990593462004
 20
111.0541436205964061
 30
0.0
 11
7143.4156951223458236
 21
111.0541436205964061
 31
0.0
  0
LINE
  5
33315
  8
0
 10
7145.3053990593462004
 20
109.0856396835963977
 30
0.0
 11
7143.4156951223458236
 21
109.0856396835963977
 31
0.0
  0
LINE
  5
33316
  8
0
 10
7144.9117281932458354
 20
110.8572932268964024
 30
0.0
 11
7143.8093659884452791
 21
110.8572932268964024
 31
0.0
  0
LINE
  5
33317
  8
0
 10
7144.8432361868453881
 20
110.6919388961964046
 30
0.0
 11
7143.8778579948457264
 21
110.6919388961964046
 31
0.0
  0
LINE
  5
33318
  8
0
 10
7145.1479486656453446
 20
110.6210727544963959
 30
0.0
 11
7144.9117281932458354
 21
110.8572932268964024
 31
0.0
  0
LINE
  5
33319
  8
0
 10
7144.9825943349451336
 20
110.5525807480964033
 30
0.0
 11
7144.9825943349451336
 21
109.5872025560964005
 31
0.0
  0
LINE
  5
3331A
  8
0
 10
7144.8432361868453881
 20
110.6919388961964046
 30
0.0
 11
7144.9825943349451336
 21
110.5525807480964033
 31
0.0
  0
LINE
  5
3331B
  8
0
 10
7144.8432361868453881
 20
110.6919388961964046
 30
0.0
 11
7144.9117281932458354
 21
110.8572932268964024
 31
0.0
  0
LINE
  5
3331C
  8
0
 10
7144.9825943349451336
 20
110.5525807480964033
 30
0.0
 11
7145.1479486656453446
 21
110.6210727544963959
 31
0.0
  0
ARC
  5
3331D
  8
0
 10
7145.3053990593462004
 20
111.0147436205964055
 30
0.0
 40
0.0394
 50
0.0
 51
90.0
  0
ARC
  5
3331E
  8
0
 10
7145.3260819982269823
 20
111.0396830680484044
 30
0.0
 40
0.007
 50
50.3301907146905307
 51
114.6440348128580951
  0
ARC
  5
3331F
  8
0
 10
7145.3303371561778476
 20
111.0354281879455982
 30
0.0
 40
0.007
 50
335.3562065177912928
 51
39.6735506205522199
  0
LINE
  5
33320
  8
0
 10
7145.3366995798187418
 20
111.0325093584899037
 30
0.0
 11
7145.1479486656453446
 21
110.6210727544963959
 31
0.0
  0
LINE
  5
33321
  8
0
 10
7144.9117281932458354
 20
110.8572932268964024
 30
0.0
 11
7145.3231631419730547
 21
111.0460454793967955
 31
0.0
  0
LINE
  5
33322
  8
0
 10
7144.9117281932458354
 20
109.2824900772964014
 30
0.0
 11
7143.8093659884452791
 21
109.2824900772964014
 31
0.0
  0
LINE
  5
33323
  8
0
 10
7144.8432361868453881
 20
109.4478444079963992
 30
0.0
 11
7143.8778579948457264
 21
109.4478444079963992
 31
0.0
  0
LINE
  5
33324
  8
0
 10
7145.1479486656453446
 20
109.5187105496963937
 30
0.0
 11
7144.9117281932458354
 21
109.2824900772964014
 31
0.0
  0
LINE
  5
33325
  8
0
 10
7144.8432361868453881
 20
109.4478444079963992
 30
0.0
 11
7144.9825943349451336
 21
109.5872025560964005
 31
0.0
  0
LINE
  5
33326
  8
0
 10
7144.8432361868453881
 20
109.4478444079963992
 30
0.0
 11
7144.9117281932458354
 21
109.2824900772964014
 31
0.0
  0
LINE
  5
33327
  8
0
 10
7144.9825943349451336
 20
109.5872025560964005
 30
0.0
 11
7145.1479486656453446
 21
109.5187105496963937
 31
0.0
  0
ARC
  5
33328
  8
0
 10
7145.3053990593462004
 20
109.1250396835963983
 30
0.0
 40
0.0394
 50
270.0
 51
0.0
  0
ARC
  5
33329
  8
0
 10
7145.3260819982269823
 20
109.1001002361443994
 30
0.0
 40
0.007
 50
245.3559651871418907
 51
309.669809285309384
  0
ARC
  5
3332A
  8
0
 10
7145.3303371561778476
 20
109.1043551162471061
 30
0.0
 40
0.007
 50
320.3264493794478085
 51
24.6437934822087001
  0
LINE
  5
3332B
  8
0
 10
7145.3366995798187418
 20
109.1072739457029002
 30
0.0
 11
7145.1479486656453446
 21
109.5187105496963937
 31
0.0
  0
LINE
  5
3332C
  8
0
 10
7144.9117281932458354
 20
109.2824900772964014
 30
0.0
 11
7145.3231631419730547
 21
109.0937378247959941
 31
0.0
  0
LINE
  5
3332D
  8
0
 10
7143.5731455160466794
 20
109.5187105496963937
 30
0.0
 11
7143.5731455160466794
 21
110.6210727544963959
 31
0.0
  0
LINE
  5
3332E
  8
0
 10
7143.3762951223461641
 20
109.1250396835963983
 30
0.0
 11
7143.3762951223461641
 21
111.0147436205964055
 31
0.0
  0
LINE
  5
3332F
  8
0
 10
7143.5731455160466794
 20
110.6210727544963959
 30
0.0
 11
7143.8093659884452791
 21
110.8572932268964024
 31
0.0
  0
LINE
  5
33330
  8
0
 10
7143.7384998467468904
 20
110.5525807480964033
 30
0.0
 11
7143.7384998467468904
 21
109.5872025560964005
 31
0.0
  0
LINE
  5
33331
  8
0
 10
7143.8778579948457264
 20
110.6919388961964046
 30
0.0
 11
7143.7384998467468904
 21
110.5525807480964033
 31
0.0
  0
LINE
  5
33332
  8
0
 10
7143.8778579948457264
 20
110.6919388961964046
 30
0.0
 11
7143.8093659884452791
 21
110.8572932268964024
 31
0.0
  0
LINE
  5
33333
  8
0
 10
7143.7384998467468904
 20
110.5525807480964033
 30
0.0
 11
7143.5731455160466794
 21
110.6210727544963959
 31
0.0
  0
ARC
  5
33334
  8
0
 10
7143.4156951223458236
 20
111.0147436205964055
 30
0.0
 40
0.0394
 50
90.0
 51
180.0
  0
ARC
  5
33335
  8
0
 10
7143.3950121834632228
 20
111.0396830680484044
 30
0.0
 40
0.007
 50
65.3559651871418907
 51
129.6698092853094124
  0
ARC
  5
33336
  8
0
 10
7143.3907570255141763
 20
111.0354281879455982
 30
0.0
 40
0.007
 50
140.3264493794478085
 51
204.6437934822087072
  0
LINE
  5
33337
  8
0
 10
7143.3843946018705537
 20
111.0325093584899037
 30
0.0
 11
7143.5731455160466794
 21
110.6210727544963959
 31
0.0
  0
LINE
  5
33338
  8
0
 10
7143.8093659884452791
 20
110.8572932268964024
 30
0.0
 11
7143.3979310397180598
 21
111.0460454793967955
 31
0.0
  0
LINE
  5
33339
  8
0
 10
7143.5731455160466794
 20
109.5187105496963937
 30
0.0
 11
7143.8093659884452791
 21
109.2824900772964014
 31
0.0
  0
LINE
  5
3333A
  8
0
 10
7143.8778579948457264
 20
109.4478444079963992
 30
0.0
 11
7143.7384998467468904
 21
109.5872025560964005
 31
0.0
  0
LINE
  5
3333B
  8
0
 10
7143.8778579948457264
 20
109.4478444079963992
 30
0.0
 11
7143.8093659884452791
 21
109.2824900772964014
 31
0.0
  0
LINE
  5
3333C
  8
0
 10
7143.7384998467468904
 20
109.5872025560964005
 30
0.0
 11
7143.5731455160466794
 21
109.5187105496963937
 31
0.0
  0
ARC
  5
3333D
  8
0
 10
7143.4156951223458236
 20
109.1250396835963983
 30
0.0
 40
0.0394
 50
180.0
 51
270.0
  0
ARC
  5
3333E
  8
0
 10
7143.3950121834632228
 20
109.1001002361443994
 30
0.0
 40
0.007
 50
230.3301907146905876
 51
294.6440348128580808
  0
ARC
  5
3333F
  8
0
 10
7143.3907570255141763
 20
109.1043551162471061
 30
0.0
 40
0.007
 50
155.3562065177912928
 51
219.6735506205521915
  0
LINE
  5
33340
  8
0
 10
7143.3843946018705537
 20
109.1072739457029002
 30
0.0
 11
7143.5731455160466794
 21
109.5187105496963937
 31
0.0
  0
LINE
  5
33341
  8
0
 10
7143.8093659884452791
 20
109.2824900772964014
 30
0.0
 11
7143.3979310397180598
 21
109.0937378247959941
 31
0.0
  0
ARC
  5
33342
  8
0
 10
7140.3841392168460516
 20
111.0147436205964055
 30
0.0
 40
0.0394
 50
359.9999999999951115
 51
90.0
  0
LINE
  5
33343
  8
0
 10
7140.2232326831654063
 20
110.6245288943765956
 30
0.0
 11
7139.9938898822902047
 21
110.8538715523962992
 31
0.0
  0
ARC
  5
33344
  8
0
 10
7139.9855806307095918
 20
110.8454932268963944
 30
0.0
 40
0.0117999999999974
 50
45.2371597429623407
 51
90.0
  0
ARC
  5
33345
  8
0
 10
7140.2148888231458841
 20
110.6161850343603987
 30
0.0
 40
0.0118
 50
359.9999999999740226
 51
44.9999999875225214
  0
LINE
  5
33346
  8
0
 10
7140.2232326831654063
 20
110.6245288943765956
 30
0.0
 11
7140.4128864095600875
 21
111.0416872452799026
 31
0.0
  0
LINE
  5
33347
  8
0
 10
7139.9938898822902047
 20
110.8538715523962992
 30
0.0
 11
7140.4110828414950447
 21
111.0434908133406964
 31
0.0
  0
ARC
  5
33348
  8
0
 10
7140.3841392168460516
 20
109.1250396835963983
 30
0.0
 40
0.0394
 50
270.0
 51
0.0000000000048853
  0
LINE
  5
33349
  8
0
 10
7140.2266888231451958
 20
109.5076523569483982
 30
0.0
 11
7140.4128864095600875
 21
109.0980960589129012
 31
0.0
  0
LINE
  5
3334A
  8
0
 10
7140.2266888231451958
 20
109.1801018090838937
 30
0.0
 11
7140.4110828414950447
 21
109.0962924908520932
 31
0.0
  0
LINE
  5
3334B
  8
0
 10
7140.3841392168460516
 20
109.0856396835963977
 30
0.0
 11
7140.2266888231451958
 21
109.0856396835963977
 31
0.0
  0
LINE
  5
3334D
  8
0
 10
7140.2221492500830209
 20
104.2729722009234052
 30
0.0
 11
7139.9938898822902047
 21
104.0773202847291969
 31
0.0
  0
ARC
  5
3334F
  8
0
 10
7139.9856592336664107
 20
104.0873829097964034
 30
0.0
 40
0.0130000000000043
 50
270.0
 51
309.2811920458904069
  0
ENDSEC
  0
EOF
