  0
SECTION
  2
HEADER
  9
$ACADVER
  1
AC1009
  9
$INSBASE
 10
6580.1229633376333368
 20
223.1027859416554122
 30
0.0
  9
$EXTMIN
 10
6574.127454595333802
 20
223.097586981240795
 30
0.0
  9
$EXTMAX
 10
6581.1072153061340941
 20
227.5360900027935998
 30
0.0
  9
$LIMMIN
 10
0.0
 20
0.0
  9
$LIMMAX
 10
11.6929133858000007
 20
8.2677165353999982
  9
$ORTHOMODE
 70
     0
  9
$REGENMODE
 70
     1
  9
$FILLMODE
 70
     1
  9
$QTEXTMODE
 70
     0
  9
$MIRRTEXT
 70
     0
  9
$DRAGMODE
 70
     2
  9
$LTSCALE
 40
0.6431102362
  9
$OSMODE
 70
  4095
  9
$ATTMODE
 70
     1
  9
$TEXTSIZE
 40
0.2
  9
$TRACEWID
 40
0.05
  9
$TEXTSTYLE
  7
STANDARD
  9
$CLAYER
  8
0
  9
$CELTYPE
  6
BYLAYER
  9
$CECOLOR
 62
   256
  9
$DIMSCALE
 40
1.0
  9
$DIMASZ
 40
0.1875
  9
$DIMEXO
 40
0.0625
  9
$DIMDLI
 40
0.4443307087
  9
$DIMRND
 40
0.0
  9
$DIMDLE
 40
0.0
  9
$DIMEXE
 40
0.125
  9
$DIMTP
 40
0.01
  9
$DIMTM
 40
0.01
  9
$DIMTXT
 40
2.0
  9
$DIMCEN
 40
0.1052362205
  9
$DIMTSZ
 40
0.0
  9
$DIMTOL
 70
     1
  9
$DIMLIM
 70
     0
  9
$DIMTIH
 70
     1
  9
$DIMTOH
 70
     1
  9
$DIMSE1
 70
     0
  9
$DIMSE2
 70
     0
  9
$DIMTAD
 70
     0
  9
$DIMZIN
 70
     0
  9
$DIMBLK
  1

  9
$DIMASO
 70
     1
  9
$DIMSHO
 70
     1
  9
$DIMPOST
  1
\X
  9
$DIMAPOST
  1

  9
$DIMALT
 70
     1
  9
$DIMALTD
 70
     2
  9
$DIMALTF
 40
25.3999999999999986
  9
$DIMLFAC
 40
1.0
  9
$DIMTOFL
 70
     0
  9
$DIMTVP
 40
0.0
  9
$DIMTIX
 70
     0
  9
$DIMSOXD
 70
     0
  9
$DIMSAH
 70
     0
  9
$DIMBLK1
  1

  9
$DIMBLK2
  1

  9
$DIMSTYLE
  2
STANDARD
  9
$DIMCLRD
 70
     0
  9
$DIMCLRE
 70
     0
  9
$DIMCLRT
 70
     0
  9
$DIMTFAC
 40
1.0
  9
$DIMGAP
 40
0.09
  9
$LUNITS
 70
     2
  9
$LUPREC
 70
     4
  9
$SKETCHINC
 40
0.1
  9
$FILLETRAD
 40
0.0
  9
$AUNITS
 70
     0
  9
$AUPREC
 70
     0
  9
$MENU
  1
.
  9
$ELEVATION
 40
0.0
  9
$PELEVATION
 40
0.0
  9
$THICKNESS
 40
0.0
  9
$LIMCHECK
 70
     0
  9
$BLIPMODE
 70
     0
  9
$CHAMFERA
 40
0.0
  9
$CHAMFERB
 40
0.0
  9
$SKPOLY
 70
     0
  9
$TDCREATE
 40
2458060.468368056230247
  9
$TDUPDATE
 40
2460544.7625810191966593
  9
$TDINDWG
 40
0.951696875
  9
$TDUSRTIMER
 40
0.951696875
  9
$USRTIMER
 70
     1
  9
$ANGBASE
 50
0.0
  9
$ANGDIR
 70
     0
  9
$PDMODE
 70
     0
  9
$PDSIZE
 40
0.3125
  9
$PLINEWID
 40
0.0
  9
$COORDS
 70
     0
  9
$SPLFRAME
 70
     0
  9
$SPLINETYPE
 70
     6
  9
$SPLINESEGS
 70
     8
  9
$ATTDIA
 70
     1
  9
$ATTREQ
 70
     1
  9
$HANDLING
 70
     1
  9
$HANDSEED
  5
2FA2F
  9
$SURFTAB1
 70
     6
  9
$SURFTAB2
 70
     6
  9
$SURFTYPE
 70
     6
  9
$SURFU
 70
     6
  9
$SURFV
 70
     6
  9
$UCSNAME
  2

  9
$UCSORG
 10
0.0
 20
0.0
 30
0.0
  9
$UCSXDIR
 10
1.0
 20
0.0
 30
0.0
  9
$UCSYDIR
 10
0.0
 20
1.0
 30
0.0
  9
$PUCSNAME
  2

  9
$PUCSORG
 10
0.0
 20
0.0
 30
0.0
  9
$PUCSXDIR
 10
1.0
 20
0.0
 30
0.0
  9
$PUCSYDIR
 10
0.0
 20
1.0
 30
0.0
  9
$USERI1
 70
     0
  9
$USERI2
 70
     0
  9
$USERI3
 70
     0
  9
$USERI4
 70
     0
  9
$USERI5
 70
     0
  9
$USERR1
 40
0.0
  9
$USERR2
 40
0.0
  9
$USERR3
 40
0.0
  9
$USERR4
 40
0.0
  9
$USERR5
 40
0.0
  9
$WORLDVIEW
 70
     1
  9
$SHADEDGE
 70
     3
  9
$SHADEDIF
 70
    70
  9
$TILEMODE
 70
     1
  9
$MAXACTVP
 70
    64
  9
$PLIMCHECK
 70
     0
  9
$PEXTMIN
 10
1.0000000000000000E+20
 20
1.0000000000000000E+20
 30
1.0000000000000000E+20
  9
$PEXTMAX
 10
-1.0000000000000000E+20
 20
-1.0000000000000000E+20
 30
-1.0000000000000000E+20
  9
$PLIMMIN
 10
0.0
 20
0.0
  9
$PLIMMAX
 10
12.0
 20
9.0
  9
$UNITMODE
 70
     0
  9
$VISRETAIN
 70
     1
  9
$PLINEGEN
 70
     0
  9
$PSLTSCALE
 70
     1
  0
ENDSEC
  0
SECTION
  2
TABLES
  0
TABLE
  2
VPORT
 70
     1
  0
VPORT
  2
*ACTIVE
 70
     0
 10
0.0
 20
0.0
 11
1.0
 21
1.0
 12
2666.2519785054209933
 22
92.7372333894781349
 13
0.0
 23
0.0
 14
1.0
 24
1.0
 15
0.0
 25
0.0
 16
0.0
 26
0.0
 36
60.4960186965801583
 17
3911.3653564453120453
 27
132.5796051025390057
 37
0.0
 40
4.4699446013985087
 41
2.2423167848699759
 42
50.0
 43
0.0
 44
0.0
 50
0.0
 51
0.0
 71
     0
 72
   100
 73
     1
 74
     1
 75
     0
 76
     0
 77
     0
 78
     0
  0
ENDTAB
  0
TABLE
  2
LTYPE
 70
     2
  0
LTYPE
  2
CONTINUOUS
 70
     0
  3
Solid line
 72
    65
 73
     0
 40
0.0
  0
LTYPE
  2
PHANTOM2
 70
     0
  3
___ _ _ ___ _ _ ___ _ _ ___ _ _
 72
    65
 73
     6
 40
1.25
 49
0.625
 49
-0.125
 49
0.125
 49
-0.125
 49
0.125
 49
-0.125
  0
ENDTAB
  0
TABLE
  2
LAYER
 70
     2
  0
LAYER
  2
0
 70
     0
 62
   255
  6
CONTINUOUS
  0
LAYER
  2
DEFPOINTS
 70
     0
 62
     7
  6
CONTINUOUS
  0
ENDTAB
  0
TABLE
  2
STYLE
 70
     1
  0
STYLE
  2
STANDARD
 70
     0
 40
0.0
 41
0.8
 50
0.0
 71
     0
 42
0.2
  3
txt
  4

  0
ENDTAB
  0
TABLE
  2
VIEW
 70
     0
  0
ENDTAB
  0
TABLE
  2
UCS
 70
     0
  0
ENDTAB
  0
TABLE
  2
APPID
 70
    11
  0
APPID
  2
ACAD
 70
     0
  0
APPID
  2
ACAD_MLEADERVER
 70
     0
  0
APPID
  2
ACAD_EXEMPT_FROM_CAD_STANDARDS
 70
     0
  0
APPID
  2
ACAD_NAV_VCDISPLAY
 70
     0
  0
APPID
  2
ACAECLAYERSTANDARD
 70
     0
  0
APPID
  2
ACCMTRANSPARENCY
 70
     0
  0
APPID
  2
ACAD_DSTYLE_DIMJAG
 70
     0
  0
APPID
  2
ACAD_DSTYLE_DIMTALN
 70
     0
  0
APPID
  2
ACDBATTR
 70
     0
  0
APPID
  2
ACADANNOTATIVE
 70
     0
  0
APPID
  2
DCO15
 70
     0
  0
ENDTAB
  0
TABLE
  2
DIMSTYLE
 70
     1
  0
DIMSTYLE
  2
STANDARD
 70
     0
  3

  4

  5

  6

  7

 40
1.0
 41
0.1875
 42
0.0625
 43
0.38
 44
0.125
 45
0.0
 46
0.0
 47
0.01
 48
0.01
140
0.15625
141
0.09
142
0.0
143
25.3999999999999986
144
1.0
145
0.0
146
1.0
147
0.09
 71
     1
 72
     0
 73
     1
 74
     1
 75
     0
 76
     0
 77
     0
 78
     4
170
     0
171
     2
172
     0
173
     0
174
     0
175
     0
176
     0
177
     0
178
     0
  0
ENDTAB
  0
ENDSEC
  0
SECTION
  2
BLOCKS
  0
BLOCK
  8
0
  2
$MODEL_SPACE
 70
     0
 10
0.0
 20
0.0
 30
0.0
  3
$MODEL_SPACE
  1

  0
ENDBLK
  5
21
  8
0
  0
BLOCK
 67
     1
  8
0
  2
$PAPER_SPACE
 70
     0
 10
0.0
 20
0.0
 30
0.0
  3
$PAPER_SPACE
  1

  0
ENDBLK
  5
1D
 67
     1
  8
0
  0
BLOCK
  8
0
  2
_FILLED
 70
     0
 10
0.0
 20
0.0
 30
0.0
  3
_FILLED
  1

  0
SOLID
  5
26C2A
  8
0
  6
BYBLOCK
 62
     0
 10
0.0
 20
0.0
 30
0.0
 11
-1.0
 21
0.1666666667
 31
0.0
 12
-1.0
 22
-0.1666666667
 32
0.0
 13
-1.0
 23
-0.1666666667
 33
0.0
  0
ENDBLK
  5
26C2B
  8
0
  6
BYBLOCK
 62
     0
  0
ENDSEC
  0
SECTION
  2
ENTITIES
  0
ATTDEF
  5
26A5B
  8
DEFPOINTS
 10
6580.1121144501748859
 20
223.1009203145740969
 30
0.0
 40
0.001
  1
P33163-NM
  3

  2
MODELNUMBER
 70
     0
1001
ACDBATTR
1070
     0
1070
     1
  0
ATTDEF
  5
26A5C
  8
DEFPOINTS
 10
6580.1119886405167563
 20
223.0992534741949953
 30
0.0
 40
0.001
  1
BEZEL
  3

  2
TRADENAME
 70
     0
1001
ACDBATTR
1070
     0
1070
     1
  0
ATTDEF
  5
26A5D
  8
DEFPOINTS
 10
6580.1121144501748859
 20
223.097586981240795
 30
0.0
 40
0.001
  1
BATHROOM SINK FAUCET
  3

  2
PRODUCT
 70
     0
1001
ACDBATTR
1070
     0
1070
     1
  0
LINE
  5
2F609
  8
0
 10
6579.1387113691343984
 20
223.1027859416554122
 30
0.0
 11
6581.1072153061340941
 21
223.1027859416554122
 31
0.0
  0
LINE
  5
2F60A
  8
0
 10
6579.3434617628327032
 20
224.8665654691554039
 30
0.0
 11
6580.9024649124330608
 21
224.8665654691554039
 31
0.0
  0
LINE
  5
2F60B
  8
0
 10
6579.3355617628330947
 20
226.9059355479554938
 30
0.0
 11
6579.3355617628330947
 21
224.6250983032431918
 31
0.0
  0
ARC
  5
2F60C
  8
0
 10
6579.3434617628327032
 20
224.8586654691553974
 30
0.0
 40
0.0079
 50
90.0
 51
180.0000000000194973
  0
LINE
  5
2F60D
  8
0
 10
6579.1387113691343984
 20
223.2996394951699131
 30
0.0
 11
6579.1387113691343984
 21
223.1027859416554122
 31
0.0
  0
ARC
  5
2F60E
  8
0
 10
6575.0103846668071128
 20
224.5521495030668859
 30
0.0
 40
4.3141468080063783
 50
343.1225116485098283
 51
345.0271833824685928
  0
ARC
  5
2F60F
  8
0
 10
6579.146611369134007
 20
223.2984680133926929
 30
0.0
 40
0.0079
 50
163.1380557627157941
 51
180.0
  0
ARC
  5
2F610
  8
0
 10
6574.8210622407841583
 20
224.602782035483898
 30
0.0
 40
4.5101229145445094
 50
345.0271833824685928
 51
347.9391652857310078
  0
ARC
  5
2F611
  8
0
 10
6574.8859724091125827
 20
224.5889129037859959
 30
0.0
 40
4.4437475970961646
 50
347.9391652857310078
 51
351.0158935998927063
  0
ARC
  5
2F612
  8
0
 10
6574.4486981862992252
 20
224.6580460014918117
 30
0.0
 40
4.8864530648012909
 50
351.0158935998927063
 51
355.794011928729617
  0
ARC
  5
2F613
  8
0
 10
6574.0784861588854255
 20
224.6813157029324941
 30
0.0
 40
5.2573761803463794
 50
355.837007577720783
 51
359.3873215435427255
  0
LINE
  5
2F614
  8
0
 10
6579.5009160935333057
 20
227.0712898786555058
 30
0.0
 11
6580.7450105817342774
 21
227.0712898786555058
 31
0.0
  0
LINE
  5
2F615
  8
0
 10
6579.5009160935333057
 20
227.0712898786555058
 30
0.0
 11
6579.3355617628330947
 21
226.9059355479554938
 31
0.0
  0
LINE
  5
2F616
  8
0
 10
6579.3355617628330947
 20
226.9059355479554938
 30
0.0
 11
6580.9103649124353979
 21
226.9059355479554938
 31
0.0
  0
LINE
  5
2F617
  8
0
 10
6579.0261168403521879
 20
226.8029828541945108
 30
0.0
 11
6575.3767341453030895
 21
226.8666830667010004
 31
0.0
  0
LINE
  5
2F618
  8
0
 10
6579.0301601975788799
 20
227.0357088172386
 30
0.0
 11
6575.3808188431994495
 21
227.0994083254340126
 31
0.0
  0
LINE
  5
2F619
  8
0
 10
6580.3259122728468355
 20
227.2085386403880989
 30
0.0
 11
6575.3842192580514165
 21
227.2947962158490895
 31
0.0
  0
LINE
  5
2F61A
  8
0
 10
6580.9103649124353979
 20
226.9059355479554938
 30
0.0
 11
6580.9103649124353979
 21
224.6250983032431918
 31
0.0
  0
ARC
  5
2F61B
  8
0
 10
6580.9024649124330608
 20
224.8586654691553974
 30
0.0
 40
0.0079
 50
359.9999999999805027
 51
90.0
  0
LINE
  5
2F61C
  8
0
 10
6581.1072153061340941
 20
223.2996394951699131
 30
0.0
 11
6581.1072153061340941
 21
223.1027859416554122
 31
0.0
  0
ARC
  5
2F61D
  8
0
 10
6585.2355420084622892
 20
224.5521495030668859
 30
0.0
 40
4.3141468080063783
 50
194.9728166175314925
 51
196.8774883514886085
  0
ARC
  5
2F61E
  8
0
 10
6581.0993153061353951
 20
223.2984680133926929
 30
0.0
 40
0.0079
 50
0.0
 51
16.86194423728411
  0
ARC
  5
2F61F
  8
0
 10
6585.4248644344834247
 20
224.602782035483898
 30
0.0
 40
4.5101229145445094
 50
192.0608347142689922
 51
194.9728166175314925
  0
ARC
  5
2F620
  8
0
 10
6585.3599542661559099
 20
224.5889129037859959
 30
0.0
 40
4.4437475970961646
 50
188.9841064001072084
 51
192.0608347142689922
  0
ARC
  5
2F621
  8
0
 10
6585.7972284889701768
 20
224.6580460014918117
 30
0.0
 40
4.8864530648012909
 50
184.2059880712702977
 51
188.9841064001072084
  0
ARC
  5
2F622
  8
0
 10
6586.167440516383067
 20
224.6813157029324941
 30
0.0
 40
5.2573761803463794
 50
180.6126784564573029
 51
184.1629924222791033
  0
LINE
  5
2F623
  8
0
 10
6580.7450105817342774
 20
227.0712898786555058
 30
0.0
 11
6580.9103649124353979
 21
226.9059355479554938
 31
0.0
  0
ARC
  5
2F624
  8
0
 10
6580.3232649124338423
 20
226.8590850164468975
 30
0.0
 40
0.5871
 50
0.0
 51
0.0
  0
ARC
  5
2F625
  8
0
 10
6580.3114418107788879
 20
226.8253376645143078
 30
0.0
 40
0.3834740958436451
 50
39.894721578743173
 51
87.8374203010492351
  0
ARC
  5
2F626
  8
0
 10
6579.0206011329328248
 20
226.4880705245554964
 30
0.0
 40
0.5477217133999679
 50
52.6342681961374979
 51
88.9999997188990193
  0
ARC
  5
2F627
  8
0
 10
6579.0206011329328248
 20
226.4880705245554964
 30
0.0
 40
0.3149606299000094
 50
0.0
 51
88.9965637553745523
  0
LINE
  5
2F628
  8
0
 10
6574.339217295943854
 20
226.9554450897842059
 30
0.0
 11
6574.127454595333802
 21
226.6030127719554059
 31
0.0
  0
LINE
  5
2F629
  8
0
 10
6574.9118737708431581
 20
226.6090067534975958
 30
0.0
 11
6574.7011492454330437
 21
226.2583022493554097
 31
0.0
  0
LINE
  5
2F62A
  8
0
 10
6574.7123469979378569
 20
226.7288683338352087
 30
0.0
 11
6574.5016340385018339
 21
226.3781830801011949
 31
0.0
  0
LINE
  5
2F62B
  8
0
 10
6574.5448467261039696
 20
226.8295244259441859
 30
0.0
 11
6574.3341285677361157
 21
226.4788305209582973
 31
0.0
  0
ARC
  5
2F62C
  8
0
 10
6575.3674701830032063
 20
226.3352423828177962
 30
0.0
 40
0.9596999999999999
 50
88.9999999648445481
 51
148.9999998164483088
  0
ARC
  5
2F62D
  8
0
 10
6575.3674799652098955
 20
226.3352247320914046
 30
0.0
 40
0.7643
 50
88.9999997188990193
 51
148.9999999046609958
  0
ARC
  5
2F62E
  8
0
 10
6575.3674581911918722
 20
226.3352640167269101
 30
0.0
 40
0.5315
 50
88.9999999903303092
 51
149.0000000055331952
  0
LINE
  5
2F62F
  8
0
 10
6574.7011492454330437
 20
226.2583022493554097
 30
0.0
 11
6574.127454595333802
 21
226.6030127719554059
 31
0.0
  0
LINE
  5
2F630
  8
0
 10
6579.3946168810352901
 20
224.9059355479554938
 30
0.0
 11
6580.8513097942332024
 21
224.9059355479554938
 31
0.0
  0
LINE
  5
2F631
  8
0
 10
6579.3355617628330947
 20
224.9256205873554961
 30
0.0
 11
6580.9103649124353979
 21
224.9256205873554961
 31
0.0
  0
LINE
  5
2F632
  8
0
 10
6579.3390211322202958
 20
224.9256205873554961
 30
0.0
 11
6579.3390211322202958
 21
224.8651992888464122
 31
0.0
  0
LINE
  5
2F633
  8
0
 10
6579.3946168810352901
 20
224.9256205873554961
 30
0.0
 11
6579.3946168810352901
 21
224.9059355479554938
 31
0.0
  0
LINE
  5
2F634
  8
0
 10
6579.5683228663574482
 20
224.9059355479554938
 30
0.0
 11
6579.5683228663574482
 21
224.8665654691554039
 31
0.0
  0
LINE
  5
2F635
  8
0
 10
6579.5694759895932293
 20
224.8586654691553974
 30
0.0
 11
6579.5694759895932293
 21
224.5877408328969977
 31
0.0
  0
ARC
  5
2F636
  8
0
 10
6579.5773759895919284
 20
224.8586654691555111
 30
0.0
 40
0.0079
 50
90.0
 51
180.000000000032486
  0
ARC
  5
2F637
  8
0
 10
6576.9496035495312753
 20
224.7160776040086034
 30
0.0
 40
2.623013901796091
 50
349.2608571133757778
 51
357.195557273368081
  0
ARC
  5
2F638
  8
0
 10
6577.2280087747967627
 20
224.6714687309705027
 30
0.0
 40
2.3411862592299211
 50
341.632451096244381
 51
349.0638528820106217
  0
ARC
  5
2F639
  8
0
 10
6577.0897195669258508
 20
224.7173844526041933
 30
0.0
 40
2.4868988479344218
 50
333.7657228862116199
 51
341.632451096244381
  0
ARC
  5
2F63A
  8
0
 10
6576.8397520467369759
 20
224.8405695264455915
 30
0.0
 40
2.7655712785168478
 50
328.4539821599113907
 51
333.7657228862116199
  0
ARC
  5
2F63B
  8
0
 10
6576.6732179814716801
 20
224.9428058054321866
 30
0.0
 40
2.9609832833546288
 50
326.9025120614705884
 51
328.4539821599113907
  0
ARC
  5
2F63C
  8
0
 10
6579.1642510187348307
 20
223.3230025249646928
 30
0.0
 40
0.0108880092122897
 50
164.4805381537321125
 51
187.7838549168658915
  0
ARC
  5
2F63D
  8
0
 10
6579.2092926389323111
 20
223.3462013226491933
 30
0.0
 40
0.0610384286370038
 50
203.8427467968093083
 51
220.499593241585103
  0
ARC
  5
2F63E
  8
0
 10
6579.1834447092223854
 20
223.3243130217356054
 30
0.0
 40
0.0271685678761037
 50
220.8004343209020135
 51
242.4626457168542117
  0
ARC
  5
2F63F
  8
0
 10
6579.1785973591568109
 20
223.3162372323438944
 30
0.0
 40
0.0177755948643376
 50
244.2826175259586137
 51
268.3368266280454009
  0
LINE
  5
2F640
  8
0
 10
6579.1780814442927294
 20
223.2984691259555063
 30
0.0
 11
6581.0678452309748536
 21
223.2984691259555063
 31
0.0
  0
LINE
  5
2F641
  8
0
 10
6580.9069055430472872
 20
224.9256205873554961
 30
0.0
 11
6580.9069055430472872
 21
224.8651992888464122
 31
0.0
  0
LINE
  5
2F642
  8
0
 10
6580.8513097942332024
 20
224.9256205873554961
 30
0.0
 11
6580.8513097942332024
 21
224.9059355479554938
 31
0.0
  0
LINE
  5
2F643
  8
0
 10
6580.6776038089110443
 20
224.9059355479554938
 30
0.0
 11
6580.6776038089110443
 21
224.8665654691554039
 31
0.0
  0
LINE
  5
2F644
  8
0
 10
6580.6764506856752632
 20
224.8586654691553974
 30
0.0
 11
6580.6764506856752632
 21
224.5877408328969977
 31
0.0
  0
ARC
  5
2F645
  8
0
 10
6580.6685506856747452
 20
224.8586654691555111
 30
0.0
 40
0.0079
 50
359.9999999999674856
 51
90.0
  0
ARC
  5
2F646
  8
0
 10
6583.2963231257363077
 20
224.7160776040086034
 30
0.0
 40
2.623013901796091
 50
182.8044427266318905
 51
190.7391428866241938
  0
ARC
  5
2F647
  8
0
 10
6583.0179179004708203
 20
224.6714687309705027
 30
0.0
 40
2.3411862592299211
 50
190.9361471179892931
 51
198.367548903753999
  0
ARC
  5
2F648
  8
0
 10
6583.1562071083417322
 20
224.7173844526041933
 30
0.0
 40
2.4868988479344218
 50
198.3675489037555053
 51
206.2342771137884085
  0
ARC
  5
2F649
  8
0
 10
6583.4061746285324261
 20
224.8405695264455915
 30
0.0
 40
2.7655712785168478
 50
206.2342771137884085
 51
211.5460178400886946
  0
ARC
  5
2F64A
  8
0
 10
6583.5727086937968124
 20
224.9428058054321866
 30
0.0
 40
2.9609832833546288
 50
211.5460178400886946
 51
213.0974879385294116
  0
ARC
  5
2F64B
  8
0
 10
6581.0816756565327523
 20
223.3230025249646928
 30
0.0
 40
0.0108880092122897
 50
352.2161450831341085
 51
15.5194618462678804
  0
ARC
  5
2F64C
  8
0
 10
6581.0366340363370909
 20
223.3462013226491933
 30
0.0
 40
0.0610384286370038
 50
319.5004067584147833
 51
336.1572532031906917
  0
ARC
  5
2F64D
  8
0
 10
6581.0624819660461071
 20
223.3243130217356054
 30
0.0
 40
0.0271685678761037
 50
297.5373542831458167
 51
319.1995656790981002
  0
ARC
  5
2F64E
  8
0
 10
6581.0673293161098627
 20
223.3162372323438944
 30
0.0
 40
0.0177755948643376
 50
271.6631733719545991
 51
295.7173824740414148
  0
LINE
  5
2F64F
  8
0
 10
6579.1780814442927294
 20
223.2984691259555063
 30
0.0
 11
6579.1780814442927294
 21
223.1027859416554122
 31
0.0
  0
LINE
  5
2F650
  8
0
 10
6575.3863994713638021
 20
227.5359076482043008
 30
0.0
 11
6580.3335112202548771
 21
227.4495554914095976
 31
0.0
  0
ARC
  5
2F651
  8
0
 10
6575.36550370513487
 20
226.3387900027935871
 30
0.0
 40
1.1973
 50
88.9999999998679243
 51
149.0000000055331952
  0
ARC
  5
2F652
  8
0
 10
6580.3232649124338423
 20
226.8625449095833062
 30
0.0
 40
0.5871
 50
4.4084017700772602
 51
88.9999999998679243
  0
LINE
  5
2F654
  8
0
 10
6579.5717822353326483
 20
224.9256205873554961
 30
0.0
 11
6579.5717822353326483
 21
226.9059355479554938
 31
0.0
  0
LINE
  5
2F655
  8
0
 10
6579.5717822353326483
 20
226.9059355479554938
 30
0.0
 11
6579.640274241734005
 21
227.0712898786555058
 31
0.0
  0
LINE
  5
2F656
  8
0
 10
6580.6741444399331158
 20
224.9256205873554961
 30
0.0
 11
6580.6741444399331158
 21
226.9059355479554938
 31
0.0
  0
LINE
  5
2F657
  8
0
 10
6580.6741444399331158
 20
226.9059355479554938
 30
0.0
 11
6580.605652433535397
 21
227.0712898786555058
 31
0.0
  0
ENDSEC
  0
EOF
