  0
SECTION
  2
HEADER
  9
$ACADVER
  1
AC1009
  9
$INSBASE
 10
6991.1115168422911665
 20
309.0035304431303871
 30
0.0
  9
$EXTMIN
 10
6983.5418276733862513
 20
308.9986321621632896
 30
0.0
  9
$EXTMAX
 10
6992.0957688107901049
 20
320.2869950100304095
 30
0.0
  9
$LIMMIN
 10
0.0
 20
0.0
  9
$LIMMAX
 10
11.6929133858000007
 20
8.2677165353999982
  9
$ORTHOMODE
 70
     0
  9
$REGENMODE
 70
     1
  9
$FILLMODE
 70
     1
  9
$QTEXTMODE
 70
     0
  9
$MIRRTEXT
 70
     0
  9
$DRAGMODE
 70
     2
  9
$LTSCALE
 40
0.6431102362
  9
$OSMODE
 70
  4095
  9
$ATTMODE
 70
     1
  9
$TEXTSIZE
 40
0.2
  9
$TRACEWID
 40
0.05
  9
$TEXTSTYLE
  7
STANDARD
  9
$CLAYER
  8
0
  9
$CELTYPE
  6
BYLAYER
  9
$CECOLOR
 62
   256
  9
$DIMSCALE
 40
1.0
  9
$DIMASZ
 40
0.1875
  9
$DIMEXO
 40
0.0625
  9
$DIMDLI
 40
0.4443307087
  9
$DIMRND
 40
0.0
  9
$DIMDLE
 40
0.0
  9
$DIMEXE
 40
0.125
  9
$DIMTP
 40
0.01
  9
$DIMTM
 40
0.01
  9
$DIMTXT
 40
2.0
  9
$DIMCEN
 40
0.1052362205
  9
$DIMTSZ
 40
0.0
  9
$DIMTOL
 70
     1
  9
$DIMLIM
 70
     0
  9
$DIMTIH
 70
     1
  9
$DIMTOH
 70
     1
  9
$DIMSE1
 70
     0
  9
$DIMSE2
 70
     0
  9
$DIMTAD
 70
     0
  9
$DIMZIN
 70
     0
  9
$DIMBLK
  1

  9
$DIMASO
 70
     1
  9
$DIMSHO
 70
     1
  9
$DIMPOST
  1
\X
  9
$DIMAPOST
  1

  9
$DIMALT
 70
     1
  9
$DIMALTD
 70
     2
  9
$DIMALTF
 40
25.3999999999999986
  9
$DIMLFAC
 40
1.0
  9
$DIMTOFL
 70
     0
  9
$DIMTVP
 40
0.0
  9
$DIMTIX
 70
     0
  9
$DIMSOXD
 70
     0
  9
$DIMSAH
 70
     0
  9
$DIMBLK1
  1

  9
$DIMBLK2
  1

  9
$DIMSTYLE
  2
STANDARD
  9
$DIMCLRD
 70
     0
  9
$DIMCLRE
 70
     0
  9
$DIMCLRT
 70
     0
  9
$DIMTFAC
 40
1.0
  9
$DIMGAP
 40
0.09
  9
$LUNITS
 70
     2
  9
$LUPREC
 70
     4
  9
$SKETCHINC
 40
0.1
  9
$FILLETRAD
 40
0.0
  9
$AUNITS
 70
     0
  9
$AUPREC
 70
     0
  9
$MENU
  1
.
  9
$ELEVATION
 40
0.0
  9
$PELEVATION
 40
0.0
  9
$THICKNESS
 40
0.0
  9
$LIMCHECK
 70
     0
  9
$BLIPMODE
 70
     0
  9
$CHAMFERA
 40
0.0
  9
$CHAMFERB
 40
0.0
  9
$SKPOLY
 70
     0
  9
$TDCREATE
 40
2458060.468368056230247
  9
$TDUPDATE
 40
2460556.9341782410629094
  9
$TDINDWG
 40
0.9338728009
  9
$TDUSRTIMER
 40
0.9338728009
  9
$USRTIMER
 70
     1
  9
$ANGBASE
 50
0.0
  9
$ANGDIR
 70
     0
  9
$PDMODE
 70
     0
  9
$PDSIZE
 40
0.3125
  9
$PLINEWID
 40
0.0
  9
$COORDS
 70
     1
  9
$SPLFRAME
 70
     0
  9
$SPLINETYPE
 70
     6
  9
$SPLINESEGS
 70
     8
  9
$ATTDIA
 70
     1
  9
$ATTREQ
 70
     1
  9
$HANDLING
 70
     1
  9
$HANDSEED
  5
38B3F
  9
$SURFTAB1
 70
     6
  9
$SURFTAB2
 70
     6
  9
$SURFTYPE
 70
     6
  9
$SURFU
 70
     6
  9
$SURFV
 70
     6
  9
$UCSNAME
  2

  9
$UCSORG
 10
0.0
 20
0.0
 30
0.0
  9
$UCSXDIR
 10
1.0
 20
0.0
 30
0.0
  9
$UCSYDIR
 10
0.0
 20
1.0
 30
0.0
  9
$PUCSNAME
  2

  9
$PUCSORG
 10
0.0
 20
0.0
 30
0.0
  9
$PUCSXDIR
 10
1.0
 20
0.0
 30
0.0
  9
$PUCSYDIR
 10
0.0
 20
1.0
 30
0.0
  9
$USERI1
 70
     0
  9
$USERI2
 70
     0
  9
$USERI3
 70
     0
  9
$USERI4
 70
     0
  9
$USERI5
 70
     0
  9
$USERR1
 40
0.0
  9
$USERR2
 40
0.0
  9
$USERR3
 40
0.0
  9
$USERR4
 40
0.0
  9
$USERR5
 40
0.0
  9
$WORLDVIEW
 70
     1
  9
$SHADEDGE
 70
     3
  9
$SHADEDIF
 70
    70
  9
$TILEMODE
 70
     1
  9
$MAXACTVP
 70
    64
  9
$PLIMCHECK
 70
     0
  9
$PEXTMIN
 10
1.0000000000000000E+20
 20
1.0000000000000000E+20
 30
1.0000000000000000E+20
  9
$PEXTMAX
 10
-1.0000000000000000E+20
 20
-1.0000000000000000E+20
 30
-1.0000000000000000E+20
  9
$PLIMMIN
 10
0.0
 20
0.0
  9
$PLIMMAX
 10
12.0
 20
9.0
  9
$UNITMODE
 70
     0
  9
$VISRETAIN
 70
     1
  9
$PLINEGEN
 70
     0
  9
$PSLTSCALE
 70
     1
  0
ENDSEC
  0
SECTION
  2
TABLES
  0
TABLE
  2
VPORT
 70
     1
  0
VPORT
  2
*ACTIVE
 70
     0
 10
0.0
 20
0.0
 11
1.0
 21
1.0
 12
3076.4534417967761328
 22
182.0632084835577871
 13
0.0
 23
0.0
 14
1.0
 24
1.0
 15
0.0
 25
0.0
 16
0.0
 26
0.0
 36
60.4960186965801583
 17
3911.3653564453120453
 27
132.5796051025390057
 37
0.0
 40
11.3792453898534394
 41
2.558981233243967
 42
50.0
 43
0.0
 44
0.0
 50
0.0
 51
0.0
 71
     0
 72
   100
 73
     1
 74
     1
 75
     0
 76
     0
 77
     0
 78
     0
  0
ENDTAB
  0
TABLE
  2
LTYPE
 70
     2
  0
LTYPE
  2
CONTINUOUS
 70
     0
  3
Solid line
 72
    65
 73
     0
 40
0.0
  0
LTYPE
  2
PHANTOM2
 70
     0
  3
___ _ _ ___ _ _ ___ _ _ ___ _ _
 72
    65
 73
     6
 40
1.25
 49
0.625
 49
-0.125
 49
0.125
 49
-0.125
 49
0.125
 49
-0.125
  0
ENDTAB
  0
TABLE
  2
LAYER
 70
     2
  0
LAYER
  2
0
 70
     0
 62
   255
  6
CONTINUOUS
  0
LAYER
  2
DEFPOINTS
 70
     0
 62
     7
  6
CONTINUOUS
  0
ENDTAB
  0
TABLE
  2
STYLE
 70
     1
  0
STYLE
  2
STANDARD
 70
     0
 40
0.0
 41
0.8
 50
0.0
 71
     0
 42
0.2
  3
txt
  4

  0
ENDTAB
  0
TABLE
  2
VIEW
 70
     2
  0
ENDTAB
  0
TABLE
  2
UCS
 70
     0
  0
ENDTAB
  0
TABLE
  2
APPID
 70
    11
  0
APPID
  2
ACAD
 70
     0
  0
APPID
  2
ACAD_MLEADERVER
 70
     0
  0
APPID
  2
ACAD_EXEMPT_FROM_CAD_STANDARDS
 70
     0
  0
APPID
  2
ACAD_NAV_VCDISPLAY
 70
     0
  0
APPID
  2
ACAECLAYERSTANDARD
 70
     0
  0
APPID
  2
ACCMTRANSPARENCY
 70
     0
  0
APPID
  2
ACAD_DSTYLE_DIMJAG
 70
     0
  0
APPID
  2
ACAD_DSTYLE_DIMTALN
 70
     0
  0
APPID
  2
ACDBATTR
 70
     0
  0
APPID
  2
ACADANNOTATIVE
 70
     0
  0
APPID
  2
DCO15
 70
     0
  0
ENDTAB
  0
TABLE
  2
DIMSTYLE
 70
     1
  0
DIMSTYLE
  2
STANDARD
 70
     0
  3

  4

  5

  6

  7

 40
1.0
 41
0.1875
 42
0.0625
 43
0.38
 44
0.125
 45
0.0
 46
0.0
 47
0.01
 48
0.01
140
0.15625
141
0.09
142
0.0
143
25.3999999999999986
144
1.0
145
0.0
146
1.0
147
0.09
 71
     1
 72
     0
 73
     1
 74
     1
 75
     0
 76
     0
 77
     0
 78
     4
170
     0
171
     2
172
     0
173
     0
174
     0
175
     0
176
     0
177
     0
178
     0
  0
ENDTAB
  0
ENDSEC
  0
SECTION
  2
BLOCKS
  0
BLOCK
  8
0
  2
$MODEL_SPACE
 70
     0
 10
0.0
 20
0.0
 30
0.0
  3
$MODEL_SPACE
  1

  0
ENDBLK
  5
21
  8
0
  0
BLOCK
 67
     1
  8
0
  2
$PAPER_SPACE
 70
     0
 10
0.0
 20
0.0
 30
0.0
  3
$PAPER_SPACE
  1

  0
ENDBLK
  5
1D
 67
     1
  8
0
  0
BLOCK
  8
0
  2
_FILLED
 70
     0
 10
0.0
 20
0.0
 30
0.0
  3
_FILLED
  1

  0
SOLID
  5
2853B
  8
0
  6
BYBLOCK
 62
     0
 10
0.0
 20
0.0
 30
0.0
 11
-1.0
 21
0.1666666667
 31
0.0
 12
-1.0
 22
-0.1666666667
 32
0.0
 13
-1.0
 23
-0.1666666667
 33
0.0
  0
ENDBLK
  5
2853C
  8
0
  6
BYBLOCK
 62
     0
  0
ENDSEC
  0
SECTION
  2
ENTITIES
  0
ATTDEF
  5
2842F
  8
DEFPOINTS
 10
6991.1082750577752449
 20
309.0019654954966768
 30
0.0
 40
0.001
  1
P33164-GTM
  3

  2
MODELNUMBER
 70
     0
1001
ACDBATTR
1070
     0
1070
     1
  0
ATTDEF
  5
28430
  8
DEFPOINTS
 10
6991.1081492481189343
 20
309.0002986551176036
 30
0.0
 40
0.001
  1
BEZEL
  3

  2
TRADENAME
 70
     0
1001
ACDBATTR
1070
     0
1070
     1
  0
ATTDEF
  5
28431
  8
DEFPOINTS
 10
6991.1082750577752449
 20
308.9986321621632896
 30
0.0
 40
0.001
  1
BATHROOM SINK FAUCET
  3

  2
PRODUCT
 70
     0
1001
ACDBATTR
1070
     0
1070
     1
  0
LINE
  5
38A7F
  8
0
 10
6990.1272648737904092
 20
309.0035304431303871
 30
0.0
 11
6992.0957688107901049
 21
309.0035304431303871
 31
0.0
  0
LINE
  5
38A80
  8
0
 10
6990.3211625115900461
 20
318.3184910730303727
 30
0.0
 11
6991.1085640863902881
 21
318.3184910730303727
 31
0.0
  0
LINE
  5
38A81
  8
0
 10
6990.3339152689341063
 20
318.2554989470303894
 30
0.0
 11
6991.8891184156445888
 21
318.2554989470303894
 31
0.0
  0
LINE
  5
38A82
  8
0
 10
6984.7713594222150277
 20
317.9011682384303867
 30
0.0
 11
6990.0091152689292358
 21
317.9011682384303867
 31
0.0
  0
LINE
  5
38A83
  8
0
 10
6990.486516842290257
 20
320.2869950100304095
 30
0.0
 11
6991.7306113304903192
 21
320.2869950100304095
 31
0.0
  0
LINE
  5
38A84
  8
0
 10
6990.3211625115900461
 20
320.1216406793304259
 30
0.0
 11
6991.8959656611896207
 21
320.1216406793304259
 31
0.0
  0
LINE
  5
38A85
  8
0
 10
6990.1289445861111744
 20
309.2059321557367184
 30
0.0
 11
6992.0940890984693397
 21
309.2059321557367184
 31
0.0
  0
LINE
  5
38A86
  8
0
 10
6990.1272648737904092
 20
309.194555012630417
 30
0.0
 11
6990.1272648737904092
 21
309.0035304431303871
 31
0.0
  0
LINE
  5
38A87
  8
0
 10
6992.0957688107901049
 20
309.0035304431303871
 30
0.0
 11
6992.0957688107901049
 21
309.1945550124341935
 31
0.0
  0
LINE
  5
38A88
  8
0
 10
6990.32411526739088
 20
310.4032248902830133
 30
0.0
 11
6990.3241152686732676
 21
316.9168739509676129
 31
0.0
  0
LINE
  5
38A89
  8
0
 10
6990.3241152689288356
 20
318.2161682383684251
 30
0.0
 11
6990.324115268935202
 21
318.2456989470323947
 31
0.0
  0
ARC
  5
38A8A
  8
0
 10
6990.1666349556689966
 20
309.1945550124341935
 30
0.0
 40
0.0393700818786673
 50
163.2026155291395071
 51
179.9999997143742121
  0
ARC
  5
38A8B
  8
0
 10
6985.9620909246168594
 20
310.4637722692153829
 30
0.0
 40
4.3525660462949043
 50
343.2026155291395071
 51
344.4318412469721125
  0
ARC
  5
38A8C
  8
0
 10
6985.8773215438795887
 20
310.4873895317568895
 30
0.0
 40
4.4405639042276466
 50
344.4318412469721125
 51
349.8870724664163276
  0
ARC
  5
38A8D
  8
0
 10
6985.2379568948563247
 20
310.6014265636072196
 30
0.0
 40
5.0900187518136324
 50
349.8870724664163276
 51
357.768379311144372
  0
LINE
  5
38A8E
  8
0
 10
6990.5578626810902279
 20
310.3805627057456036
 30
0.0
 11
6990.5578626810902279
 21
316.916922214729027
 31
0.0
  0
LINE
  5
38A8F
  8
0
 10
6990.5578626810902279
 20
318.2161208747303931
 30
0.0
 11
6990.5578626810902279
 21
318.2456989470304052
 31
0.0
  0
LINE
  5
38A90
  8
0
 10
6990.1666349524903126
 20
309.0035304431303871
 30
0.0
 11
6990.1666349524903126
 21
309.2059319220304019
 31
0.0
  0
LINE
  5
38A91
  8
0
 10
6990.1666349524903126
 20
309.2059319220304019
 30
0.0
 11
6990.1928990994902051
 21
309.2956266434304098
 31
0.0
  0
ARC
  5
38A92
  8
0
 10
6987.835879596529594
 20
310.7411965625709058
 30
0.0
 40
2.7649979378141429
 50
328.4790367424567989
 51
333.5064092786633978
  0
ARC
  5
38A93
  8
0
 10
6988.0942268599701492
 20
310.6124254499633253
 30
0.0
 40
2.476336703891695
 50
333.5064092786633978
 51
345.2043122184419985
  0
ARC
  5
38A94
  8
0
 10
6988.2176574893792349
 20
310.579823608943002
 30
0.0
 40
2.3486730821580881
 50
345.2043122184419985
 51
355.1331884476686014
  0
LINE
  5
38A95
  8
0
 10
6990.0091152686727582
 20
317.2318739510295131
 30
0.0
 11
6984.77135612415168
 21
317.2318739510295131
 31
0.0
  0
LINE
  5
38A96
  8
0
 10
6990.009162681089947
 20
317.4656222147290237
 30
0.0
 11
6984.7713859937912275
 21
317.4656222147290237
 31
0.0
  0
LINE
  5
38A97
  8
0
 10
6990.009162681089947
 20
317.6674208747303965
 30
0.0
 11
6984.7713870885836513
 21
317.6674208747303965
 31
0.0
  0
ARC
  5
38A98
  8
0
 10
6990.0091152686727582
 20
316.9168739510295154
 30
0.0
 40
0.315
 50
359.9999999887278932
 51
90.0
  0
ARC
  5
38A99
  8
0
 10
6990.0091152689292358
 20
318.2161682384303845
 30
0.0
 40
0.315
 50
270.0
 51
359.9999999887278932
  0
ARC
  5
38A9A
  8
0
 10
6990.009162681089947
 20
318.2161208747303931
 30
0.0
 40
0.5487
 50
270.0
 51
0.0
  0
ARC
  5
38A9B
  8
0
 10
6990.009162681089947
 20
316.916922214729027
 30
0.0
 40
0.5487
 50
0.0
 51
90.0
  0
LINE
  5
38A9C
  8
0
 10
6983.5467276733861581
 20
316.9415593921203822
 30
0.0
 11
6984.1093768770024326
 21
316.616713722973202
 31
0.0
  0
LINE
  5
38A9D
  8
0
 10
6983.7484968178523559
 20
317.3106182385100169
 30
0.0
 11
6983.543140624429725
 21
316.9549464410782775
 31
0.0
  0
LINE
  5
38A9E
  8
0
 10
6983.950914882696452
 20
317.1937213279315984
 30
0.0
 11
6983.7455718264345705
 21
316.8380727383650992
 31
0.0
  0
LINE
  5
38A9F
  8
0
 10
6984.1256793589282097
 20
317.0928255163399854
 30
0.0
 11
6983.9203327017039555
 21
316.7371744358778756
 31
0.0
  0
LINE
  5
38AA0
  8
0
 10
6984.3281261600241123
 20
316.9759771336957783
 30
0.0
 11
6984.1227638907730579
 21
316.6203007109883742
 31
0.0
  0
ARC
  5
38AA1
  8
0
 10
6984.77135612415168
 20
316.7200739510295193
 30
0.0
 40
0.5118000000000001
 50
90.0
 51
149.9995885815841916
  0
ARC
  5
38AA2
  8
0
 10
6984.7713859937912275
 20
316.7200222147291129
 30
0.0
 40
0.7456000000000002
 50
90.0
 51
149.9997070371086068
  0
ARC
  5
38AA3
  8
0
 10
6984.7713870885836513
 20
316.7200208747303805
 30
0.0
 40
0.9474
 50
90.0
 51
149.9999683517563938
  0
ARC
  5
38AA4
  8
0
 10
6984.7713594222150277
 20
316.7200682384303718
 30
0.0
 40
1.1811
 50
90.0
 51
149.9999999955529972
  0
ARC
  5
38AA5
  8
0
 10
6983.7540588726851638
 20
316.8331727336770882
 30
0.0
 40
0.0098
 50
149.9999683517507094
 51
240.0000000015087096
  0
ARC
  5
38AA6
  8
0
 10
6983.5516276733851555
 20
316.9500464410775749
 30
0.0
 40
0.0098
 50
149.9999999955502119
 51
240.0000000015070896
  0
ARC
  5
38AA7
  8
0
 10
6983.9118456778023756
 20
316.7420744792735832
 30
0.0
 40
0.0098
 50
240.0000000015087096
 51
329.9997070371143195
  0
ARC
  5
38AA8
  8
0
 10
6984.114276877003249
 20
316.6252007719303947
 30
0.0
 40
0.0098
 50
240.0000000015103865
 51
329.9995885815898191
  0
ARC
  5
38AA9
  8
0
 10
6990.5676626810900416
 20
318.2456989470304052
 30
0.0
 40
0.0098
 50
90.0
 51
180.0
  0
ARC
  5
38AAA
  8
0
 10
6990.3339152689341063
 20
318.2456989470304052
 30
0.0
 40
0.0098
 50
90.0
 51
179.9999999887278932
  0
LINE
  5
38AAB
  8
0
 10
6992.0957688107901049
 20
309.194555012630417
 30
0.0
 11
6992.0957688107901049
 21
309.0035304431303871
 31
0.0
  0
LINE
  5
38AAC
  8
0
 10
6991.8989184171887246
 20
310.4032248902830133
 30
0.0
 11
6991.8989184156462215
 21
318.2456989470323947
 31
0.0
  0
ARC
  5
38AAD
  8
0
 10
6991.8891184156445888
 20
318.2456989470304052
 30
0.0
 40
0.0098
 50
0.0000000112720893
 51
90.0
  0
ARC
  5
38AAE
  8
0
 10
6992.056398728910608
 20
309.1945550124341935
 30
0.0
 40
0.0393700818786673
 50
0.0000002856258202
 51
16.7973844708604609
  0
ARC
  5
38AAF
  8
0
 10
6996.2609427599618357
 20
310.4637722692153829
 30
0.0
 40
4.3525660462949043
 50
195.5681587530278875
 51
196.7973844708604076
  0
ARC
  5
38AB0
  8
0
 10
6996.3457121407009254
 20
310.4873895317568895
 30
0.0
 40
4.4405639042276466
 50
190.1129275335837008
 51
195.5681587530278875
  0
ARC
  5
38AB1
  8
0
 10
6996.9850767897232799
 20
310.6014265636072196
 30
0.0
 40
5.0900187518136324
 50
182.2316206888555996
 51
190.1129275335837008
  0
LINE
  5
38AB2
  8
0
 10
6991.6651710034893767
 20
310.3805627057456036
 30
0.0
 11
6991.6651710034893767
 21
318.2456989470304052
 31
0.0
  0
LINE
  5
38AB3
  8
0
 10
6992.0563987320902015
 20
309.0035304431303871
 30
0.0
 11
6992.0563987320902015
 21
309.2059319220304019
 31
0.0
  0
LINE
  5
38AB4
  8
0
 10
6992.0563987320902015
 20
309.2059319220304019
 30
0.0
 11
6992.030134585090309
 21
309.2956266434304098
 31
0.0
  0
ARC
  5
38AB5
  8
0
 10
6994.3871540880509201
 20
310.7411965625709058
 30
0.0
 40
2.7649979378141429
 50
206.4935907213364885
 51
211.5209632575432011
  0
ARC
  5
38AB6
  8
0
 10
6994.1288068246085459
 20
310.6124254499633253
 30
0.0
 40
2.476336703891695
 50
194.7956877815580015
 51
206.4935907213364885
  0
ARC
  5
38AB7
  8
0
 10
6994.0053761952012792
 20
310.579823608943002
 30
0.0
 40
2.3486730821580881
 50
184.8668115523313134
 51
194.7956877815580015
  0
ARC
  5
38AB8
  8
0
 10
6991.655371003489563
 20
318.2456989470304052
 30
0.0
 40
0.0098
 50
0.0000000000162844
 51
90.0
  0
LINE
  5
38AB9
  8
0
 10
6990.3211625115900461
 20
318.3184910730303727
 30
0.0
 11
6990.3211625115900461
 21
320.1216406793304259
 31
0.0
  0
LINE
  5
38ABA
  8
0
 10
6991.8959656611896207
 20
318.6856624574303964
 30
0.0
 11
6991.1085640863902881
 21
318.3184910730303727
 31
0.0
  0
LINE
  5
38ABB
  8
0
 10
6991.8959656611896207
 20
318.6856624574303964
 30
0.0
 11
6991.8959656611896207
 21
320.1216406793304259
 31
0.0
  0
LINE
  5
38ABC
  8
0
 10
6990.3211625115900461
 20
320.1216406793304259
 30
0.0
 11
6990.486516842290257
 21
320.2869950100304095
 31
0.0
  0
LINE
  5
38ABD
  8
0
 10
6990.5577927335889399
 20
320.1216406793304259
 30
0.0
 11
6990.6262847399902967
 21
320.2869950100304095
 31
0.0
  0
LINE
  5
38ABE
  8
0
 10
6990.5577927335889399
 20
320.1216406793304259
 30
0.0
 11
6990.5577927335889399
 21
318.3184910730303727
 31
0.0
  0
LINE
  5
38ABF
  8
0
 10
6991.659335439089773
 20
320.1216406793304259
 30
0.0
 11
6991.5908434326911447
 21
320.2869950100304095
 31
0.0
  0
LINE
  5
38AC0
  8
0
 10
6991.659335439089773
 20
320.1216406793304259
 30
0.0
 11
6991.659335439089773
 21
318.5753199727059837
 31
0.0
  0
LINE
  5
38AC1
  8
0
 10
6991.8959656611896207
 20
320.1216406793304259
 30
0.0
 11
6991.7306113304903192
 21
320.2869950100304095
 31
0.0
  0
ARC
  5
38AC2
  8
0
 10
6992.0241180574821556
 20
317.8072026807611223
 30
0.0
 40
1.6437676341389169
 50
161.8776830741585968
 51
164.1734963552121087
  0
ARC
  5
38AC3
  8
0
 10
6988.1767440551629988
 20
317.1762141646385089
 30
0.0
 40
3.7617796410739821
 50
16.672946869865271
 51
21.8748522657711391
  0
ARC
  5
38AC4
  8
0
 10
6991.8979341651456707
 20
319.1432942225746956
 30
0.0
 40
0.0019685039556947
 50
22.993129929921281
 51
179.999998378822113
  0
ARC
  5
38AC5
  8
0
 10
6991.6242301489419333
 20
319.0271524904168245
 30
0.0
 40
0.2992945714894613
 50
337.006870063302074
 51
22.993129929921281
  0
ARC
  5
38AC6
  8
0
 10
6991.8979341651365758
 20
318.9110107582238243
 30
0.0
 40
0.0019685039485504
 50
180.0000027175408093
 51
337.006870063302074
  0
LINE
  5
38AC7
  8
0
 10
6991.8997462748029648
 20
319.144063161070676
 30
0.0
 11
6991.8997462748029648
 21
318.9102418197629731
 31
0.0
  0
ENDSEC
  0
EOF
