  0
SECTION
  2
HEADER
  9
$ACADVER
  1
AC1009
  9
$INSBASE
 10
6596.359737876872714
 20
223.0048907564618901
 30
0.0
  9
$EXTMIN
 10
6588.9636270133751168
 20
221.5285128036618119
 30
0.0
  9
$EXTMAX
 10
6596.3717910424957154
 20
224.4812687092617978
 30
0.0
  9
$LIMMIN
 10
0.0
 20
0.0
  9
$LIMMAX
 10
11.6929133858000007
 20
8.2677165353999982
  9
$ORTHOMODE
 70
     0
  9
$REGENMODE
 70
     1
  9
$FILLMODE
 70
     1
  9
$QTEXTMODE
 70
     0
  9
$MIRRTEXT
 70
     0
  9
$DRAGMODE
 70
     2
  9
$LTSCALE
 40
0.6431102362
  9
$OSMODE
 70
  4095
  9
$ATTMODE
 70
     1
  9
$TEXTSIZE
 40
0.2
  9
$TRACEWID
 40
0.05
  9
$TEXTSTYLE
  7
STANDARD
  9
$CLAYER
  8
0
  9
$CELTYPE
  6
BYLAYER
  9
$CECOLOR
 62
   256
  9
$DIMSCALE
 40
1.0
  9
$DIMASZ
 40
0.1875
  9
$DIMEXO
 40
0.0625
  9
$DIMDLI
 40
0.4443307087
  9
$DIMRND
 40
0.0
  9
$DIMDLE
 40
0.0
  9
$DIMEXE
 40
0.125
  9
$DIMTP
 40
0.01
  9
$DIMTM
 40
0.01
  9
$DIMTXT
 40
2.0
  9
$DIMCEN
 40
0.1052362205
  9
$DIMTSZ
 40
0.0
  9
$DIMTOL
 70
     1
  9
$DIMLIM
 70
     0
  9
$DIMTIH
 70
     1
  9
$DIMTOH
 70
     1
  9
$DIMSE1
 70
     0
  9
$DIMSE2
 70
     0
  9
$DIMTAD
 70
     0
  9
$DIMZIN
 70
     0
  9
$DIMBLK
  1

  9
$DIMASO
 70
     1
  9
$DIMSHO
 70
     1
  9
$DIMPOST
  1
\X
  9
$DIMAPOST
  1

  9
$DIMALT
 70
     1
  9
$DIMALTD
 70
     2
  9
$DIMALTF
 40
25.3999999999999986
  9
$DIMLFAC
 40
1.0
  9
$DIMTOFL
 70
     0
  9
$DIMTVP
 40
0.0
  9
$DIMTIX
 70
     0
  9
$DIMSOXD
 70
     0
  9
$DIMSAH
 70
     0
  9
$DIMBLK1
  1

  9
$DIMBLK2
  1

  9
$DIMSTYLE
  2
STANDARD
  9
$DIMCLRD
 70
     0
  9
$DIMCLRE
 70
     0
  9
$DIMCLRT
 70
     0
  9
$DIMTFAC
 40
1.0
  9
$DIMGAP
 40
0.09
  9
$LUNITS
 70
     2
  9
$LUPREC
 70
     4
  9
$SKETCHINC
 40
0.1
  9
$FILLETRAD
 40
0.0
  9
$AUNITS
 70
     0
  9
$AUPREC
 70
     0
  9
$MENU
  1
.
  9
$ELEVATION
 40
0.0
  9
$PELEVATION
 40
0.0
  9
$THICKNESS
 40
0.0
  9
$LIMCHECK
 70
     0
  9
$BLIPMODE
 70
     0
  9
$CHAMFERA
 40
0.0
  9
$CHAMFERB
 40
0.0
  9
$SKPOLY
 70
     0
  9
$TDCREATE
 40
2458060.468368056230247
  9
$TDUPDATE
 40
2460544.4518287042155862
  9
$TDINDWG
 40
0.9512454861
  9
$TDUSRTIMER
 40
0.9512454861
  9
$USRTIMER
 70
     1
  9
$ANGBASE
 50
0.0
  9
$ANGDIR
 70
     0
  9
$PDMODE
 70
     0
  9
$PDSIZE
 40
0.3125
  9
$PLINEWID
 40
0.0
  9
$COORDS
 70
     0
  9
$SPLFRAME
 70
     0
  9
$SPLINETYPE
 70
     6
  9
$SPLINESEGS
 70
     8
  9
$ATTDIA
 70
     1
  9
$ATTREQ
 70
     1
  9
$HANDLING
 70
     1
  9
$HANDSEED
  5
2F9C0
  9
$SURFTAB1
 70
     6
  9
$SURFTAB2
 70
     6
  9
$SURFTYPE
 70
     6
  9
$SURFU
 70
     6
  9
$SURFV
 70
     6
  9
$UCSNAME
  2

  9
$UCSORG
 10
0.0
 20
0.0
 30
0.0
  9
$UCSXDIR
 10
1.0
 20
0.0
 30
0.0
  9
$UCSYDIR
 10
0.0
 20
1.0
 30
0.0
  9
$PUCSNAME
  2

  9
$PUCSORG
 10
0.0
 20
0.0
 30
0.0
  9
$PUCSXDIR
 10
1.0
 20
0.0
 30
0.0
  9
$PUCSYDIR
 10
0.0
 20
1.0
 30
0.0
  9
$USERI1
 70
     0
  9
$USERI2
 70
     0
  9
$USERI3
 70
     0
  9
$USERI4
 70
     0
  9
$USERI5
 70
     0
  9
$USERR1
 40
0.0
  9
$USERR2
 40
0.0
  9
$USERR3
 40
0.0
  9
$USERR4
 40
0.0
  9
$USERR5
 40
0.0
  9
$WORLDVIEW
 70
     1
  9
$SHADEDGE
 70
     3
  9
$SHADEDIF
 70
    70
  9
$TILEMODE
 70
     1
  9
$MAXACTVP
 70
    64
  9
$PLIMCHECK
 70
     0
  9
$PEXTMIN
 10
1.0000000000000000E+20
 20
1.0000000000000000E+20
 30
1.0000000000000000E+20
  9
$PEXTMAX
 10
-1.0000000000000000E+20
 20
-1.0000000000000000E+20
 30
-1.0000000000000000E+20
  9
$PLIMMIN
 10
0.0
 20
0.0
  9
$PLIMMAX
 10
12.0
 20
9.0
  9
$UNITMODE
 70
     0
  9
$VISRETAIN
 70
     1
  9
$PLINEGEN
 70
     0
  9
$PSLTSCALE
 70
     1
  0
ENDSEC
  0
SECTION
  2
TABLES
  0
TABLE
  2
VPORT
 70
     1
  0
VPORT
  2
*ACTIVE
 70
     0
 10
0.0
 20
0.0
 11
1.0
 21
1.0
 12
2681.3023525826229161
 22
90.4252856539227707
 13
0.0
 23
0.0
 14
1.0
 24
1.0
 15
0.0
 25
0.0
 16
0.0
 26
0.0
 36
60.4960186965801583
 17
3911.3653564453120453
 27
132.5796051025390057
 37
0.0
 40
3.3142362463413049
 41
2.2423167848699759
 42
50.0
 43
0.0
 44
0.0
 50
0.0
 51
0.0
 71
     0
 72
   100
 73
     1
 74
     1
 75
     0
 76
     0
 77
     0
 78
     0
  0
ENDTAB
  0
TABLE
  2
LTYPE
 70
     2
  0
LTYPE
  2
CONTINUOUS
 70
     0
  3
Solid line
 72
    65
 73
     0
 40
0.0
  0
LTYPE
  2
PHANTOM2
 70
     0
  3
___ _ _ ___ _ _ ___ _ _ ___ _ _
 72
    65
 73
     6
 40
1.25
 49
0.625
 49
-0.125
 49
0.125
 49
-0.125
 49
0.125
 49
-0.125
  0
ENDTAB
  0
TABLE
  2
LAYER
 70
     2
  0
LAYER
  2
0
 70
     0
 62
   255
  6
CONTINUOUS
  0
LAYER
  2
DEFPOINTS
 70
     0
 62
     7
  6
CONTINUOUS
  0
ENDTAB
  0
TABLE
  2
STYLE
 70
     1
  0
STYLE
  2
STANDARD
 70
     0
 40
0.0
 41
0.8
 50
0.0
 71
     0
 42
0.2
  3
txt
  4

  0
ENDTAB
  0
TABLE
  2
VIEW
 70
     0
  0
ENDTAB
  0
TABLE
  2
UCS
 70
     0
  0
ENDTAB
  0
TABLE
  2
APPID
 70
    11
  0
APPID
  2
ACAD
 70
     0
  0
APPID
  2
ACAD_MLEADERVER
 70
     0
  0
APPID
  2
ACAD_EXEMPT_FROM_CAD_STANDARDS
 70
     0
  0
APPID
  2
ACAD_NAV_VCDISPLAY
 70
     0
  0
APPID
  2
ACAECLAYERSTANDARD
 70
     0
  0
APPID
  2
ACCMTRANSPARENCY
 70
     0
  0
APPID
  2
ACAD_DSTYLE_DIMJAG
 70
     0
  0
APPID
  2
ACAD_DSTYLE_DIMTALN
 70
     0
  0
APPID
  2
ACDBATTR
 70
     0
  0
APPID
  2
ACADANNOTATIVE
 70
     0
  0
APPID
  2
DCO15
 70
     0
  0
ENDTAB
  0
TABLE
  2
DIMSTYLE
 70
     1
  0
DIMSTYLE
  2
STANDARD
 70
     0
  3

  4

  5

  6

  7

 40
1.0
 41
0.1875
 42
0.0625
 43
0.38
 44
0.125
 45
0.0
 46
0.0
 47
0.01
 48
0.01
140
0.15625
141
0.09
142
0.0
143
25.3999999999999986
144
1.0
145
0.0
146
1.0
147
0.09
 71
     1
 72
     0
 73
     1
 74
     1
 75
     0
 76
     0
 77
     0
 78
     4
170
     0
171
     2
172
     0
173
     0
174
     0
175
     0
176
     0
177
     0
178
     0
  0
ENDTAB
  0
ENDSEC
  0
SECTION
  2
BLOCKS
  0
BLOCK
  8
0
  2
$MODEL_SPACE
 70
     0
 10
0.0
 20
0.0
 30
0.0
  3
$MODEL_SPACE
  1

  0
ENDBLK
  5
21
  8
0
  0
BLOCK
 67
     1
  8
0
  2
$PAPER_SPACE
 70
     0
 10
0.0
 20
0.0
 30
0.0
  3
$PAPER_SPACE
  1

  0
ENDBLK
  5
1D
 67
     1
  8
0
  0
BLOCK
  8
0
  2
_FILLED
 70
     0
 10
0.0
 20
0.0
 30
0.0
  3
_FILLED
  1

  0
SOLID
  5
26C2A
  8
0
  6
BYBLOCK
 62
     0
 10
0.0
 20
0.0
 30
0.0
 11
-1.0
 21
0.1666666667
 31
0.0
 12
-1.0
 22
-0.1666666667
 32
0.0
 13
-1.0
 23
-0.1666666667
 33
0.0
  0
ENDBLK
  5
26C2B
  8
0
  6
BYBLOCK
 62
     0
  0
ENDSEC
  0
SECTION
  2
ENTITIES
  0
ATTDEF
  5
26A5B
  8
DEFPOINTS
 10
6596.3611243758259661
 20
223.0083251706373915
 30
0.0
 40
0.001
  1
P33166-GTM
  3

  2
MODELNUMBER
 70
     0
1001
ACDBATTR
1070
     0
1070
     1
  0
ATTDEF
  5
26A5C
  8
DEFPOINTS
 10
6596.360998566168746
 20
223.0066583302582899
 30
0.0
 40
0.001
  1
BEZEL
  3

  2
TRADENAME
 70
     0
1001
ACDBATTR
1070
     0
1070
     1
  0
ATTDEF
  5
26A5D
  8
DEFPOINTS
 10
6596.3611243758259661
 20
223.0049918373040896
 30
0.0
 40
0.001
  1
BATHROOM SINK FAUCET
  3

  2
PRODUCT
 70
     0
1001
ACDBATTR
1070
     0
1070
     1
  0
LINE
  5
2F775
  8
0
 10
6596.359737876872714
 20
224.4812687092617978
 30
0.0
 11
6596.359737876872714
 21
221.5285128036618119
 31
0.0
  0
LINE
  5
2F776
  8
0
 10
6596.359737876872714
 20
224.4812687092617978
 30
0.0
 11
6596.1465161522719427
 21
224.4812687092617978
 31
0.0
  0
LINE
  5
2F777
  8
0
 10
6596.0250922075738345
 20
224.3598447645628085
 30
0.0
 11
6596.0250922075738345
 21
221.6499367483608012
 31
0.0
  0
LINE
  5
2F778
  8
0
 10
6596.1408592980233152
 20
224.4789255635112966
 30
0.0
 11
6596.0274353533241083
 21
224.3655016188124023
 31
0.0
  0
ARC
  5
2F779
  8
0
 10
6596.3517378768738126
 20
224.473268709261788
 30
0.0
 40
0.008
 50
0.0
 51
90.0
  0
ARC
  5
2F77A
  8
0
 10
6596.1465161522719427
 20
224.473268709261788
 30
0.0
 40
0.008
 50
89.9999999999478888
 51
135.000000000013813
  0
ARC
  5
2F77B
  8
0
 10
6596.0330922075736453
 20
224.3598447645628085
 30
0.0
 40
0.008
 50
135.0000000000023022
 51
179.999999999980389
  0
LINE
  5
2F77C
  8
0
 10
6596.1464326586055904
 20
224.2473660138618072
 30
0.0
 11
6596.3517378768738126
 21
224.2473660138618072
 31
0.0
  0
ARC
  5
2F77D
  8
0
 10
6596.1464326586055904
 20
224.2393660138617975
 30
0.0
 40
0.008
 50
90.0
 51
112.4999999949395999
  0
ARC
  5
2F77E
  8
0
 10
6596.3517378768738126
 20
224.2393660138617975
 30
0.0
 40
0.008
 50
0.0000000000065138
 51
90.0
  0
LINE
  5
2F77F
  8
0
 10
6596.0300307401157625
 20
224.1998098981505905
 30
0.0
 11
6596.1433711911477076
 21
224.2467570501221985
 31
0.0
  0
ARC
  5
2F780
  8
0
 10
6596.0330922075736453
 20
224.1924188618901894
 30
0.0
 40
0.008
 50
112.4999999948907998
 51
180.0000000000194973
  0
LINE
  5
2F781
  8
0
 10
6596.1408592980233152
 20
224.4789255635112966
 30
0.0
 11
6596.1408592980233152
 21
221.5308559494123131
 31
0.0
  0
LINE
  5
2F782
  8
0
 10
6593.300682758673247
 20
223.8710324887618128
 30
0.0
 11
6594.9150516139734464
 21
223.8710324887618128
 31
0.0
  0
LINE
  5
2F783
  8
0
 10
6595.3361158295738278
 20
223.8710324887618128
 30
0.0
 11
6596.0250922075738345
 21
223.8710324887618128
 31
0.0
  0
LINE
  5
2F784
  8
0
 10
6595.3361158295738278
 20
223.8710324887618128
 30
0.0
 11
6595.3361158295738278
 21
222.1387490241617968
 31
0.0
  0
LINE
  5
2F785
  8
0
 10
6593.135328427973036
 20
223.7056781580618008
 30
0.0
 11
6593.135328427973036
 21
222.3041033548618088
 31
0.0
  0
LINE
  5
2F786
  8
0
 10
6594.9150516139734464
 20
223.8710324887618128
 30
0.0
 11
6595.300682758675066
 21
223.0048907564618901
 31
0.0
  0
LINE
  5
2F787
  8
0
 10
6593.135328427973036
 20
223.7056781580618008
 30
0.0
 11
6593.300682758673247
 21
223.8710324887618128
 31
0.0
  0
LINE
  5
2F788
  8
0
 10
6593.300682758673247
 20
223.8710324887618128
 30
0.0
 11
6593.300682758673247
 21
222.1387490241617968
 31
0.0
  0
LINE
  5
2F789
  8
0
 10
6590.2081278250825562
 20
223.1056221991618997
 30
0.0
 11
6593.135328427973036
 21
223.1056221991618997
 31
0.0
  0
LINE
  5
2F78A
  8
0
 10
6590.2081196113931583
 20
223.3395364257617928
 30
0.0
 11
6593.135328427973036
 21
223.3395364257617928
 31
0.0
  0
LINE
  5
2F78B
  8
0
 10
6590.2094425163913911
 20
222.6702450871619021
 30
0.0
 11
6593.135328427973036
 21
222.6702450871619021
 31
0.0
  0
LINE
  5
2F78C
  8
0
 10
6596.359737876872714
 20
221.5285128036618119
 30
0.0
 11
6596.1465161522719427
 21
221.5285128036618119
 31
0.0
  0
LINE
  5
2F78D
  8
0
 10
6596.1408592980233152
 20
221.5308559494123131
 30
0.0
 11
6596.0274353533241083
 21
221.6442798941112926
 31
0.0
  0
ARC
  5
2F78E
  8
0
 10
6596.3517378768738126
 20
221.5365128036617932
 30
0.0
 40
0.008
 50
270.0
 51
0.0
  0
ARC
  5
2F78F
  8
0
 10
6596.1465161522719427
 20
221.5365128036617932
 30
0.0
 40
0.008
 50
224.999999999986187
 51
270.0000000000521254
  0
ARC
  5
2F790
  8
0
 10
6596.0330922075736453
 20
221.6499367483608012
 30
0.0
 40
0.008
 50
180.0000000000194973
 51
224.9999999999976978
  0
LINE
  5
2F791
  8
0
 10
6596.1464326586055904
 20
221.7624154990618024
 30
0.0
 11
6596.3517378768738126
 21
221.7624154990618024
 31
0.0
  0
ARC
  5
2F792
  8
0
 10
6596.1464326586055904
 20
221.7704154990618122
 30
0.0
 40
0.008
 50
247.5000000050604001
 51
270.0
  0
ARC
  5
2F793
  8
0
 10
6596.3517378768738126
 20
221.7704154990618122
 30
0.0
 40
0.008
 50
270.0
 51
359.9999999999935199
  0
LINE
  5
2F794
  8
0
 10
6596.0300307401157625
 20
221.8099716147729907
 30
0.0
 11
6596.1433711911477076
 21
221.7630244628014964
 31
0.0
  0
ARC
  5
2F795
  8
0
 10
6596.0330922075736453
 20
221.8173626510333918
 30
0.0
 40
0.008
 50
179.999999999980389
 51
247.5000000051092002
  0
LINE
  5
2F796
  8
0
 10
6593.300682758673247
 20
222.1387490241617968
 30
0.0
 11
6595.300682758675066
 21
222.1387490241617968
 31
0.0
  0
LINE
  5
2F797
  8
0
 10
6595.3361158295738278
 20
222.1387490241617968
 30
0.0
 11
6596.0250922075738345
 21
222.1387490241617968
 31
0.0
  0
LINE
  5
2F798
  8
0
 10
6593.135328427973036
 20
222.3041033548618088
 30
0.0
 11
6593.300682758673247
 21
222.1387490241617968
 31
0.0
  0
LINE
  5
2F799
  8
0
 10
6590.2113395584892714
 20
222.9041593137617951
 30
0.0
 11
6593.135328427973036
 21
222.9041593137617951
 31
0.0
  0
LINE
  5
2F79A
  8
0
 10
6595.300682758675066
 20
223.0048907564618901
 30
0.0
 11
6595.300682758675066
 21
222.1387490241617968
 31
0.0
  0
ARC
  5
2F79B
  8
0
 10
6595.7020381926740811
 20
222.2205895328619079
 30
0.0
 40
1.5748031495999839
 50
103.4360960054748944
 51
115.733992891633406
  0
ARC
  5
2F79C
  8
0
 10
6595.7020381926740811
 20
223.789191980061787
 30
0.0
 40
1.5748031495999839
 50
255.2346688337781018
 51
256.5639039945251056
  0
ARC
  5
2F79D
  8
0
 10
6594.6313914201737134
 20
222.4104845884617987
 30
0.0
 40
0.2992946193999999
 50
247.0367366982007979
 51
292.9632633017990884
  0
ARC
  5
2F79E
  8
0
 10
6594.747378193392251
 20
222.1367490241617872
 30
0.0
 40
0.002
 50
292.9632633017434955
 51
90.0
  0
ARC
  5
2F79F
  8
0
 10
6594.5154046469551758
 20
222.1367490241617872
 30
0.0
 40
0.002
 50
90.0
 51
247.0367366981458019
  0
LINE
  5
2F7A0
  8
0
 10
6588.9636270133751168
 20
222.3848120162618045
 30
0.0
 11
6589.1681963064656884
 21
222.7391364256515089
 31
0.0
  0
LINE
  5
2F7A1
  8
0
 10
6589.1662026758940556
 20
222.2678549029971009
 30
0.0
 11
6589.3707678621130981
 21
222.6221721990729918
 31
0.0
  0
LINE
  5
2F7A2
  8
0
 10
6589.340674652553389
 20
222.1671234603265077
 30
0.0
 11
6589.5436339721782133
 21
222.5186593137725879
 31
0.0
  0
LINE
  5
2F7A3
  8
0
 10
6589.5432503150741468
 20
222.0501663470618041
 30
0.0
 11
6589.747158155912075
 21
222.403345087267212
 31
0.0
  0
LINE
  5
2F7A4
  8
0
 10
6589.5432503150741468
 20
222.0501663470618041
 30
0.0
 11
6588.9636270133751168
 21
222.3848120162618045
 31
0.0
  0
ARC
  5
2F7A5
  8
0
 10
6590.2081196113931583
 20
222.138736425761806
 30
0.0
 40
1.2008000000000001
 50
90.0
 51
150.0000000060834964
  0
ARC
  5
2F7A6
  8
0
 10
6590.2081278250825562
 20
222.1387221991618048
 30
0.0
 40
0.9669
 50
90.0
 51
150.0000000060834964
  0
ARC
  5
2F7A7
  8
0
 10
6590.2113395584892714
 20
222.1331593137618086
 30
0.0
 40
0.771
 50
90.0
 51
149.9999999990859862
  0
ARC
  5
2F7A8
  8
0
 10
6590.2094425163913911
 20
222.1364450871618033
 30
0.0
 40
0.5338000000000001
 50
90.0
 51
149.9999999869426972
  0
LINE
  5
2F7A9
  8
0
 10
6589.3639146056802929
 20
222.133248574171887
 30
0.0
 11
6589.1354748338562786
 21
222.2651383378309049
 31
0.0
  0
LINE
  5
2F7AA
  8
0
 10
6589.1443331015543663
 20
222.2804813076272126
 30
0.0
 11
6589.1354748338562786
 21
222.2651383378309049
 31
0.0
  0
LINE
  5
2F7AB
  8
0
 10
6589.3727728733911135
 20
222.1485915438896939
 30
0.0
 11
6589.3639146056802929
 21
222.133248574171887
 31
0.0
  0
LINE
  5
2F7AD
  8
0
 10
6593.300682758673247
 20
223.6344022666617946
 30
0.0
 11
6595.0204061766471568
 21
223.6344022666617946
 31
0.0
  0
LINE
  5
2F7AE
  8
0
 10
6595.3361158295738278
 20
223.6344022666617946
 30
0.0
 11
6596.0250922075738345
 21
223.6344022666617946
 31
0.0
  0
LINE
  5
2F7AF
  8
0
 10
6593.135328427973036
 20
223.5659102603617896
 30
0.0
 11
6593.300682758673247
 21
223.6344022666617946
 31
0.0
  0
LINE
  5
2F7B0
  8
0
 10
6593.300682758673247
 20
222.3753792462617866
 30
0.0
 11
6595.300682758675066
 21
222.3753792462617866
 31
0.0
  0
LINE
  5
2F7B1
  8
0
 10
6595.3361158295738278
 20
222.3753792462617866
 30
0.0
 11
6596.0250922075738345
 21
222.3753792462617866
 31
0.0
  0
LINE
  5
2F7B2
  8
0
 10
6593.135328427973036
 20
222.4438712525619053
 30
0.0
 11
6593.300682758673247
 21
222.3753792462617866
 31
0.0
  0
ENDSEC
  0
EOF
