  0
SECTION
  2
HEADER
  9
$ACADVER
  1
AC1009
  9
$INSBASE
 10
4176.6783034167892765
 20
150.4609215750188866
 30
0.0
  9
$EXTMIN
 10
4171.2449177649359626
 20
143.0835788209795965
 30
-0.0000000349181948
  9
$EXTMAX
 10
4182.0929063239263996
 20
150.4767735922982013
 30
0.0000000814935746
  9
$LIMMIN
 10
0.0
 20
0.0
  9
$LIMMAX
 10
11.6929133858000007
 20
8.2677165353999982
  9
$ORTHOMODE
 70
     0
  9
$REGENMODE
 70
     1
  9
$FILLMODE
 70
     1
  9
$QTEXTMODE
 70
     0
  9
$MIRRTEXT
 70
     0
  9
$DRAGMODE
 70
     2
  9
$LTSCALE
 40
0.6431102362
  9
$OSMODE
 70
  4095
  9
$ATTMODE
 70
     1
  9
$TEXTSIZE
 40
0.2
  9
$TRACEWID
 40
0.05
  9
$TEXTSTYLE
  7
STANDARD
  9
$CLAYER
  8
0
  9
$CELTYPE
  6
BYLAYER
  9
$CECOLOR
 62
   256
  9
$DIMSCALE
 40
1.0
  9
$DIMASZ
 40
0.1875
  9
$DIMEXO
 40
0.0625
  9
$DIMDLI
 40
0.4443307087
  9
$DIMRND
 40
0.0
  9
$DIMDLE
 40
0.0
  9
$DIMEXE
 40
0.125
  9
$DIMTP
 40
0.01
  9
$DIMTM
 40
0.01
  9
$DIMTXT
 40
2.0
  9
$DIMCEN
 40
0.1052362205
  9
$DIMTSZ
 40
0.0
  9
$DIMTOL
 70
     1
  9
$DIMLIM
 70
     0
  9
$DIMTIH
 70
     1
  9
$DIMTOH
 70
     1
  9
$DIMSE1
 70
     0
  9
$DIMSE2
 70
     0
  9
$DIMTAD
 70
     0
  9
$DIMZIN
 70
     0
  9
$DIMBLK
  1

  9
$DIMASO
 70
     1
  9
$DIMSHO
 70
     1
  9
$DIMPOST
  1
\X
  9
$DIMAPOST
  1

  9
$DIMALT
 70
     1
  9
$DIMALTD
 70
     2
  9
$DIMALTF
 40
25.3999999999999986
  9
$DIMLFAC
 40
1.0
  9
$DIMTOFL
 70
     0
  9
$DIMTVP
 40
0.0
  9
$DIMTIX
 70
     0
  9
$DIMSOXD
 70
     0
  9
$DIMSAH
 70
     0
  9
$DIMBLK1
  1

  9
$DIMBLK2
  1

  9
$DIMSTYLE
  2
STANDARD
  9
$DIMCLRD
 70
     0
  9
$DIMCLRE
 70
     0
  9
$DIMCLRT
 70
     0
  9
$DIMTFAC
 40
1.0
  9
$DIMGAP
 40
0.09
  9
$LUNITS
 70
     2
  9
$LUPREC
 70
     4
  9
$SKETCHINC
 40
0.1
  9
$FILLETRAD
 40
0.0
  9
$AUNITS
 70
     0
  9
$AUPREC
 70
     0
  9
$MENU
  1
.
  9
$ELEVATION
 40
0.0
  9
$PELEVATION
 40
0.0
  9
$THICKNESS
 40
0.0
  9
$LIMCHECK
 70
     0
  9
$BLIPMODE
 70
     0
  9
$CHAMFERA
 40
0.0
  9
$CHAMFERB
 40
0.0
  9
$SKPOLY
 70
     0
  9
$TDCREATE
 40
2458060.468368056230247
  9
$TDUPDATE
 40
2460543.4253819449804723
  9
$TDINDWG
 40
0.4436413194
  9
$TDUSRTIMER
 40
0.4436413194
  9
$USRTIMER
 70
     1
  9
$ANGBASE
 50
0.0
  9
$ANGDIR
 70
     0
  9
$PDMODE
 70
     0
  9
$PDSIZE
 40
0.3125
  9
$PLINEWID
 40
0.0
  9
$COORDS
 70
     1
  9
$SPLFRAME
 70
     0
  9
$SPLINETYPE
 70
     6
  9
$SPLINESEGS
 70
     8
  9
$ATTDIA
 70
     1
  9
$ATTREQ
 70
     1
  9
$HANDLING
 70
     1
  9
$HANDSEED
  5
158D5
  9
$SURFTAB1
 70
     6
  9
$SURFTAB2
 70
     6
  9
$SURFTYPE
 70
     6
  9
$SURFU
 70
     6
  9
$SURFV
 70
     6
  9
$UCSNAME
  2

  9
$UCSORG
 10
0.0
 20
0.0
 30
0.0
  9
$UCSXDIR
 10
1.0
 20
0.0
 30
0.0
  9
$UCSYDIR
 10
0.0
 20
1.0
 30
0.0
  9
$PUCSNAME
  2

  9
$PUCSORG
 10
0.0
 20
0.0
 30
0.0
  9
$PUCSXDIR
 10
1.0
 20
0.0
 30
0.0
  9
$PUCSYDIR
 10
0.0
 20
1.0
 30
0.0
  9
$USERI1
 70
     0
  9
$USERI2
 70
     0
  9
$USERI3
 70
     0
  9
$USERI4
 70
     0
  9
$USERI5
 70
     0
  9
$USERR1
 40
0.0
  9
$USERR2
 40
0.0
  9
$USERR3
 40
0.0
  9
$USERR4
 40
0.0
  9
$USERR5
 40
0.0
  9
$WORLDVIEW
 70
     1
  9
$SHADEDGE
 70
     3
  9
$SHADEDIF
 70
    70
  9
$TILEMODE
 70
     1
  9
$MAXACTVP
 70
    64
  9
$PLIMCHECK
 70
     0
  9
$PEXTMIN
 10
1.0000000000000000E+20
 20
1.0000000000000000E+20
 30
1.0000000000000000E+20
  9
$PEXTMAX
 10
-1.0000000000000000E+20
 20
-1.0000000000000000E+20
 30
-1.0000000000000000E+20
  9
$PLIMMIN
 10
0.0
 20
0.0
  9
$PLIMMAX
 10
12.0
 20
9.0
  9
$UNITMODE
 70
     0
  9
$VISRETAIN
 70
     1
  9
$PLINEGEN
 70
     0
  9
$PSLTSCALE
 70
     1
  0
ENDSEC
  0
SECTION
  2
TABLES
  0
TABLE
  2
VPORT
 70
     1
  0
VPORT
  2
*ACTIVE
 70
     0
 10
0.0
 20
0.0
 11
1.0
 21
1.0
 12
265.3035555991182264
 22
14.2005711040998808
 13
0.0
 23
0.0
 14
1.0
 24
1.0
 15
0.0
 25
0.0
 16
0.0
 26
0.0
 36
60.4960186965801583
 17
3911.3653564453120453
 27
132.5796051025390057
 37
0.0
 40
7.4441237823724364
 41
2.1827586206896541
 42
50.0
 43
0.0
 44
0.0
 50
0.0
 51
0.0
 71
     0
 72
   100
 73
     1
 74
     1
 75
     0
 76
     0
 77
     0
 78
     0
  0
ENDTAB
  0
TABLE
  2
LTYPE
 70
     2
  0
LTYPE
  2
CONTINUOUS
 70
     0
  3
Solid line
 72
    65
 73
     0
 40
0.0
  0
LTYPE
  2
PHANTOM2
 70
     0
  3
___ _ _ ___ _ _ ___ _ _ ___ _ _
 72
    65
 73
     6
 40
1.25
 49
0.625
 49
-0.125
 49
0.125
 49
-0.125
 49
0.125
 49
-0.125
  0
ENDTAB
  0
TABLE
  2
LAYER
 70
     2
  0
LAYER
  2
0
 70
     0
 62
   255
  6
CONTINUOUS
  0
LAYER
  2
DEFPOINTS
 70
     0
 62
     7
  6
CONTINUOUS
  0
ENDTAB
  0
TABLE
  2
STYLE
 70
     1
  0
STYLE
  2
STANDARD
 70
     0
 40
0.0
 41
0.8
 50
0.0
 71
     0
 42
0.2
  3
txt
  4

  0
ENDTAB
  0
TABLE
  2
VIEW
 70
     0
  0
ENDTAB
  0
TABLE
  2
UCS
 70
     0
  0
ENDTAB
  0
TABLE
  2
APPID
 70
    10
  0
APPID
  2
ACAD
 70
     0
  0
APPID
  2
ACAD_MLEADERVER
 70
     0
  0
APPID
  2
ACAD_EXEMPT_FROM_CAD_STANDARDS
 70
     0
  0
APPID
  2
ACAD_NAV_VCDISPLAY
 70
     0
  0
APPID
  2
ACAECLAYERSTANDARD
 70
     0
  0
APPID
  2
ACCMTRANSPARENCY
 70
     0
  0
APPID
  2
ACAD_DSTYLE_DIMJAG
 70
     0
  0
APPID
  2
ACAD_DSTYLE_DIMTALN
 70
     0
  0
APPID
  2
ACDBATTR
 70
     0
  0
APPID
  2
ACADANNOTATIVE
 70
     0
  0
ENDTAB
  0
TABLE
  2
DIMSTYLE
 70
     1
  0
DIMSTYLE
  2
STANDARD
 70
     0
  3

  4

  5

  6

  7

 40
1.0
 41
0.1875
 42
0.0625
 43
0.38
 44
0.125
 45
0.0
 46
0.0
 47
0.01
 48
0.01
140
0.15625
141
0.09
142
0.0
143
25.3999999999999986
144
1.0
145
0.0
146
1.0
147
0.09
 71
     1
 72
     0
 73
     1
 74
     1
 75
     0
 76
     0
 77
     0
 78
     4
170
     0
171
     2
172
     0
173
     0
174
     0
175
     0
176
     0
177
     0
178
     0
  0
ENDTAB
  0
ENDSEC
  0
SECTION
  2
BLOCKS
  0
BLOCK
  8
0
  2
$MODEL_SPACE
 70
     0
 10
0.0
 20
0.0
 30
0.0
  3
$MODEL_SPACE
  1

  0
ENDBLK
  5
21
  8
0
  0
BLOCK
 67
     1
  8
0
  2
$PAPER_SPACE
 70
     0
 10
0.0
 20
0.0
 30
0.0
  3
$PAPER_SPACE
  1

  0
ENDBLK
  5
1D
 67
     1
  8
0
  0
ENDSEC
  0
SECTION
  2
ENTITIES
  0
ATTDEF
  5
14D1C
  8
DEFPOINTS
 10
4176.6755228075553532
 20
150.4647858684072048
 30
0.0
 40
0.001
  1
P33168-GTM
  3

  2
MODELNUMBER
 70
     0
1001
ACDBATTR
1070
     0
1070
     1
  0
ATTDEF
  5
14D1D
  8
DEFPOINTS
 10
4176.6753969978990426
 20
150.4631190280279895
 30
0.0
 40
0.001
  1
BEZEL
  3

  2
TRADENAME
 70
     0
1001
ACDBATTR
1070
     0
1070
     1
  0
ATTDEF
  5
14D1E
  8
DEFPOINTS
 10
4176.6755228075553532
 20
150.4614525350739029
 30
0.0
 40
0.001
  1
BATHROOM SINK FAUCET
  3

  2
PRODUCT
 70
     0
1001
ACDBATTR
1070
     0
1070
     1
  0
LINE
  5
15760
  8
0
 10
4175.4972010545880039
 20
150.4609215750188866
 30
0.0
 11
4177.8594057789878207
 21
150.4609215750188866
 31
0.0
  0
LINE
  5
15761
  8
0
 10
4175.6625553852891244
 20
150.1459609451187873
 30
0.0
 11
4177.6940514483885636
 21
150.1459609451187873
 31
0.0
  0
LINE
  5
15762
  8
0
 10
4175.8987758576877241
 20
150.1262759057188987
 30
0.0
 11
4177.458704991589002
 21
150.1262759057188987
 31
0.0
  0
LINE
  5
15763
  8
0
 10
4177.8594057789878207
 20
150.3113152758189131
 30
0.0
 11
4177.8594057789878207
 21
150.4609215750188866
 31
0.0
  0
LINE
  5
15764
  8
0
 10
4177.6940514482876097
 20
150.145960945118901
 30
0.0
 11
4177.8594057789878207
 21
150.3113152758189131
 31
0.0
  0
LINE
  5
15765
  8
0
 10
4177.6231853064891766
 20
150.4609215750188866
 30
0.0
 11
4177.6231853064891766
 21
150.3113152758189131
 31
0.0
  0
LINE
  5
15766
  8
0
 10
4177.6231853064891766
 20
150.3113152758189131
 30
0.0
 11
4177.5546933000887293
 21
150.145960945118901
 31
0.0
  0
LINE
  5
15767
  8
0
 10
4177.3475947553888545
 20
150.1262759057688925
 30
0.0
 11
4177.3475947553888545
 21
150.1459609450689072
 31
0.0
  0
LINE
  5
15768
  8
0
 10
4177.4657049915886091
 20
150.1192759057188937
 30
0.0
 11
4177.4657049915886091
 21
143.2918932437183059
 31
0.0
  0
ARC
  5
15769
  8
0
 10
4177.458704991589002
 20
150.1192759057188937
 30
0.0
 40
0.007
 50
0.0
 51
90.0
  0
LINE
  5
1576A
  8
0
 10
4177.463494775081017
 20
143.2871545773257935
 30
0.0
 11
4177.2317907649876361
 21
143.0864930184187926
 31
0.0
  0
ARC
  5
1576B
  8
0
 10
4177.4593049915893062
 20
143.2919925225801876
 30
0.0
 40
0.0064
 50
310.8933946502659182
 51
0.0
  0
ARC
  5
1576C
  8
0
 10
4177.2262545898565804
 20
143.0931260471450059
 30
0.0
 40
0.0086398093247763
 50
272.688972791440392
 51
309.8496449281773835
  0
LINE
  5
1576D
  8
0
 10
4177.2317945702534416
 20
143.0864963138743917
 30
0.0
 11
4177.2317945702534416
 21
150.1228960261547059
 31
0.0
  0
ARC
  5
1576E
  8
0
 10
4177.2280450856724201
 20
150.1226430584947025
 30
0.0
 40
0.0037580084171283
 50
3.8597432270969581
 51
75.1711870794029835
  0
LINE
  5
1576F
  8
0
 10
4180.615311290788668
 20
150.4609215750188866
 30
0.0
 11
4181.7964136529881216
 21
150.4609215750188866
 31
0.0
  0
LINE
  5
15770
  8
0
 10
4180.615311290788668
 20
150.1459609451187873
 30
0.0
 11
4181.6310593223888645
 21
150.1459609451187873
 31
0.0
  0
LINE
  5
15771
  8
0
 10
4180.615311290788668
 20
150.1380869294187903
 30
0.0
 11
4181.4027128655889101
 21
150.1380869294187903
 31
0.0
  0
LINE
  5
15772
  8
0
 10
4181.7964136529881216
 20
150.3113152758189131
 30
0.0
 11
4181.7964136529881216
 21
150.4609215750188866
 31
0.0
  0
LINE
  5
15773
  8
0
 10
4181.6310593222879106
 20
150.1459609451187873
 30
0.0
 11
4181.7964136529881216
 21
150.3113152758189131
 31
0.0
  0
LINE
  5
15774
  8
0
 10
4181.5601931804876585
 20
150.4609215750188866
 30
0.0
 11
4181.5601931804876585
 21
150.3113152758189131
 31
0.0
  0
LINE
  5
15775
  8
0
 10
4181.5601931804876585
 20
150.3113152758189131
 30
0.0
 11
4181.4917011740881208
 21
150.1459609451187873
 31
0.0
  0
LINE
  5
15776
  8
0
 10
4181.3042876686877207
 20
150.1380869294187903
 30
0.0
 11
4181.3042876686877207
 21
150.1459609450689072
 31
0.0
  0
LINE
  5
15777
  8
0
 10
4181.4027128655889101
 20
150.1380869294187903
 30
0.0
 11
4181.4027128655889101
 21
149.1105278742188887
 31
0.0
  0
LINE
  5
15778
  8
0
 10
4181.4027128655889101
 20
149.0711577955189
 30
0.0
 11
4181.4027128655889101
 21
147.0908428349187886
 31
0.0
  0
LINE
  5
15779
  8
0
 10
4181.4027128655889101
 20
147.0908428349187886
 30
0.0
 11
4181.2373585348886991
 21
146.9254885042188903
 31
0.0
  0
LINE
  5
1577A
  8
0
 10
4181.1664923931875819
 20
147.0908428349187886
 30
0.0
 11
4181.1664923931875819
 21
149.0711577955187863
 31
0.0
  0
LINE
  5
1577B
  8
0
 10
4181.1688024442528331
 20
149.1105278742188887
 30
0.0
 11
4181.1688024442528331
 21
150.1380869294187903
 31
0.0
  0
LINE
  5
1577C
  8
0
 10
4181.2373585348886991
 20
146.9254885042188903
 30
0.0
 11
4179.9932640466886369
 21
146.9254885042188903
 31
0.0
  0
LINE
  5
1577D
  8
0
 10
4181.4027128655889101
 20
147.0908428349187886
 30
0.0
 11
4180.615311290788668
 21
147.0908428349187886
 31
0.0
  0
LINE
  5
1577E
  8
0
 10
4181.4027128655889101
 20
149.1105278742188887
 30
0.0
 11
4179.8279097159884259
 21
149.1105278742188887
 31
0.0
  0
LINE
  5
1577F
  8
0
 10
4181.4027128655889101
 20
149.0711577955189
 30
0.0
 11
4179.8279097159884259
 21
149.0711577955187863
 31
0.0
  0
LINE
  5
15780
  8
0
 10
4181.343657747488578
 20
149.0711577955189
 30
0.0
 11
4181.343657747488578
 21
149.0908428349187886
 31
0.0
  0
LINE
  5
15781
  8
0
 10
4181.343657747488578
 20
149.0908428349187886
 30
0.0
 11
4179.8869648340878484
 21
149.0908428349187886
 31
0.0
  0
LINE
  5
15782
  8
0
 10
4181.1664923931875819
 20
147.0908428349187886
 30
0.0
 11
4181.0980003867880441
 21
146.9254885042188903
 31
0.0
  0
LINE
  5
15783
  8
0
 10
4181.1664923931875819
 20
149.1105278742188887
 30
0.0
 11
4181.1664923931875819
 21
149.0908428349187886
 31
0.0
  0
LINE
  5
15784
  8
0
 10
4180.615311290788668
 20
150.4609215750188866
 30
0.0
 11
4179.4342089285892143
 21
150.4609215750188866
 31
0.0
  0
LINE
  5
15785
  8
0
 10
4180.615311290788668
 20
150.1459609451187873
 30
0.0
 11
4179.5995632591875619
 21
150.1459609451187873
 31
0.0
  0
LINE
  5
15786
  8
0
 10
4180.615311290788668
 20
150.1380869294187903
 30
0.0
 11
4179.8279097159884259
 21
150.1380869294187903
 31
0.0
  0
LINE
  5
15787
  8
0
 10
4179.4342089285892143
 20
150.3113152758189131
 30
0.0
 11
4179.4342089285892143
 21
150.4609215750188866
 31
0.0
  0
LINE
  5
15788
  8
0
 10
4179.5995632592876063
 20
150.1459609451187873
 30
0.0
 11
4179.4342089285892143
 21
150.3113152758189131
 31
0.0
  0
LINE
  5
15789
  8
0
 10
4179.6704294010878584
 20
150.4609215750188866
 30
0.0
 11
4179.6704294010878584
 21
150.3113152758189131
 31
0.0
  0
LINE
  5
1578A
  8
0
 10
4179.6704294010878584
 20
150.3113152758189131
 30
0.0
 11
4179.7389214074892152
 21
150.1459609451187873
 31
0.0
  0
LINE
  5
1578B
  8
0
 10
4179.9263349128877962
 20
150.1380869294187903
 30
0.0
 11
4179.9263349128877962
 21
150.1459609450689072
 31
0.0
  0
LINE
  5
1578C
  8
0
 10
4179.8279097159884259
 20
150.1380869294187903
 30
0.0
 11
4179.8279097159884259
 21
149.1105278742188887
 31
0.0
  0
LINE
  5
1578D
  8
0
 10
4179.8279097159884259
 20
149.0711577955189
 30
0.0
 11
4179.8279097159884259
 21
147.0908428349187886
 31
0.0
  0
LINE
  5
1578E
  8
0
 10
4179.8279097159884259
 20
147.0908428349187886
 30
0.0
 11
4179.9932640466886369
 21
146.9254885042188903
 31
0.0
  0
LINE
  5
1578F
  8
0
 10
4180.0641301883888445
 20
147.0908428349187886
 30
0.0
 11
4180.0641301883888445
 21
149.0711577955187863
 31
0.0
  0
LINE
  5
15790
  8
0
 10
4180.0618201373235934
 20
149.1105278742188887
 30
0.0
 11
4180.0618201373235934
 21
150.1380869294187903
 31
0.0
  0
LINE
  5
15791
  8
0
 10
4179.8279097159884259
 20
147.0908428349187886
 30
0.0
 11
4180.615311290788668
 21
147.0908428349187886
 31
0.0
  0
LINE
  5
15792
  8
0
 10
4179.8869648340878484
 20
149.0711577955189
 30
0.0
 11
4179.8869648340878484
 21
149.0908428349187886
 31
0.0
  0
LINE
  5
15793
  8
0
 10
4180.0641301883888445
 20
147.0908428349187886
 30
0.0
 11
4180.1326221947892918
 21
146.9254885042188903
 31
0.0
  0
LINE
  5
15794
  8
0
 10
4180.0641301883888445
 20
149.1105278742188887
 30
0.0
 11
4180.0641301883888445
 21
149.0908428349187886
 31
0.0
  0
LINE
  5
15795
  8
0
 10
4179.4342089285892143
 20
150.3113152758189131
 30
0.0
 11
4181.7964136529881216
 21
150.3113152758189131
 31
0.0
  0
LINE
  5
15796
  8
0
 10
4175.4972010545880039
 20
150.3113152758189131
 30
0.0
 11
4175.4972010545880039
 21
150.4609215750188866
 31
0.0
  0
LINE
  5
15797
  8
0
 10
4175.6625553852891244
 20
150.145960945118901
 30
0.0
 11
4175.4972010545880039
 21
150.3113152758189131
 31
0.0
  0
LINE
  5
15798
  8
0
 10
4175.7334215270875575
 20
150.4609215750188866
 30
0.0
 11
4175.7334215270875575
 21
150.3113152758189131
 31
0.0
  0
LINE
  5
15799
  8
0
 10
4175.7334215270875575
 20
150.3113152758189131
 30
0.0
 11
4175.8019135334889143
 21
150.145960945118901
 31
0.0
  0
LINE
  5
1579A
  8
0
 10
4176.0090120781878795
 20
150.1262759057688925
 30
0.0
 11
4176.0090120781878795
 21
150.1459609450689072
 31
0.0
  0
LINE
  5
1579B
  8
0
 10
4175.8909018419890344
 20
150.1192759057188937
 30
0.0
 11
4175.8909018419890344
 21
143.2918932437183059
 31
0.0
  0
ARC
  5
1579C
  8
0
 10
4175.897901841987732
 20
150.1192759057188937
 30
0.0
 40
0.007
 50
90.0
 51
180.0
  0
LINE
  5
1579D
  8
0
 10
4175.8931120584966266
 20
143.2871545773257935
 30
0.0
 11
4176.124816068589098
 21
143.0864930184187926
 31
0.0
  0
ARC
  5
1579E
  8
0
 10
4175.8973018419892469
 20
143.2919925225801876
 30
0.0
 40
0.0064
 50
180.0
 51
229.1066053497341102
  0
ARC
  5
1579F
  8
0
 10
4176.1303522437201536
 20
143.0931260471450059
 30
0.0
 40
0.0086398093247763
 50
230.1503550718225881
 51
267.311027208559608
  0
LINE
  5
157A0
  8
0
 10
4176.1248122633232924
 20
143.0864963138743917
 30
0.0
 11
4176.1248122633232924
 21
150.1228960261547059
 31
0.0
  0
LINE
  5
157A1
  8
0
 10
4176.1299469139557914
 20
143.0844957509189044
 30
0.0
 11
4177.2266599196209427
 21
143.0844957509189044
 31
0.0
  0
ARC
  5
157A2
  8
0
 10
4176.128561747906133
 20
150.1226430584947025
 30
0.0
 40
0.0037580084171283
 50
104.8288129205970023
 51
176.1402567729030011
  0
LINE
  5
157A3
  8
0
 10
4172.7412955427880661
 20
150.4609215750188866
 30
0.0
 11
4171.560193180587703
 21
150.4609215750188866
 31
0.0
  0
LINE
  5
157A4
  8
0
 10
4172.7412955427880661
 20
150.1459609451187873
 30
0.0
 11
4171.725547511188779
 21
150.1459609451187873
 31
0.0
  0
LINE
  5
157A5
  8
0
 10
4172.7412955427880661
 20
150.1380869294187903
 30
0.0
 11
4171.953893967987824
 21
150.1380869294187903
 31
0.0
  0
LINE
  5
157A6
  8
0
 10
4171.560193180587703
 20
150.3113152758189131
 30
0.0
 11
4171.560193180587703
 21
150.4609215750188866
 31
0.0
  0
LINE
  5
157A7
  8
0
 10
4171.7255475112888234
 20
150.1459609451187873
 30
0.0
 11
4171.560193180587703
 21
150.3113152758189131
 31
0.0
  0
LINE
  5
157A8
  8
0
 10
4171.7964136530890755
 20
150.4609215750188866
 30
0.0
 11
4171.7964136530890755
 21
150.3113152758189131
 31
0.0
  0
LINE
  5
157A9
  8
0
 10
4171.7964136530890755
 20
150.3113152758189131
 30
0.0
 11
4171.8649056594877038
 21
150.1459609451187873
 31
0.0
  0
LINE
  5
157AA
  8
0
 10
4172.0523191648890133
 20
150.1380869294187903
 30
0.0
 11
4172.0523191648890133
 21
150.1459609450689072
 31
0.0
  0
LINE
  5
157AB
  8
0
 10
4171.953893967987824
 20
150.1380869294187903
 30
0.0
 11
4171.953893967987824
 21
149.1105278742188887
 31
0.0
  0
LINE
  5
157AC
  8
0
 10
4171.953893967987824
 20
149.0711577955189
 30
0.0
 11
4171.953893967987824
 21
147.0908428349187886
 31
0.0
  0
LINE
  5
157AD
  8
0
 10
4171.953893967987824
 20
147.0908428349187886
 30
0.0
 11
4172.1192482986889445
 21
146.9254885042188903
 31
0.0
  0
LINE
  5
157AE
  8
0
 10
4172.1901144403891522
 20
147.0908428349187886
 30
0.0
 11
4172.1901144403891522
 21
149.0711577955187863
 31
0.0
  0
LINE
  5
157AF
  8
0
 10
4172.1878043893248105
 20
149.1105278742188887
 30
0.0
 11
4172.1878043893248105
 21
150.1380869294187903
 31
0.0
  0
LINE
  5
157B0
  8
0
 10
4172.1192482986889445
 20
146.9254885042188903
 30
0.0
 11
4173.3633427868880972
 21
146.9254885042188903
 31
0.0
  0
LINE
  5
157B1
  8
0
 10
4171.953893967987824
 20
147.0908428349187886
 30
0.0
 11
4172.7412955427880661
 21
147.0908428349187886
 31
0.0
  0
LINE
  5
157B2
  8
0
 10
4171.953893967987824
 20
149.1105278742188887
 30
0.0
 11
4173.5286971175892177
 21
149.1105278742188887
 31
0.0
  0
LINE
  5
157B3
  8
0
 10
4171.953893967987824
 20
149.0711577955189
 30
0.0
 11
4173.5286971175892177
 21
149.0711577955187863
 31
0.0
  0
LINE
  5
157B4
  8
0
 10
4172.0129490860890655
 20
149.0711577955189
 30
0.0
 11
4172.0129490860890655
 21
149.0908428349187886
 31
0.0
  0
LINE
  5
157B5
  8
0
 10
4172.0129490860890655
 20
149.0908428349187886
 30
0.0
 11
4173.4696419994879761
 21
149.0908428349187886
 31
0.0
  0
LINE
  5
157B6
  8
0
 10
4172.1901144403891522
 20
147.0908428349187886
 30
0.0
 11
4172.2586064467886899
 21
146.9254885042188903
 31
0.0
  0
LINE
  5
157B7
  8
0
 10
4172.1901144403891522
 20
149.1105278742188887
 30
0.0
 11
4172.1901144403891522
 21
149.0908428349187886
 31
0.0
  0
LINE
  5
157B8
  8
0
 10
4172.7412955427880661
 20
150.4609215750188866
 30
0.0
 11
4173.9223979049884292
 21
150.4609215750188866
 31
0.0
  0
LINE
  5
157B9
  8
0
 10
4172.7412955427880661
 20
150.1459609451187873
 30
0.0
 11
4173.7570435743891721
 21
150.1459609451187873
 31
0.0
  0
LINE
  5
157BA
  8
0
 10
4172.7412955427880661
 20
150.1380869294187903
 30
0.0
 11
4173.5286971175892177
 21
150.1380869294187903
 31
0.0
  0
LINE
  5
157BB
  8
0
 10
4173.9223979049884292
 20
150.3113152758189131
 30
0.0
 11
4173.9223979049884292
 21
150.4609215750188866
 31
0.0
  0
LINE
  5
157BC
  8
0
 10
4173.7570435742891277
 20
150.1459609451187873
 30
0.0
 11
4173.9223979049884292
 21
150.3113152758189131
 31
0.0
  0
LINE
  5
157BD
  8
0
 10
4173.6861774324888756
 20
150.4609215750188866
 30
0.0
 11
4173.6861774324888756
 21
150.3113152758189131
 31
0.0
  0
LINE
  5
157BE
  8
0
 10
4173.6861774324888756
 20
150.3113152758189131
 30
0.0
 11
4173.6176854260884284
 21
150.1459609451187873
 31
0.0
  0
LINE
  5
157BF
  8
0
 10
4173.4302719206889378
 20
150.1380869294187903
 30
0.0
 11
4173.4302719206889378
 21
150.1459609450689072
 31
0.0
  0
LINE
  5
157C0
  8
0
 10
4173.5286971175892177
 20
150.1380869294187903
 30
0.0
 11
4173.5286971175892177
 21
149.1105278742188887
 31
0.0
  0
LINE
  5
157C1
  8
0
 10
4173.5286971175892177
 20
149.0711577955189
 30
0.0
 11
4173.5286971175892177
 21
147.0908428349187886
 31
0.0
  0
LINE
  5
157C2
  8
0
 10
4173.5286971175892177
 20
147.0908428349187886
 30
0.0
 11
4173.3633427868880972
 21
146.9254885042188903
 31
0.0
  0
LINE
  5
157C3
  8
0
 10
4173.292476645188799
 20
147.0908428349187886
 30
0.0
 11
4173.292476645188799
 21
149.0711577955187863
 31
0.0
  0
LINE
  5
157C4
  8
0
 10
4173.2947866962531407
 20
149.1105278742188887
 30
0.0
 11
4173.2947866962531407
 21
150.1380869294187903
 31
0.0
  0
LINE
  5
157C5
  8
0
 10
4173.5286971175892177
 20
147.0908428349187886
 30
0.0
 11
4172.7412955427880661
 21
147.0908428349187886
 31
0.0
  0
LINE
  5
157C6
  8
0
 10
4173.4696419994879761
 20
149.0711577955189
 30
0.0
 11
4173.4696419994879761
 21
149.0908428349187886
 31
0.0
  0
LINE
  5
157C7
  8
0
 10
4173.292476645188799
 20
147.0908428349187886
 30
0.0
 11
4173.2239846387892612
 21
146.9254885042188903
 31
0.0
  0
LINE
  5
157C8
  8
0
 10
4173.292476645188799
 20
149.1105278742188887
 30
0.0
 11
4173.292476645188799
 21
149.0908428349187886
 31
0.0
  0
LINE
  5
157C9
  8
0
 10
4173.9223979049884292
 20
150.3113152758189131
 30
0.0
 11
4171.560193180587703
 21
150.3113152758189131
 31
0.0
  0
LINE
  5
157CB
  8
0
 10
4175.4972010545880039
 20
150.3113152758189131
 30
0.0
 11
4177.8594057789878207
 21
150.3113152758189131
 31
0.0
  0
ENDSEC
  0
EOF
