  0
SECTION
  2
HEADER
  9
$ACADVER
  1
AC1009
  9
$INSBASE
 10
4161.3472027978350525
 20
155.8202078686695984
 30
0.0
  9
$EXTMIN
 10
4153.6885168276512559
 20
154.6351293125565007
 30
-0.0015258207003583
  9
$EXTMAX
 10
4161.6259412920690011
 20
157.0068335614847115
 30
0.0000000349246037
  9
$LIMMIN
 10
0.0
 20
0.0
  9
$LIMMAX
 10
11.6929133858000007
 20
8.2677165353999982
  9
$ORTHOMODE
 70
     0
  9
$REGENMODE
 70
     1
  9
$FILLMODE
 70
     1
  9
$QTEXTMODE
 70
     0
  9
$MIRRTEXT
 70
     0
  9
$DRAGMODE
 70
     2
  9
$LTSCALE
 40
0.6431102362
  9
$OSMODE
 70
  4095
  9
$ATTMODE
 70
     1
  9
$TEXTSIZE
 40
0.2
  9
$TRACEWID
 40
0.05
  9
$TEXTSTYLE
  7
STANDARD
  9
$CLAYER
  8
0
  9
$CELTYPE
  6
BYLAYER
  9
$CECOLOR
 62
   256
  9
$DIMSCALE
 40
1.0
  9
$DIMASZ
 40
0.1875
  9
$DIMEXO
 40
0.0625
  9
$DIMDLI
 40
0.4443307087
  9
$DIMRND
 40
0.0
  9
$DIMDLE
 40
0.0
  9
$DIMEXE
 40
0.125
  9
$DIMTP
 40
0.01
  9
$DIMTM
 40
0.01
  9
$DIMTXT
 40
2.0
  9
$DIMCEN
 40
0.1052362205
  9
$DIMTSZ
 40
0.0
  9
$DIMTOL
 70
     1
  9
$DIMLIM
 70
     0
  9
$DIMTIH
 70
     1
  9
$DIMTOH
 70
     1
  9
$DIMSE1
 70
     0
  9
$DIMSE2
 70
     0
  9
$DIMTAD
 70
     0
  9
$DIMZIN
 70
     0
  9
$DIMBLK
  1

  9
$DIMASO
 70
     1
  9
$DIMSHO
 70
     1
  9
$DIMPOST
  1
\X
  9
$DIMAPOST
  1

  9
$DIMALT
 70
     1
  9
$DIMALTD
 70
     2
  9
$DIMALTF
 40
25.3999999999999986
  9
$DIMLFAC
 40
1.0
  9
$DIMTOFL
 70
     0
  9
$DIMTVP
 40
0.0
  9
$DIMTIX
 70
     0
  9
$DIMSOXD
 70
     0
  9
$DIMSAH
 70
     0
  9
$DIMBLK1
  1

  9
$DIMBLK2
  1

  9
$DIMSTYLE
  2
STANDARD
  9
$DIMCLRD
 70
     0
  9
$DIMCLRE
 70
     0
  9
$DIMCLRT
 70
     0
  9
$DIMTFAC
 40
1.0
  9
$DIMGAP
 40
0.09
  9
$LUNITS
 70
     2
  9
$LUPREC
 70
     4
  9
$SKETCHINC
 40
0.1
  9
$FILLETRAD
 40
0.0
  9
$AUNITS
 70
     0
  9
$AUPREC
 70
     0
  9
$MENU
  1
.
  9
$ELEVATION
 40
0.0
  9
$PELEVATION
 40
0.0
  9
$THICKNESS
 40
0.0
  9
$LIMCHECK
 70
     0
  9
$BLIPMODE
 70
     0
  9
$CHAMFERA
 40
0.0
  9
$CHAMFERB
 40
0.0
  9
$SKPOLY
 70
     0
  9
$TDCREATE
 40
2458060.468368056230247
  9
$TDUPDATE
 40
2460543.4252893519587815
  9
$TDINDWG
 40
0.4424144676
  9
$TDUSRTIMER
 40
0.4424144676
  9
$USRTIMER
 70
     1
  9
$ANGBASE
 50
0.0
  9
$ANGDIR
 70
     0
  9
$PDMODE
 70
     0
  9
$PDSIZE
 40
0.3125
  9
$PLINEWID
 40
0.0
  9
$COORDS
 70
     1
  9
$SPLFRAME
 70
     0
  9
$SPLINETYPE
 70
     6
  9
$SPLINESEGS
 70
     8
  9
$ATTDIA
 70
     1
  9
$ATTREQ
 70
     1
  9
$HANDLING
 70
     1
  9
$HANDSEED
  5
15739
  9
$SURFTAB1
 70
     6
  9
$SURFTAB2
 70
     6
  9
$SURFTYPE
 70
     6
  9
$SURFU
 70
     6
  9
$SURFV
 70
     6
  9
$UCSNAME
  2

  9
$UCSORG
 10
0.0
 20
0.0
 30
0.0
  9
$UCSXDIR
 10
1.0
 20
0.0
 30
0.0
  9
$UCSYDIR
 10
0.0
 20
1.0
 30
0.0
  9
$PUCSNAME
  2

  9
$PUCSORG
 10
0.0
 20
0.0
 30
0.0
  9
$PUCSXDIR
 10
1.0
 20
0.0
 30
0.0
  9
$PUCSYDIR
 10
0.0
 20
1.0
 30
0.0
  9
$USERI1
 70
     0
  9
$USERI2
 70
     0
  9
$USERI3
 70
     0
  9
$USERI4
 70
     0
  9
$USERI5
 70
     0
  9
$USERR1
 40
0.0
  9
$USERR2
 40
0.0
  9
$USERR3
 40
0.0
  9
$USERR4
 40
0.0
  9
$USERR5
 40
0.0
  9
$WORLDVIEW
 70
     1
  9
$SHADEDGE
 70
     3
  9
$SHADEDIF
 70
    70
  9
$TILEMODE
 70
     1
  9
$MAXACTVP
 70
    64
  9
$PLIMCHECK
 70
     0
  9
$PEXTMIN
 10
1.0000000000000000E+20
 20
1.0000000000000000E+20
 30
1.0000000000000000E+20
  9
$PEXTMAX
 10
-1.0000000000000000E+20
 20
-1.0000000000000000E+20
 30
-1.0000000000000000E+20
  9
$PLIMMIN
 10
0.0
 20
0.0
  9
$PLIMMAX
 10
12.0
 20
9.0
  9
$UNITMODE
 70
     0
  9
$VISRETAIN
 70
     1
  9
$PLINEGEN
 70
     0
  9
$PSLTSCALE
 70
     1
  0
ENDSEC
  0
SECTION
  2
TABLES
  0
TABLE
  2
VPORT
 70
     1
  0
VPORT
  2
*ACTIVE
 70
     0
 10
0.0
 20
0.0
 11
1.0
 21
1.0
 12
246.2918726145481116
 22
23.2413763344815685
 13
0.0
 23
0.0
 14
1.0
 24
1.0
 15
0.0
 25
0.0
 16
0.0
 26
0.0
 36
60.4960186965801583
 17
3911.3653564453120453
 27
132.5796051025390057
 37
0.0
 40
3.647895074688154
 41
2.1827586206896541
 42
50.0
 43
0.0
 44
0.0
 50
0.0
 51
0.0
 71
     0
 72
   100
 73
     1
 74
     1
 75
     0
 76
     0
 77
     0
 78
     0
  0
ENDTAB
  0
TABLE
  2
LTYPE
 70
     2
  0
LTYPE
  2
CONTINUOUS
 70
     0
  3
Solid line
 72
    65
 73
     0
 40
0.0
  0
LTYPE
  2
PHANTOM2
 70
     0
  3
___ _ _ ___ _ _ ___ _ _ ___ _ _
 72
    65
 73
     6
 40
1.25
 49
0.625
 49
-0.125
 49
0.125
 49
-0.125
 49
0.125
 49
-0.125
  0
ENDTAB
  0
TABLE
  2
LAYER
 70
     2
  0
LAYER
  2
0
 70
     0
 62
   255
  6
CONTINUOUS
  0
LAYER
  2
DEFPOINTS
 70
     0
 62
     7
  6
CONTINUOUS
  0
ENDTAB
  0
TABLE
  2
STYLE
 70
     1
  0
STYLE
  2
STANDARD
 70
     0
 40
0.0
 41
0.8
 50
0.0
 71
     0
 42
0.2
  3
txt
  4

  0
ENDTAB
  0
TABLE
  2
VIEW
 70
     0
  0
ENDTAB
  0
TABLE
  2
UCS
 70
     0
  0
ENDTAB
  0
TABLE
  2
APPID
 70
    10
  0
APPID
  2
ACAD
 70
     0
  0
APPID
  2
ACAD_MLEADERVER
 70
     0
  0
APPID
  2
ACAD_EXEMPT_FROM_CAD_STANDARDS
 70
     0
  0
APPID
  2
ACAD_NAV_VCDISPLAY
 70
     0
  0
APPID
  2
ACAECLAYERSTANDARD
 70
     0
  0
APPID
  2
ACCMTRANSPARENCY
 70
     0
  0
APPID
  2
ACAD_DSTYLE_DIMJAG
 70
     0
  0
APPID
  2
ACAD_DSTYLE_DIMTALN
 70
     0
  0
APPID
  2
ACDBATTR
 70
     0
  0
APPID
  2
ACADANNOTATIVE
 70
     0
  0
ENDTAB
  0
TABLE
  2
DIMSTYLE
 70
     1
  0
DIMSTYLE
  2
STANDARD
 70
     0
  3

  4

  5

  6

  7

 40
1.0
 41
0.1875
 42
0.0625
 43
0.38
 44
0.125
 45
0.0
 46
0.0
 47
0.01
 48
0.01
140
0.15625
141
0.09
142
0.0
143
25.3999999999999986
144
1.0
145
0.0
146
1.0
147
0.09
 71
     1
 72
     0
 73
     1
 74
     1
 75
     0
 76
     0
 77
     0
 78
     4
170
     0
171
     2
172
     0
173
     0
174
     0
175
     0
176
     0
177
     0
178
     0
  0
ENDTAB
  0
ENDSEC
  0
SECTION
  2
BLOCKS
  0
BLOCK
  8
0
  2
$MODEL_SPACE
 70
     0
 10
0.0
 20
0.0
 30
0.0
  3
$MODEL_SPACE
  1

  0
ENDBLK
  5
21
  8
0
  0
BLOCK
 67
     1
  8
0
  2
$PAPER_SPACE
 70
     0
 10
0.0
 20
0.0
 30
0.0
  3
$PAPER_SPACE
  1

  0
ENDBLK
  5
1D
 67
     1
  8
0
  0
ENDSEC
  0
SECTION
  2
ENTITIES
  0
ATTDEF
  5
14D1C
  8
DEFPOINTS
 10
4161.3479435585650208
 20
155.8217071981528079
 30
0.0
 40
0.001
  1
P33168-GTM
  3

  2
MODELNUMBER
 70
     0
1001
ACDBATTR
1070
     0
1070
     1
  0
ATTDEF
  5
14D1D
  8
DEFPOINTS
 10
4161.3478177489078007
 20
155.8200403577735926
 30
0.0
 40
0.001
  1
BEZEL
  3

  2
TRADENAME
 70
     0
1001
ACDBATTR
1070
     0
1070
     1
  0
ATTDEF
  5
14D1E
  8
DEFPOINTS
 10
4161.3479435585650208
 20
155.8183738648193923
 30
0.0
 40
0.001
  1
BATHROOM SINK FAUCET
  3

  2
PRODUCT
 70
     0
1001
ACDBATTR
1070
     0
1070
     1
  0
LINE
  5
15600
  8
0
 10
4161.3472027978350525
 20
157.001310230869592
 30
0.0
 11
4161.1975964986340841
 21
157.001310230869592
 31
0.0
  0
LINE
  5
15601
  8
0
 10
4157.9771240577347271
 20
156.6076094434696131
 30
0.0
 11
4159.9574390183352079
 21
156.6076094434696131
 31
0.0
  0
LINE
  5
15602
  8
0
 10
4159.9968090970351113
 20
156.6076094434696131
 30
0.0
 11
4161.024368152236093
 21
156.6076094434696131
 31
0.0
  0
LINE
  5
15603
  8
0
 10
4157.8117697270354256
 20
156.4422551127696011
 30
0.0
 11
4157.8117697270354256
 21
155.1981606245695957
 31
0.0
  0
LINE
  5
15604
  8
0
 10
4161.3472027978350525
 20
157.001310230869592
 30
0.0
 11
4161.3472027978350525
 21
154.6391055064696047
 31
0.0
  0
LINE
  5
15605
  8
0
 10
4161.0322421679347826
 20
156.8359559001696084
 30
0.0
 11
4161.1975964986340841
 21
157.001310230869592
 31
0.0
  0
LINE
  5
15606
  8
0
 10
4159.9574390183352079
 20
156.6076094434696131
 30
0.0
 11
4159.9574390183352079
 21
155.0328062938696121
 31
0.0
  0
LINE
  5
15607
  8
0
 10
4159.9968090970351113
 20
156.6076094434696131
 30
0.0
 11
4159.9968090970351113
 21
155.0328062938696121
 31
0.0
  0
LINE
  5
15608
  8
0
 10
4161.0322421679347826
 20
156.8359559001696084
 30
0.0
 11
4161.0322421679347826
 21
154.8044598371695884
 31
0.0
  0
LINE
  5
15609
  8
0
 10
4157.8117697270354256
 20
156.4422551127696011
 30
0.0
 11
4157.9771240577347271
 21
156.6076094434696131
 31
0.0
  0
LINE
  5
1560A
  8
0
 10
4161.024368152236093
 20
156.6076094434696131
 30
0.0
 11
4161.024368152236093
 21
155.0328062938696121
 31
0.0
  0
LINE
  5
1560B
  8
0
 10
4155.2152695717541064
 20
156.1548535379695863
 30
0.0
 11
4157.8117697270354256
 21
156.1548535379695863
 31
0.0
  0
LINE
  5
1560C
  8
0
 10
4153.9707769737351555
 20
155.2001291285696141
 30
0.0
 11
4154.5504002755187685
 21
154.8654834592431087
 31
0.0
  0
LINE
  5
1560D
  8
0
 10
4153.9707769737351555
 20
155.2001291285696141
 30
0.0
 11
4154.1753462669003056
 21
155.5544535379864044
 31
0.0
  0
ARC
  5
1560E
  8
0
 10
4155.2152695717541064
 20
154.9540535379695996
 30
0.0
 40
1.2008000000000001
 50
90.0
 51
149.9999999990859862
  0
LINE
  5
1560F
  8
0
 10
4155.2152645711321384
 20
155.4855621993696104
 30
0.0
 11
4157.8117697270354256
 21
155.4855621993696104
 31
0.0
  0
LINE
  5
15610
  8
0
 10
4154.5504002755342299
 20
154.8654834592695977
 30
0.0
 11
4154.7549720690240065
 21
155.219812199377003
 31
0.0
  0
ARC
  5
15611
  8
0
 10
4155.2152645711321384
 20
154.9540621993695879
 30
0.0
 40
0.5315
 50
90.0
 51
149.9999999990888
  0
LINE
  5
15612
  8
0
 10
4161.0322421679347826
 20
156.509184246669605
 30
0.0
 11
4161.024368152236093
 21
156.509184246669605
 31
0.0
  0
LINE
  5
15613
  8
0
 10
4159.9574390183352079
 20
156.5485543253695937
 30
0.0
 11
4159.9771240577347271
 21
156.5485543253695937
 31
0.0
  0
LINE
  5
15614
  8
0
 10
4159.9771240577347271
 20
156.5485543253695937
 30
0.0
 11
4159.9771240577347271
 21
155.0918614119696031
 31
0.0
  0
LINE
  5
15615
  8
0
 10
4159.9771240577347271
 20
155.0918614119696031
 30
0.0
 11
4159.9574390183352079
 21
155.0918614119696031
 31
0.0
  0
LINE
  5
15616
  8
0
 10
4154.3779178221157053
 20
155.4374893106682975
 30
0.0
 11
4154.1733526365851503
 21
155.0831720150868875
 31
0.0
  0
LINE
  5
15617
  8
0
 10
4154.5524005132447201
 20
155.3367764259992896
 30
0.0
 11
4154.3478246129361651
 21
154.9824405725713916
 31
0.0
  0
LINE
  5
15618
  8
0
 10
4155.2152777854971646
 20
155.9209393114695956
 30
0.0
 11
4157.8117697270354256
 21
155.9209393114695956
 31
0.0
  0
LINE
  5
15619
  8
0
 10
4155.215256357342696
 20
155.7194764260696047
 30
0.0
 11
4157.8117697270354256
 21
155.7194764260696047
 31
0.0
  0
ARC
  5
1561A
  8
0
 10
4155.2152777854971646
 20
154.954039311469586
 30
0.0
 40
0.9669
 50
90.0
 51
150.0000000548126025
  0
ARC
  5
1561B
  8
0
 10
4155.215256357342696
 20
154.9540764260696051
 30
0.0
 40
0.7654
 50
90.0
 51
150.0000000060834964
  0
LINE
  5
1561C
  8
0
 10
4159.9574390183352079
 20
156.3713889710695923
 30
0.0
 11
4157.9771240577347271
 21
156.3713889710695923
 31
0.0
  0
LINE
  5
1561D
  8
0
 10
4159.9771240577347271
 20
156.3713889710695923
 30
0.0
 11
4161.024368152236093
 21
156.3713889710695923
 31
0.0
  0
LINE
  5
1561E
  8
0
 10
4161.3472027978350525
 20
156.7650897584695997
 30
0.0
 11
4161.1975964986340841
 21
156.7650897584695997
 31
0.0
  0
LINE
  5
1561F
  8
0
 10
4161.1975964986340841
 20
156.7650897584695997
 30
0.0
 11
4161.0322421679347826
 21
156.6965977520696072
 31
0.0
  0
LINE
  5
15620
  8
0
 10
4157.9771240577347271
 20
156.3713889710695923
 30
0.0
 11
4157.8117697270354256
 21
156.3028969646695998
 31
0.0
  0
LINE
  5
15621
  8
0
 10
4161.3472027978350525
 20
154.6391055064696047
 30
0.0
 11
4161.1975964986340841
 21
154.6391055064696047
 31
0.0
  0
LINE
  5
15622
  8
0
 10
4157.9771240577347271
 20
155.0328062938696121
 30
0.0
 11
4159.9574390183352079
 21
155.0328062938696121
 31
0.0
  0
LINE
  5
15623
  8
0
 10
4159.9968090970351113
 20
155.0328062938696121
 30
0.0
 11
4161.024368152236093
 21
155.0328062938696121
 31
0.0
  0
LINE
  5
15624
  8
0
 10
4161.0322421679347826
 20
154.8044598371695884
 30
0.0
 11
4161.1975964986340841
 21
154.6391055064696047
 31
0.0
  0
LINE
  5
15625
  8
0
 10
4157.8117697270354256
 20
155.1981606245695957
 30
0.0
 11
4157.9771240577347271
 21
155.0328062938696121
 31
0.0
  0
LINE
  5
15626
  8
0
 10
4161.0322421679347826
 20
155.1312314906695917
 30
0.0
 11
4161.024368152236093
 21
155.1312314906695917
 31
0.0
  0
LINE
  5
15627
  8
0
 10
4159.9574390183352079
 20
155.0918614119696031
 30
0.0
 11
4159.9771240577347271
 21
155.0918614119696031
 31
0.0
  0
LINE
  5
15628
  8
0
 10
4159.9574390183352079
 20
155.2690267662696044
 30
0.0
 11
4157.9771240577347271
 21
155.2690267662696044
 31
0.0
  0
LINE
  5
15629
  8
0
 10
4159.9771240577347271
 20
155.2690267662696044
 30
0.0
 11
4161.024368152236093
 21
155.2690267662696044
 31
0.0
  0
LINE
  5
1562A
  8
0
 10
4161.3472027978350525
 20
154.8753259788695971
 30
0.0
 11
4161.1975964986340841
 21
154.8753259788695971
 31
0.0
  0
LINE
  5
1562B
  8
0
 10
4161.1975964986340841
 20
154.8753259788695971
 30
0.0
 11
4161.0322421679347826
 21
154.9438179852695896
 31
0.0
  0
LINE
  5
1562C
  8
0
 10
4157.9771240577347271
 20
155.2690267662696044
 30
0.0
 11
4157.8117697270354256
 21
155.337518772669597
 31
0.0
  0
LINE
  5
1562D
  8
0
 10
4157.9771240577347271
 20
156.6076094434696131
 30
0.0
 11
4157.9771240577347271
 21
155.0328062938696121
 31
0.0
  0
LINE
  5
1562F
  8
0
 10
4161.1975964986340841
 20
157.001310230869592
 30
0.0
 11
4161.1975964986340841
 21
154.6391055064696047
 31
0.0
  0
ENDSEC
  0
EOF
