  0
SECTION
  2
HEADER
  9
$ACADVER
  1
AC1009
  9
$INSBASE
 10
4177.7589650487188919
 20
148.7018979935911034
 30
0.0
  9
$EXTMIN
 10
4172.513446865989863
 20
139.5455291976707031
 30
-0.0000000349181948
  9
$EXTMAX
 10
4183.0447732360280497
 20
148.7127204219918895
 30
0.0000000814935746
  9
$LIMMIN
 10
0.0
 20
0.0
  9
$LIMMAX
 10
11.6929133858000007
 20
8.2677165353999982
  9
$ORTHOMODE
 70
     0
  9
$REGENMODE
 70
     1
  9
$FILLMODE
 70
     1
  9
$QTEXTMODE
 70
     0
  9
$MIRRTEXT
 70
     0
  9
$DRAGMODE
 70
     2
  9
$LTSCALE
 40
0.6431102362
  9
$OSMODE
 70
  4095
  9
$ATTMODE
 70
     1
  9
$TEXTSIZE
 40
0.2
  9
$TRACEWID
 40
0.05
  9
$TEXTSTYLE
  7
STANDARD
  9
$CLAYER
  8
0
  9
$CELTYPE
  6
BYLAYER
  9
$CECOLOR
 62
   256
  9
$DIMSCALE
 40
1.0
  9
$DIMASZ
 40
0.1875
  9
$DIMEXO
 40
0.0625
  9
$DIMDLI
 40
0.4443307087
  9
$DIMRND
 40
0.0
  9
$DIMDLE
 40
0.0
  9
$DIMEXE
 40
0.125
  9
$DIMTP
 40
0.01
  9
$DIMTM
 40
0.01
  9
$DIMTXT
 40
2.0
  9
$DIMCEN
 40
0.1052362205
  9
$DIMTSZ
 40
0.0
  9
$DIMTOL
 70
     1
  9
$DIMLIM
 70
     0
  9
$DIMTIH
 70
     1
  9
$DIMTOH
 70
     1
  9
$DIMSE1
 70
     0
  9
$DIMSE2
 70
     0
  9
$DIMTAD
 70
     0
  9
$DIMZIN
 70
     0
  9
$DIMBLK
  1

  9
$DIMASO
 70
     1
  9
$DIMSHO
 70
     1
  9
$DIMPOST
  1
\X
  9
$DIMAPOST
  1

  9
$DIMALT
 70
     1
  9
$DIMALTD
 70
     2
  9
$DIMALTF
 40
25.3999999999999986
  9
$DIMLFAC
 40
1.0
  9
$DIMTOFL
 70
     0
  9
$DIMTVP
 40
0.0
  9
$DIMTIX
 70
     0
  9
$DIMSOXD
 70
     0
  9
$DIMSAH
 70
     0
  9
$DIMBLK1
  1

  9
$DIMBLK2
  1

  9
$DIMSTYLE
  2
STANDARD
  9
$DIMCLRD
 70
     0
  9
$DIMCLRE
 70
     0
  9
$DIMCLRT
 70
     0
  9
$DIMTFAC
 40
1.0
  9
$DIMGAP
 40
0.09
  9
$LUNITS
 70
     2
  9
$LUPREC
 70
     4
  9
$SKETCHINC
 40
0.1
  9
$FILLETRAD
 40
0.0
  9
$AUNITS
 70
     0
  9
$AUPREC
 70
     0
  9
$MENU
  1
.
  9
$ELEVATION
 40
0.0
  9
$PELEVATION
 40
0.0
  9
$THICKNESS
 40
0.0
  9
$LIMCHECK
 70
     0
  9
$BLIPMODE
 70
     0
  9
$CHAMFERA
 40
0.0
  9
$CHAMFERB
 40
0.0
  9
$SKPOLY
 70
     0
  9
$TDCREATE
 40
2458060.468368056230247
  9
$TDUPDATE
 40
2460543.6611226848326623
  9
$TDINDWG
 40
0.4414306713
  9
$TDUSRTIMER
 40
0.4414306713
  9
$USRTIMER
 70
     1
  9
$ANGBASE
 50
0.0
  9
$ANGDIR
 70
     0
  9
$PDMODE
 70
     0
  9
$PDSIZE
 40
0.3125
  9
$PLINEWID
 40
0.0
  9
$COORDS
 70
     1
  9
$SPLFRAME
 70
     0
  9
$SPLINETYPE
 70
     6
  9
$SPLINESEGS
 70
     8
  9
$ATTDIA
 70
     1
  9
$ATTREQ
 70
     1
  9
$HANDLING
 70
     1
  9
$HANDSEED
  5
1589E
  9
$SURFTAB1
 70
     6
  9
$SURFTAB2
 70
     6
  9
$SURFTYPE
 70
     6
  9
$SURFU
 70
     6
  9
$SURFV
 70
     6
  9
$UCSNAME
  2

  9
$UCSORG
 10
0.0
 20
0.0
 30
0.0
  9
$UCSXDIR
 10
1.0
 20
0.0
 30
0.0
  9
$UCSYDIR
 10
0.0
 20
1.0
 30
0.0
  9
$PUCSNAME
  2

  9
$PUCSORG
 10
0.0
 20
0.0
 30
0.0
  9
$PUCSXDIR
 10
1.0
 20
0.0
 30
0.0
  9
$PUCSYDIR
 10
0.0
 20
1.0
 30
0.0
  9
$USERI1
 70
     0
  9
$USERI2
 70
     0
  9
$USERI3
 70
     0
  9
$USERI4
 70
     0
  9
$USERI5
 70
     0
  9
$USERR1
 40
0.0
  9
$USERR2
 40
0.0
  9
$USERR3
 40
0.0
  9
$USERR4
 40
0.0
  9
$USERR5
 40
0.0
  9
$WORLDVIEW
 70
     1
  9
$SHADEDGE
 70
     3
  9
$SHADEDIF
 70
    70
  9
$TILEMODE
 70
     1
  9
$MAXACTVP
 70
    64
  9
$PLIMCHECK
 70
     0
  9
$PEXTMIN
 10
1.0000000000000000E+20
 20
1.0000000000000000E+20
 30
1.0000000000000000E+20
  9
$PEXTMAX
 10
-1.0000000000000000E+20
 20
-1.0000000000000000E+20
 30
-1.0000000000000000E+20
  9
$PLIMMIN
 10
0.0
 20
0.0
  9
$PLIMMAX
 10
12.0
 20
9.0
  9
$UNITMODE
 70
     0
  9
$VISRETAIN
 70
     1
  9
$PLINEGEN
 70
     0
  9
$PSLTSCALE
 70
     1
  0
ENDSEC
  0
SECTION
  2
TABLES
  0
TABLE
  2
VPORT
 70
     1
  0
VPORT
  2
*ACTIVE
 70
     0
 10
0.0
 20
0.0
 11
1.0
 21
1.0
 12
266.4137536056969111
 22
11.5495197072922604
 13
0.0
 23
0.0
 14
1.0
 24
1.0
 15
0.0
 25
0.0
 16
0.0
 26
0.0
 36
60.4960186965801583
 17
3911.3653564453120453
 27
132.5796051025390057
 37
0.0
 40
9.2303406472212757
 41
2.1827586206896541
 42
50.0
 43
0.0
 44
0.0
 50
0.0
 51
0.0
 71
     0
 72
   100
 73
     1
 74
     1
 75
     0
 76
     0
 77
     0
 78
     0
  0
ENDTAB
  0
TABLE
  2
LTYPE
 70
     3
  0
LTYPE
  2
CONTINUOUS
 70
     0
  3
Solid line
 72
    65
 73
     0
 40
0.0
  0
LTYPE
  2
PHANTOM2
 70
     0
  3
___ _ _ ___ _ _ ___ _ _ ___ _ _
 72
    65
 73
     6
 40
1.25
 49
0.625
 49
-0.125
 49
0.125
 49
-0.125
 49
0.125
 49
-0.125
  0
ENDTAB
  0
TABLE
  2
LAYER
 70
     2
  0
LAYER
  2
0
 70
     0
 62
   255
  6
CONTINUOUS
  0
LAYER
  2
DEFPOINTS
 70
     0
 62
     7
  6
CONTINUOUS
  0
ENDTAB
  0
TABLE
  2
STYLE
 70
     1
  0
STYLE
  2
STANDARD
 70
     0
 40
0.0
 41
0.8
 50
0.0
 71
     0
 42
0.2
  3
txt
  4

  0
ENDTAB
  0
TABLE
  2
VIEW
 70
     0
  0
ENDTAB
  0
TABLE
  2
UCS
 70
     0
  0
ENDTAB
  0
TABLE
  2
APPID
 70
    10
  0
APPID
  2
ACAD
 70
     0
  0
APPID
  2
ACAD_MLEADERVER
 70
     0
  0
APPID
  2
ACAD_EXEMPT_FROM_CAD_STANDARDS
 70
     0
  0
APPID
  2
ACAD_NAV_VCDISPLAY
 70
     0
  0
APPID
  2
ACAECLAYERSTANDARD
 70
     0
  0
APPID
  2
ACCMTRANSPARENCY
 70
     0
  0
APPID
  2
ACAD_DSTYLE_DIMJAG
 70
     0
  0
APPID
  2
ACAD_DSTYLE_DIMTALN
 70
     0
  0
APPID
  2
ACDBATTR
 70
     0
  0
APPID
  2
ACADANNOTATIVE
 70
     0
  0
ENDTAB
  0
TABLE
  2
DIMSTYLE
 70
     2
  0
DIMSTYLE
  2
STANDARD
 70
     0
  3

  4

  5

  6

  7

 40
1.0
 41
0.1875
 42
0.0625
 43
0.38
 44
0.125
 45
0.0
 46
0.0
 47
0.01
 48
0.01
140
0.15625
141
0.09
142
0.0
143
25.3999999999999986
144
1.0
145
0.0
146
1.0
147
0.09
 71
     1
 72
     0
 73
     1
 74
     1
 75
     0
 76
     0
 77
     0
 78
     4
170
     0
171
     2
172
     0
173
     0
174
     0
175
     0
176
     0
177
     0
178
     0
  0
ENDTAB
  0
ENDSEC
  0
SECTION
  2
BLOCKS
  0
BLOCK
  8
0
  2
$MODEL_SPACE
 70
     0
 10
0.0
 20
0.0
 30
0.0
  3
$MODEL_SPACE
  1

  0
ENDBLK
  5
21
  8
0
  0
BLOCK
 67
     1
  8
0
  2
$PAPER_SPACE
 70
     0
 10
0.0
 20
0.0
 30
0.0
  3
$PAPER_SPACE
  1

  0
ENDBLK
  5
1D
 67
     1
  8
0
  0
ENDSEC
  0
SECTION
  2
ENTITIES
  0
ATTDEF
  5
14D1C
  8
DEFPOINTS
 10
4177.7547923768152032
 20
148.7056982654378032
 30
0.0
 40
0.001
  1
P33169-GTM
  3

  2
MODELNUMBER
 70
     0
1001
ACDBATTR
1070
     0
1070
     1
  0
ATTDEF
  5
14D1D
  8
DEFPOINTS
 10
4177.7546665671579831
 20
148.704031425058588
 30
0.0
 40
0.001
  1
BEZEL
  3

  2
TRADENAME
 70
     0
1001
ACDBATTR
1070
     0
1070
     1
  0
ATTDEF
  5
14D1E
  8
DEFPOINTS
 10
4177.7547923768152032
 20
148.7023649321043877
 30
0.0
 40
0.001
  1
BATHROOM SINK FAUCET
  3

  2
PRODUCT
 70
     0
1001
ACDBATTR
1070
     0
1070
     1
  0
LINE
  5
156DF
  8
0
 10
4176.5778626865194383
 20
148.7018979935911034
 30
0.0
 11
4178.9400674109192551
 21
148.7018979935911034
 31
0.0
  0
LINE
  5
156E0
  8
0
 10
4176.7432170172178303
 20
148.3869373636910893
 30
0.0
 11
4178.7747130803190885
 21
148.3869373636910893
 31
0.0
  0
LINE
  5
156E1
  8
0
 10
4176.9794374896191584
 20
148.367252324291087
 30
0.0
 11
4178.5393666235177079
 21
148.367252324291087
 31
0.0
  0
LINE
  5
156E2
  8
0
 10
4178.9400674109192551
 20
148.5522916943911014
 30
0.0
 11
4178.9400674109192551
 21
148.7018979935911034
 31
0.0
  0
LINE
  5
156E3
  8
0
 10
4178.7747130802181346
 20
148.3869373636910893
 30
0.0
 11
4178.9400674109192551
 21
148.5522916943911014
 31
0.0
  0
LINE
  5
156E4
  8
0
 10
4178.7038469384178825
 20
148.7018979935911034
 30
0.0
 11
4178.7038469384178825
 21
148.5522916943911014
 31
0.0
  0
LINE
  5
156E5
  8
0
 10
4178.7038469384178825
 20
148.5522916943911014
 30
0.0
 11
4178.6353549320192542
 21
148.3869373636910893
 31
0.0
  0
LINE
  5
156E6
  8
0
 10
4178.4282563873193794
 20
148.3672523243411092
 30
0.0
 11
4178.4282563873193794
 21
148.3869373636410955
 31
0.0
  0
LINE
  5
156E7
  8
0
 10
4178.546366623519134
 20
148.3602523242911104
 30
0.0
 11
4178.546366623519134
 21
139.7613153978523997
 31
0.0
  0
ARC
  5
156E8
  8
0
 10
4178.5393666235177079
 20
148.3602523242911104
 30
0.0
 40
0.007
 50
0.0
 51
90.0
  0
LINE
  5
156E9
  8
0
 10
4178.5441564070124514
 20
139.7564774525980056
 30
0.0
 11
4178.3124523969190705
 21
139.55581589369109
 31
0.0
  0
ARC
  5
156EA
  8
0
 10
4178.5399666235189216
 20
139.7613153978523997
 30
0.0
 40
0.0064
 50
310.8933946502659182
 51
0.0
  0
ARC
  5
156EB
  8
0
 10
4178.3069162217871053
 20
139.5624489224171896
 30
0.0
 40
0.0086398093247763
 50
272.688972791440392
 51
309.8496449281773835
  0
LINE
  5
156EC
  8
0
 10
4178.312456202183057
 20
139.5558191891331887
 30
0.0
 11
4178.312456202183057
 21
148.3638724447268942
 31
0.0
  0
ARC
  5
156ED
  8
0
 10
4178.3087067176020355
 20
148.3636194770668908
 30
0.0
 40
0.0037580084171283
 50
3.8597432270969581
 51
75.1711870794029835
  0
LINE
  5
156EE
  8
0
 10
4181.6959729227191929
 20
148.7018979935911034
 30
0.0
 11
4182.8770752849186465
 21
148.7018979935911034
 31
0.0
  0
LINE
  5
156EF
  8
0
 10
4181.6959729227191929
 20
148.3869373636910893
 30
0.0
 11
4182.7117209543193894
 21
148.3869373636910893
 31
0.0
  0
LINE
  5
156F0
  8
0
 10
4181.6959729227191929
 20
148.3790633479910923
 30
0.0
 11
4182.483374497519435
 21
148.3790633479910923
 31
0.0
  0
LINE
  5
156F1
  8
0
 10
4182.8770752849186465
 20
148.5522916943911014
 30
0.0
 11
4182.8770752849186465
 21
148.7018979935911034
 31
0.0
  0
LINE
  5
156F2
  8
0
 10
4182.711720954219345
 20
148.3869373636910893
 30
0.0
 11
4182.8770752849186465
 21
148.5522916943911014
 31
0.0
  0
LINE
  5
156F3
  8
0
 10
4182.6408548124190929
 20
148.7018979935911034
 30
0.0
 11
4182.6408548124190929
 21
148.5522916943911014
 31
0.0
  0
LINE
  5
156F4
  8
0
 10
4182.6408548124190929
 20
148.5522916943911014
 30
0.0
 11
4182.5723628060186456
 21
148.3869373636910893
 31
0.0
  0
LINE
  5
156F5
  8
0
 10
4182.3849493006191551
 20
148.3790633479910923
 30
0.0
 11
4182.3849493006191551
 21
148.3869373636410955
 31
0.0
  0
LINE
  5
156F6
  8
0
 10
4182.483374497519435
 20
148.3790633479910923
 30
0.0
 11
4182.483374497519435
 21
147.3515042927911054
 31
0.0
  0
LINE
  5
156F7
  8
0
 10
4182.483374497519435
 20
147.3121342140910883
 30
0.0
 11
4182.483374497519435
 21
145.3318192534910906
 31
0.0
  0
LINE
  5
156F8
  8
0
 10
4182.483374497519435
 20
145.3318192534910906
 30
0.0
 11
4182.318020166819224
 21
145.166464922791107
 31
0.0
  0
LINE
  5
156F9
  8
0
 10
4182.2471540251190163
 20
145.3318192534910906
 30
0.0
 11
4182.2471540251190163
 21
147.3121342140910883
 31
0.0
  0
LINE
  5
156FA
  8
0
 10
4182.249464076183358
 20
147.3515042927911054
 30
0.0
 11
4182.249464076183358
 21
148.3790633479910923
 31
0.0
  0
LINE
  5
156FB
  8
0
 10
4182.318020166819224
 20
145.166464922791107
 30
0.0
 11
4181.0739256786191618
 21
145.166464922791107
 31
0.0
  0
LINE
  5
156FC
  8
0
 10
4182.483374497519435
 20
145.3318192534910906
 30
0.0
 11
4181.6959729227191929
 21
145.3318192534910906
 31
0.0
  0
LINE
  5
156FD
  8
0
 10
4182.483374497519435
 20
147.3515042927911054
 30
0.0
 11
4180.9085713479189508
 21
147.3515042927911054
 31
0.0
  0
LINE
  5
156FE
  8
0
 10
4182.483374497519435
 20
147.3121342140910883
 30
0.0
 11
4180.9085713479189508
 21
147.3121342140910883
 31
0.0
  0
LINE
  5
156FF
  8
0
 10
4182.4243193794191029
 20
147.3121342140910883
 30
0.0
 11
4182.4243193794191029
 21
147.3318192534910906
 31
0.0
  0
LINE
  5
15700
  8
0
 10
4182.4243193794191029
 20
147.3318192534910906
 30
0.0
 11
4180.9676264660192828
 21
147.3318192534910906
 31
0.0
  0
LINE
  5
15701
  8
0
 10
4182.2471540251190163
 20
145.3318192534910906
 30
0.0
 11
4182.178662018718569
 21
145.166464922791107
 31
0.0
  0
LINE
  5
15702
  8
0
 10
4182.2471540251190163
 20
147.3515042927911054
 30
0.0
 11
4182.2471540251190163
 21
147.3318192534910906
 31
0.0
  0
LINE
  5
15703
  8
0
 10
4181.6959729227191929
 20
148.7018979935911034
 30
0.0
 11
4180.5148705605188297
 21
148.7018979935911034
 31
0.0
  0
LINE
  5
15704
  8
0
 10
4181.6959729227191929
 20
148.3869373636910893
 30
0.0
 11
4180.6802248911180868
 21
148.3869373636910893
 31
0.0
  0
LINE
  5
15705
  8
0
 10
4181.6959729227191929
 20
148.3790633479910923
 30
0.0
 11
4180.9085713479189508
 21
148.3790633479910923
 31
0.0
  0
LINE
  5
15706
  8
0
 10
4180.5148705605188297
 20
148.5522916943911014
 30
0.0
 11
4180.5148705605188297
 21
148.7018979935911034
 31
0.0
  0
LINE
  5
15707
  8
0
 10
4180.6802248912190407
 20
148.3869373636910893
 30
0.0
 11
4180.5148705605188297
 21
148.5522916943911014
 31
0.0
  0
LINE
  5
15708
  8
0
 10
4180.7510910330192928
 20
148.7018979935911034
 30
0.0
 11
4180.7510910330192928
 21
148.5522916943911014
 31
0.0
  0
LINE
  5
15709
  8
0
 10
4180.7510910330192928
 20
148.5522916943911014
 30
0.0
 11
4180.8195830394188306
 21
148.3869373636910893
 31
0.0
  0
LINE
  5
1570A
  8
0
 10
4181.0069965448192306
 20
148.3790633479910923
 30
0.0
 11
4181.0069965448192306
 21
148.3869373636410955
 31
0.0
  0
LINE
  5
1570B
  8
0
 10
4180.9085713479189508
 20
148.3790633479910923
 30
0.0
 11
4180.9085713479189508
 21
147.3515042927911054
 31
0.0
  0
LINE
  5
1570C
  8
0
 10
4180.9085713479189508
 20
147.3121342140910883
 30
0.0
 11
4180.9085713479189508
 21
145.3318192534910906
 31
0.0
  0
LINE
  5
1570D
  8
0
 10
4180.9085713479189508
 20
145.3318192534910906
 30
0.0
 11
4181.0739256786191618
 21
145.166464922791107
 31
0.0
  0
LINE
  5
1570E
  8
0
 10
4181.1447918203193694
 20
145.3318192534910906
 30
0.0
 11
4181.1447918203193694
 21
147.3121342140910883
 31
0.0
  0
LINE
  5
1570F
  8
0
 10
4181.1424817692550278
 20
147.3515042927911054
 30
0.0
 11
4181.1424817692550278
 21
148.3790633479910923
 31
0.0
  0
LINE
  5
15710
  8
0
 10
4180.9085713479189508
 20
145.3318192534910906
 30
0.0
 11
4181.6959729227191929
 21
145.3318192534910906
 31
0.0
  0
LINE
  5
15711
  8
0
 10
4180.9676264660192828
 20
147.3121342140910883
 30
0.0
 11
4180.9676264660192828
 21
147.3318192534910906
 31
0.0
  0
LINE
  5
15712
  8
0
 10
4181.1447918203193694
 20
145.3318192534910906
 30
0.0
 11
4181.2132838267189072
 21
145.166464922791107
 31
0.0
  0
LINE
  5
15713
  8
0
 10
4181.1447918203193694
 20
147.3515042927911054
 30
0.0
 11
4181.1447918203193694
 21
147.3318192534910906
 31
0.0
  0
LINE
  5
15714
  8
0
 10
4180.5148705605188297
 20
148.5522916943911014
 30
0.0
 11
4182.8770752849186465
 21
148.5522916943911014
 31
0.0
  0
LINE
  5
15715
  8
0
 10
4176.5778626865194383
 20
148.5522916943911014
 30
0.0
 11
4176.5778626865194383
 21
148.7018979935911034
 31
0.0
  0
LINE
  5
15716
  8
0
 10
4176.7432170172178303
 20
148.3869373636910893
 30
0.0
 11
4176.5778626865194383
 21
148.5522916943911014
 31
0.0
  0
LINE
  5
15717
  8
0
 10
4176.8140831590180824
 20
148.7018979935911034
 30
0.0
 11
4176.8140831590180824
 21
148.5522916943911014
 31
0.0
  0
LINE
  5
15718
  8
0
 10
4176.8140831590180824
 20
148.5522916943911014
 30
0.0
 11
4176.8825751654203486
 21
148.3869373636910893
 31
0.0
  0
LINE
  5
15719
  8
0
 10
4177.0896737101202234
 20
148.3672523243411092
 30
0.0
 11
4177.0896737101202234
 21
148.3869373636410955
 31
0.0
  0
LINE
  5
1571A
  8
0
 10
4176.9715634739186498
 20
148.3602523242911104
 30
0.0
 11
4176.9715634739186498
 21
139.7613153978523997
 31
0.0
  0
ARC
  5
1571B
  8
0
 10
4176.9785634739191664
 20
148.3602523242911104
 30
0.0
 40
0.007
 50
90.0
 51
180.0
  0
LINE
  5
1571C
  8
0
 10
4176.973773690426242
 20
139.7564774525980056
 30
0.0
 11
4177.2054777005178039
 21
139.55581589369109
 31
0.0
  0
ARC
  5
1571D
  8
0
 10
4176.9779634739188623
 20
139.7613153978523997
 30
0.0
 40
0.0064
 50
180.0
 51
229.1066053497341102
  0
ARC
  5
1571E
  8
0
 10
4177.2110138756506785
 20
139.5624489224171896
 30
0.0
 40
0.0086398093247763
 50
230.1503550718225881
 51
267.311027208559608
  0
LINE
  5
1571F
  8
0
 10
4177.2054738952547268
 20
139.5558191890465878
 30
0.0
 11
4177.2054738952547268
 21
148.3638724447268942
 31
0.0
  0
LINE
  5
15720
  8
0
 10
4177.2106085458872258
 20
139.553818626191088
 30
0.0
 11
4178.3073215515496486
 21
139.553818626191088
 31
0.0
  0
ARC
  5
15721
  8
0
 10
4177.2092233798348389
 20
148.3636194770668908
 30
0.0
 40
0.0037580084171283
 50
104.8288129205970023
 51
176.1402567729030011
  0
LINE
  5
15722
  8
0
 10
4173.821957174718591
 20
148.7018979935911034
 30
0.0
 11
4172.6408548125191373
 21
148.7018979935911034
 31
0.0
  0
LINE
  5
15723
  8
0
 10
4173.821957174718591
 20
148.3869373636910893
 30
0.0
 11
4172.8062091431193039
 21
148.3869373636910893
 31
0.0
  0
LINE
  5
15724
  8
0
 10
4173.821957174718591
 20
148.3790633479910923
 30
0.0
 11
4173.0345555999192584
 21
148.3790633479910923
 31
0.0
  0
LINE
  5
15725
  8
0
 10
4172.6408548125191373
 20
148.5522916943911014
 30
0.0
 11
4172.6408548125191373
 21
148.7018979935911034
 31
0.0
  0
LINE
  5
15726
  8
0
 10
4172.8062091432193483
 20
148.3869373636910893
 30
0.0
 11
4172.6408548125191373
 21
148.5522916943911014
 31
0.0
  0
LINE
  5
15727
  8
0
 10
4172.8770752850177814
 20
148.7018979935911034
 30
0.0
 11
4172.8770752850177814
 21
148.5522916943911014
 31
0.0
  0
LINE
  5
15728
  8
0
 10
4172.8770752850177814
 20
148.5522916943911014
 30
0.0
 11
4172.9455672914191382
 21
148.3869373636910893
 31
0.0
  0
LINE
  5
15729
  8
0
 10
4173.1329807968177192
 20
148.3790633479910923
 30
0.0
 11
4173.1329807968177192
 21
148.3869373636410955
 31
0.0
  0
LINE
  5
1572A
  8
0
 10
4173.0345555999192584
 20
148.3790633479910923
 30
0.0
 11
4173.0345555999192584
 21
147.3515042927911054
 31
0.0
  0
LINE
  5
1572B
  8
0
 10
4173.0345555999192584
 20
147.3121342140910883
 30
0.0
 11
4173.0345555999192584
 21
145.3318192534910906
 31
0.0
  0
LINE
  5
1572C
  8
0
 10
4173.0345555999192584
 20
145.3318192534910906
 30
0.0
 11
4173.1999099306185599
 21
145.166464922791107
 31
0.0
  0
LINE
  5
1572D
  8
0
 10
4173.2707760723178581
 20
145.3318192534910906
 30
0.0
 11
4173.2707760723178581
 21
147.3121342140910883
 31
0.0
  0
LINE
  5
1572E
  8
0
 10
4173.2684660212544259
 20
147.3515042927911054
 30
0.0
 11
4173.2684660212544259
 21
148.3790633479910923
 31
0.0
  0
LINE
  5
1572F
  8
0
 10
4173.1999099306185599
 20
145.166464922791107
 30
0.0
 11
4174.4440044188186221
 21
145.166464922791107
 31
0.0
  0
LINE
  5
15730
  8
0
 10
4173.0345555999192584
 20
145.3318192534910906
 30
0.0
 11
4173.821957174718591
 21
145.3318192534910906
 31
0.0
  0
LINE
  5
15731
  8
0
 10
4173.0345555999192584
 20
147.3515042927911054
 30
0.0
 11
4174.6093587495188331
 21
147.3515042927911054
 31
0.0
  0
LINE
  5
15732
  8
0
 10
4173.0345555999192584
 20
147.3121342140910883
 30
0.0
 11
4174.6093587495188331
 21
147.3121342140910883
 31
0.0
  0
LINE
  5
15733
  8
0
 10
4173.0936107180177714
 20
147.3121342140910883
 30
0.0
 11
4173.0936107180177714
 21
147.3318192534910906
 31
0.0
  0
LINE
  5
15734
  8
0
 10
4173.0936107180177714
 20
147.3318192534910906
 30
0.0
 11
4174.5503036314194105
 21
147.3318192534910906
 31
0.0
  0
LINE
  5
15735
  8
0
 10
4173.2707760723178581
 20
145.3318192534910906
 30
0.0
 11
4173.3392680787192148
 21
145.166464922791107
 31
0.0
  0
LINE
  5
15736
  8
0
 10
4173.2707760723178581
 20
147.3515042927911054
 30
0.0
 11
4173.2707760723178581
 21
147.3318192534910906
 31
0.0
  0
LINE
  5
15737
  8
0
 10
4173.821957174718591
 20
148.7018979935911034
 30
0.0
 11
4175.0030595369180446
 21
148.7018979935911034
 31
0.0
  0
LINE
  5
15738
  8
0
 10
4173.821957174718591
 20
148.3869373636910893
 30
0.0
 11
4174.8377052063187875
 21
148.3869373636910893
 31
0.0
  0
LINE
  5
15739
  8
0
 10
4173.821957174718591
 20
148.3790633479910923
 30
0.0
 11
4174.6093587495188331
 21
148.3790633479910923
 31
0.0
  0
LINE
  5
1573A
  8
0
 10
4175.0030595369180446
 20
148.5522916943911014
 30
0.0
 11
4175.0030595369180446
 21
148.7018979935911034
 31
0.0
  0
LINE
  5
1573B
  8
0
 10
4174.8377052062178336
 20
148.3869373636910893
 30
0.0
 11
4175.0030595369180446
 21
148.5522916943911014
 31
0.0
  0
LINE
  5
1573C
  8
0
 10
4174.7668390644194005
 20
148.7018979935911034
 30
0.0
 11
4174.7668390644194005
 21
148.5522916943911014
 31
0.0
  0
LINE
  5
1573D
  8
0
 10
4174.7668390644194005
 20
148.5522916943911014
 30
0.0
 11
4174.6983470580189532
 21
148.3869373636910893
 31
0.0
  0
LINE
  5
1573E
  8
0
 10
4174.5109335526176437
 20
148.3790633479910923
 30
0.0
 11
4174.5109335526176437
 21
148.3869373636410955
 31
0.0
  0
LINE
  5
1573F
  8
0
 10
4174.6093587495188331
 20
148.3790633479910923
 30
0.0
 11
4174.6093587495188331
 21
147.3515042927911054
 31
0.0
  0
LINE
  5
15740
  8
0
 10
4174.6093587495188331
 20
147.3121342140910883
 30
0.0
 11
4174.6093587495188331
 21
145.3318192534910906
 31
0.0
  0
LINE
  5
15741
  8
0
 10
4174.6093587495188331
 20
145.3318192534910906
 30
0.0
 11
4174.4440044188186221
 21
145.166464922791107
 31
0.0
  0
LINE
  5
15742
  8
0
 10
4174.3731382771193239
 20
145.3318192534910906
 30
0.0
 11
4174.3731382771193239
 21
147.3121342140910883
 31
0.0
  0
LINE
  5
15743
  8
0
 10
4174.3754483281827561
 20
147.3515042927911054
 30
0.0
 11
4174.3754483281827561
 21
148.3790633479910923
 31
0.0
  0
LINE
  5
15744
  8
0
 10
4174.6093587495188331
 20
145.3318192534910906
 30
0.0
 11
4173.821957174718591
 21
145.3318192534910906
 31
0.0
  0
LINE
  5
15745
  8
0
 10
4174.5503036314194105
 20
147.3121342140910883
 30
0.0
 11
4174.5503036314194105
 21
147.3318192534910906
 31
0.0
  0
LINE
  5
15746
  8
0
 10
4174.3731382771193239
 20
145.3318192534910906
 30
0.0
 11
4174.3046462707179671
 21
145.166464922791107
 31
0.0
  0
LINE
  5
15747
  8
0
 10
4174.3731382771193239
 20
147.3515042927911054
 30
0.0
 11
4174.3731382771193239
 21
147.3318192534910906
 31
0.0
  0
LINE
  5
15748
  8
0
 10
4175.0030595369180446
 20
148.5522916943911014
 30
0.0
 11
4172.6408548125191373
 21
148.5522916943911014
 31
0.0
  0
LINE
  5
15794
  8
0
 10
4176.5778626865194383
 20
148.5522916943911014
 30
0.0
 11
4178.9400674109192551
 21
148.5522916943911014
 31
0.0
  0
ENDSEC
  0
EOF
