  0
SECTION
  2
HEADER
  9
$ACADVER
  1
AC1009
  9
$INSBASE
 10
6975.6661697027748232
 20
307.4275816717945986
 30
0.0
  9
$EXTMIN
 10
6973.303964960776284
 20
307.4223720322787017
 30
0.0
  9
$EXTMAX
 10
6978.0283744447751815
 20
348.8291564749945906
 30
0.0
  9
$LIMMIN
 10
0.0
 20
0.0
  9
$LIMMAX
 10
11.6929133858000007
 20
8.2677165353999982
  9
$ORTHOMODE
 70
     1
  9
$REGENMODE
 70
     1
  9
$FILLMODE
 70
     1
  9
$QTEXTMODE
 70
     0
  9
$MIRRTEXT
 70
     0
  9
$DRAGMODE
 70
     2
  9
$LTSCALE
 40
0.6431102362
  9
$OSMODE
 70
  4095
  9
$ATTMODE
 70
     1
  9
$TEXTSIZE
 40
0.2
  9
$TRACEWID
 40
0.05
  9
$TEXTSTYLE
  7
STANDARD
  9
$CLAYER
  8
0
  9
$CELTYPE
  6
BYLAYER
  9
$CECOLOR
 62
   256
  9
$DIMSCALE
 40
1.0
  9
$DIMASZ
 40
0.1875
  9
$DIMEXO
 40
0.0625
  9
$DIMDLI
 40
0.4443307087
  9
$DIMRND
 40
0.0
  9
$DIMDLE
 40
0.0
  9
$DIMEXE
 40
0.125
  9
$DIMTP
 40
0.01
  9
$DIMTM
 40
0.01
  9
$DIMTXT
 40
2.0
  9
$DIMCEN
 40
0.1052362205
  9
$DIMTSZ
 40
0.0
  9
$DIMTOL
 70
     1
  9
$DIMLIM
 70
     0
  9
$DIMTIH
 70
     1
  9
$DIMTOH
 70
     1
  9
$DIMSE1
 70
     0
  9
$DIMSE2
 70
     0
  9
$DIMTAD
 70
     0
  9
$DIMZIN
 70
     0
  9
$DIMBLK
  1

  9
$DIMASO
 70
     1
  9
$DIMSHO
 70
     1
  9
$DIMPOST
  1
\X
  9
$DIMAPOST
  1

  9
$DIMALT
 70
     1
  9
$DIMALTD
 70
     2
  9
$DIMALTF
 40
25.3999999999999986
  9
$DIMLFAC
 40
1.0
  9
$DIMTOFL
 70
     0
  9
$DIMTVP
 40
0.0
  9
$DIMTIX
 70
     0
  9
$DIMSOXD
 70
     0
  9
$DIMSAH
 70
     0
  9
$DIMBLK1
  1

  9
$DIMBLK2
  1

  9
$DIMSTYLE
  2
STANDARD
  9
$DIMCLRD
 70
     0
  9
$DIMCLRE
 70
     0
  9
$DIMCLRT
 70
     0
  9
$DIMTFAC
 40
1.0
  9
$DIMGAP
 40
0.09
  9
$LUNITS
 70
     2
  9
$LUPREC
 70
     4
  9
$SKETCHINC
 40
0.1
  9
$FILLETRAD
 40
0.0
  9
$AUNITS
 70
     0
  9
$AUPREC
 70
     0
  9
$MENU
  1
.
  9
$ELEVATION
 40
0.0
  9
$PELEVATION
 40
0.0
  9
$THICKNESS
 40
0.0
  9
$LIMCHECK
 70
     0
  9
$BLIPMODE
 70
     0
  9
$CHAMFERA
 40
0.0
  9
$CHAMFERB
 40
0.0
  9
$SKPOLY
 70
     0
  9
$TDCREATE
 40
2458060.468368056230247
  9
$TDUPDATE
 40
2460544.4329398148693144
  9
$TDINDWG
 40
0.932796412
  9
$TDUSRTIMER
 40
0.932796412
  9
$USRTIMER
 70
     1
  9
$ANGBASE
 50
0.0
  9
$ANGDIR
 70
     0
  9
$PDMODE
 70
     0
  9
$PDSIZE
 40
0.3125
  9
$PLINEWID
 40
0.0
  9
$COORDS
 70
     0
  9
$SPLFRAME
 70
     0
  9
$SPLINETYPE
 70
     6
  9
$SPLINESEGS
 70
     8
  9
$ATTDIA
 70
     1
  9
$ATTREQ
 70
     1
  9
$HANDLING
 70
     1
  9
$HANDSEED
  5
389E5
  9
$SURFTAB1
 70
     6
  9
$SURFTAB2
 70
     6
  9
$SURFTYPE
 70
     6
  9
$SURFU
 70
     6
  9
$SURFV
 70
     6
  9
$UCSNAME
  2

  9
$UCSORG
 10
0.0
 20
0.0
 30
0.0
  9
$UCSXDIR
 10
1.0
 20
0.0
 30
0.0
  9
$UCSYDIR
 10
0.0
 20
1.0
 30
0.0
  9
$PUCSNAME
  2

  9
$PUCSORG
 10
0.0
 20
0.0
 30
0.0
  9
$PUCSXDIR
 10
1.0
 20
0.0
 30
0.0
  9
$PUCSYDIR
 10
0.0
 20
1.0
 30
0.0
  9
$USERI1
 70
     0
  9
$USERI2
 70
     0
  9
$USERI3
 70
     0
  9
$USERI4
 70
     0
  9
$USERI5
 70
     0
  9
$USERR1
 40
0.0
  9
$USERR2
 40
0.0
  9
$USERR3
 40
0.0
  9
$USERR4
 40
0.0
  9
$USERR5
 40
0.0
  9
$WORLDVIEW
 70
     1
  9
$SHADEDGE
 70
     3
  9
$SHADEDIF
 70
    70
  9
$TILEMODE
 70
     1
  9
$MAXACTVP
 70
    64
  9
$PLIMCHECK
 70
     0
  9
$PEXTMIN
 10
1.0000000000000000E+20
 20
1.0000000000000000E+20
 30
1.0000000000000000E+20
  9
$PEXTMAX
 10
-1.0000000000000000E+20
 20
-1.0000000000000000E+20
 30
-1.0000000000000000E+20
  9
$PLIMMIN
 10
0.0
 20
0.0
  9
$PLIMMAX
 10
12.0
 20
9.0
  9
$UNITMODE
 70
     0
  9
$VISRETAIN
 70
     1
  9
$PLINEGEN
 70
     0
  9
$PSLTSCALE
 70
     1
  0
ENDSEC
  0
SECTION
  2
TABLES
  0
TABLE
  2
VPORT
 70
     1
  0
VPORT
  2
*ACTIVE
 70
     0
 10
0.0
 20
0.0
 11
1.0
 21
1.0
 12
3064.300813257462778
 22
195.546159151097612
 13
0.0
 23
0.0
 14
1.0
 24
1.0
 15
0.0
 25
0.0
 16
0.0
 26
0.0
 36
60.4960186965801583
 17
3911.3653564453120453
 27
132.5796051025390057
 37
0.0
 40
41.7001028685202684
 41
2.2423167848699759
 42
50.0
 43
0.0
 44
0.0
 50
0.0
 51
0.0
 71
     0
 72
   100
 73
     1
 74
     1
 75
     0
 76
     0
 77
     0
 78
     0
  0
ENDTAB
  0
TABLE
  2
LTYPE
 70
     2
  0
LTYPE
  2
CONTINUOUS
 70
     0
  3
Solid line
 72
    65
 73
     0
 40
0.0
  0
LTYPE
  2
PHANTOM2
 70
     0
  3
___ _ _ ___ _ _ ___ _ _ ___ _ _
 72
    65
 73
     6
 40
1.25
 49
0.625
 49
-0.125
 49
0.125
 49
-0.125
 49
0.125
 49
-0.125
  0
ENDTAB
  0
TABLE
  2
LAYER
 70
     2
  0
LAYER
  2
0
 70
     0
 62
   255
  6
CONTINUOUS
  0
LAYER
  2
DEFPOINTS
 70
     0
 62
     7
  6
CONTINUOUS
  0
ENDTAB
  0
TABLE
  2
STYLE
 70
     1
  0
STYLE
  2
STANDARD
 70
     0
 40
0.0
 41
0.8
 50
0.0
 71
     0
 42
0.2
  3
txt
  4

  0
ENDTAB
  0
TABLE
  2
VIEW
 70
     0
  0
ENDTAB
  0
TABLE
  2
UCS
 70
     0
  0
ENDTAB
  0
TABLE
  2
APPID
 70
    11
  0
APPID
  2
ACAD
 70
     0
  0
APPID
  2
ACAD_MLEADERVER
 70
     0
  0
APPID
  2
ACAD_EXEMPT_FROM_CAD_STANDARDS
 70
     0
  0
APPID
  2
ACAD_NAV_VCDISPLAY
 70
     0
  0
APPID
  2
ACAECLAYERSTANDARD
 70
     0
  0
APPID
  2
ACCMTRANSPARENCY
 70
     0
  0
APPID
  2
ACAD_DSTYLE_DIMJAG
 70
     0
  0
APPID
  2
ACAD_DSTYLE_DIMTALN
 70
     0
  0
APPID
  2
ACDBATTR
 70
     0
  0
APPID
  2
ACADANNOTATIVE
 70
     0
  0
APPID
  2
DCO15
 70
     0
  0
ENDTAB
  0
TABLE
  2
DIMSTYLE
 70
     1
  0
DIMSTYLE
  2
STANDARD
 70
     0
  3

  4

  5

  6

  7

 40
1.0
 41
0.1875
 42
0.0625
 43
0.38
 44
0.125
 45
0.0
 46
0.0
 47
0.01
 48
0.01
140
0.15625
141
0.09
142
0.0
143
25.3999999999999986
144
1.0
145
0.0
146
1.0
147
0.09
 71
     1
 72
     0
 73
     1
 74
     1
 75
     0
 76
     0
 77
     0
 78
     4
170
     0
171
     2
172
     0
173
     0
174
     0
175
     0
176
     0
177
     0
178
     0
  0
ENDTAB
  0
ENDSEC
  0
SECTION
  2
BLOCKS
  0
BLOCK
  8
0
  2
$MODEL_SPACE
 70
     0
 10
0.0
 20
0.0
 30
0.0
  3
$MODEL_SPACE
  1

  0
ENDBLK
  5
21
  8
0
  0
BLOCK
 67
     1
  8
0
  2
$PAPER_SPACE
 70
     0
 10
0.0
 20
0.0
 30
0.0
  3
$PAPER_SPACE
  1

  0
ENDBLK
  5
1D
 67
     1
  8
0
  0
BLOCK
  8
0
  2
_FILLED
 70
     0
 10
0.0
 20
0.0
 30
0.0
  3
_FILLED
  1

  0
SOLID
  5
2853B
  8
0
  6
BYBLOCK
 62
     0
 10
0.0
 20
0.0
 30
0.0
 11
-1.0
 21
0.1666666667
 31
0.0
 12
-1.0
 22
-0.1666666667
 32
0.0
 13
-1.0
 23
-0.1666666667
 33
0.0
  0
ENDBLK
  5
2853C
  8
0
  6
BYBLOCK
 62
     0
  0
ENDSEC
  0
SECTION
  2
ENTITIES
  0
ATTDEF
  5
2842F
  8
DEFPOINTS
 10
6975.6664372071581965
 20
307.4257053656119751
 30
0.0
 40
0.001
  1
P33170-00
  3

  2
MODELNUMBER
 70
     0
1001
ACDBATTR
1070
     0
1070
     1
  0
ATTDEF
  5
28430
  8
DEFPOINTS
 10
6975.6663113975009765
 20
307.424038525232902
 30
0.0
 40
0.001
  1
BEZEL
  3

  2
TRADENAME
 70
     0
1001
ACDBATTR
1070
     0
1070
     1
  0
ATTDEF
  5
28431
  8
DEFPOINTS
 10
6975.6664372071581965
 20
307.4223720322787017
 30
0.0
 40
0.001
  1
BATHROOM SINK FAUCET
  3

  2
PRODUCT
 70
     0
1001
ACDBATTR
1070
     0
1070
     1
  0
LINE
  5
37EA3
  8
0
 10
6976.1035196927932702
 20
345.3787741350636225
 30
0.0
 11
6975.2288197127572857
 21
345.3787741350636225
 31
0.0
  0
LINE
  5
37EA4
  8
0
 10
6976.0984421278699301
 20
345.2468843714046898
 30
0.0
 11
6975.2338972776806258
 21
345.2468843714046898
 31
0.0
  0
LINE
  5
37EA5
  8
0
 10
6975.1208941122258693
 20
345.3038851076087781
 30
0.0
 11
6975.1208941122258693
 21
345.3800190473572229
 31
0.0
  0
ARC
  5
37EA6
  8
0
 10
6975.1666149451866659
 20
345.3137768146866051
 30
0.0
 40
0.0465605786803755
 50
123.7000868627324053
 51
169.1017380623353006
  0
ARC
  5
37EA7
  8
0
 10
6975.2152714367202861
 20
345.2452344334025156
 30
0.0
 40
0.1306044542435777
 50
102.4837578395465982
 51
124.7747306704003023
  0
ARC
  5
37EA8
  8
0
 10
6975.2416383861364011
 20
345.1419365864396127
 30
0.0
 40
0.2371841959857452
 50
93.098072765451974
 51
103.3085931668067019
  0
ARC
  5
37EA9
  8
0
 10
6975.1570867557684323
 20
345.3076161110370208
 30
0.0
 40
0.0363844449335685
 50
185.8856793449706117
 51
217.3368622773404866
  0
ARC
  5
37EAA
  8
0
 10
6975.1792826237879126
 20
345.3245474096902967
 30
0.0
 40
0.0643008456916488
 50
217.3368622773404866
 51
239.113055998013607
  0
ARC
  5
37EAB
  8
0
 10
6975.2192289677923327
 20
345.3913274154529063
 30
0.0
 40
0.1421165225757705
 50
239.113055998013607
 51
250.397740419267592
  0
ARC
  5
37EAC
  8
0
 10
6975.2341044118893478
 20
345.4429527555975028
 30
0.0
 40
0.1957683430812947
 50
251.3654728919069896
 51
264.355475073988373
  0
ARC
  5
37EAD
  8
0
 10
6975.2417868176826232
 20
345.5130167036857074
 30
0.0
 40
0.2662492500023049
 50
264.1932326778671722
 51
268.3019538135488915
  0
LINE
  5
37EAE
  8
0
 10
6975.2205901165243631
 20
345.411833640294617
 30
0.0
 11
6976.1117492890280118
 21
345.411833640294617
 31
0.0
  0
LINE
  5
37EAF
  8
0
 10
6975.0913665531261358
 20
345.3436600551477227
 30
0.0
 11
6975.0913665531261358
 21
345.3186586411034114
 31
0.0
  0
ARC
  5
37EB0
  8
0
 10
6975.1373613285531974
 20
345.3381294532263723
 30
0.0
 40
0.0463260933415753
 50
134.636775319784789
 51
173.1434377264860132
  0
ARC
  5
37EB1
  8
0
 10
6975.1803954527304086
 20
345.2945462138104062
 30
0.0
 40
0.10757504926467
 50
118.9574074712534042
 51
134.636775319784789
  0
ARC
  5
37EB2
  8
0
 10
6975.2152086325795608
 20
345.2227042223630065
 30
0.0
 40
0.1873403350624255
 50
99.9801455314320719
 51
117.6354165202458972
  0
ARC
  5
37EB3
  8
0
 10
6975.2409655911833397
 20
345.0878358497902241
 30
0.0
 40
0.3246378416317794
 50
93.5984607698712807
 51
100.331997516010702
  0
LINE
  5
37EB4
  8
0
 10
6975.1149886004259315
 20
345.3634785457094836
 30
0.0
 11
6975.1149886004259315
 21
345.3401780803376937
 31
0.0
  0
ARC
  5
37EB5
  8
0
 10
6975.1545409939890305
 20
345.3586815028863839
 30
0.0
 40
0.0398422320715515
 50
131.1719958426834864
 51
173.0847565651104105
  0
ARC
  5
37EB6
  8
0
 10
6975.1489252870705968
 20
345.3426414669469864
 30
0.0
 40
0.0340259749906183
 50
184.1516883348211877
 51
214.5312694151793096
  0
ARC
  5
37EB7
  8
0
 10
6975.1400292508551502
 20
345.325191929293112
 30
0.0
 40
0.0490993075797563
 50
187.6466121687176098
 51
229.1699384235631953
  0
ARC
  5
37EB8
  8
0
 10
6975.1792789600540345
 20
345.3666131556432788
 30
0.0
 40
0.1061351756567732
 50
227.7573393396546919
 51
244.6607455606140888
  0
ARC
  5
37EB9
  8
0
 10
6975.2110019985057079
 20
345.4308531800376727
 30
0.0
 40
0.1777752751877326
 50
244.2811822028951951
 51
257.0161815316798197
  0
LINE
  5
37EBA
  8
0
 10
6975.0913665531261358
 20
345.3436600551477227
 30
0.0
 11
6975.1149886004259315
 21
345.3634785457094836
 31
0.0
  0
LINE
  5
37EBB
  8
0
 10
6975.0913665531261358
 20
345.3186586411034114
 30
0.0
 11
6975.1149886004259315
 21
345.3401780803376937
 31
0.0
  0
LINE
  5
37EBC
  8
0
 10
6975.2315847184572704
 20
345.3649946075946104
 30
0.0
 11
6976.1007546870932856
 21
345.3649946075946104
 31
0.0
  0
LINE
  5
37EBD
  8
0
 10
6975.2319709682478788
 20
345.29479203944652
 30
0.0
 11
6976.1003684373017677
 21
345.29479203944652
 31
0.0
  0
LINE
  5
37EBE
  8
0
 10
6975.2283676334682241
 20
345.2606638988946202
 30
0.0
 11
6976.1039717720823319
 21
345.2606638988946202
 31
0.0
  0
LINE
  5
37EBF
  8
0
 10
6975.1484531673249876
 20
345.3222654901867941
 30
0.0
 11
6975.1484531673249876
 21
345.3046753218325193
 31
0.0
  0
ARC
  5
37EC0
  8
0
 10
6975.1806698321433942
 20
345.3162962703028143
 30
0.0
 40
0.0327649977573207
 50
133.857247363971311
 51
169.5030708676729034
  0
ARC
  5
37EC1
  8
0
 10
6975.2037458571758179
 20
345.2922808922820082
 30
0.0
 40
0.0660702723059474
 50
114.5053336579882028
 51
133.857247363971311
  0
ARC
  5
37EC2
  8
0
 10
6975.2310375721708624
 20
345.2324094597524891
 30
0.0
 40
0.1318686472139096
 50
102.6480485059827004
 51
114.5053336579882028
  0
ARC
  5
37EC3
  8
0
 10
6975.240282940166253
 20
345.1871851980620818
 30
0.0
 40
0.1780220356561823
 50
92.8006078080796044
 51
102.3643845485095056
  0
ARC
  5
37EC4
  8
0
 10
6975.1762583435083798
 20
345.3071380219669777
 30
0.0
 40
0.0279140236179457
 50
185.0614707624131086
 51
219.8758877110948049
  0
ARC
  5
37EC5
  8
0
 10
6975.1968790074306526
 20
345.3243648335317175
 30
0.0
 40
0.0547836126968121
 50
219.875887711097306
 51
240.4303667728297
  0
ARC
  5
37EC6
  8
0
 10
6975.2232395777264173
 20
345.3708251461720806
 30
0.0
 40
0.1082012157590474
 50
240.4303667728297
 51
254.5129809864955917
  0
ARC
  5
37EC7
  8
0
 10
6975.2435362580454239
 20
345.4495087172203966
 30
0.0
 40
0.1894530352886638
 50
254.9516148014689065
 51
265.4076776326701861
  0
ARC
  5
37EC8
  8
0
 10
6975.1894698432552104
 20
345.3505254610869883
 30
0.0
 40
0.0440002835127036
 50
208.3418318479980087
 51
235.690106271860202
  0
ARC
  5
37EC9
  8
0
 10
6975.2206199995216593
 20
345.3972183912418927
 30
0.0
 40
0.100128791099357
 50
236.0273084258867016
 51
256.6520039126763209
  0
ARC
  5
37ECA
  8
0
 10
6975.2393652081991604
 20
345.4669803102265178
 30
0.0
 40
0.1723469621974474
 50
255.9428003796342068
 51
267.5410717148733966
  0
ARC
  5
37ECB
  8
0
 10
6975.2509325301889476
 20
345.3585461114784039
 30
0.0
 40
0.0079887293576476
 50
126.1768165648496023
 51
183.1073007527220113
  0
ARC
  5
37ECC
  8
0
 10
6975.2520245633158993
 20
345.3588025791490281
 30
0.0
 40
0.0090951905296246
 50
184.3477563420188119
 51
228.3863366220303988
  0
ARC
  5
37ECD
  8
0
 10
6975.2528003605357299
 20
345.3594703674922926
 30
0.0
 40
0.0101105880217837
 50
227.6125784578420905
 51
269.9065837367364793
  0
ARC
  5
37ECE
  8
0
 10
6975.2528512949129436
 20
345.3597878812017257
 30
0.0
 40
0.0104283062262813
 50
269.6295808180740892
 51
310.1457309400462918
  0
ARC
  5
37ECF
  8
0
 10
6975.2540951933870019
 20
345.3583486788160144
 30
0.0
 40
0.008526217070622
 50
309.9915607955704218
 51
2.3370235296814998
  0
ARC
  5
37ED0
  8
0
 10
6975.2540914874043665
 20
345.3581448587847831
 30
0.0
 40
0.0085406559783217
 50
3.7023471565343571
 51
53.3231178286084599
  0
ARC
  5
37ED1
  8
0
 10
6975.2528508294808489
 20
345.3300513202162847
 30
0.0
 40
0.0104126813355631
 50
47.8359068317624434
 51
90.3684139386644887
  0
ARC
  5
37ED2
  8
0
 10
6975.2541766347339944
 20
345.3315153224036749
 30
0.0
 40
0.0084375707123716
 50
351.8618189218979069
 51
47.8359068317602478
  0
ARC
  5
37ED3
  8
0
 10
6975.2539041598811309
 20
345.3317787503211775
 30
0.0
 40
0.0087474154016247
 50
305.0185064175926186
 51
350.4062255549990255
  0
ARC
  5
37ED4
  8
0
 10
6975.2528877627546535
 20
345.3330700201385071
 30
0.0
 40
0.0103885749514263
 50
277.7171945193770739
 51
305.5226740153934202
  0
ARC
  5
37ED5
  8
0
 10
6975.2528630307388084
 20
345.3321145119263065
 30
0.0
 40
0.0094462781117249
 50
244.4994291126695884
 51
278.6441368833935144
  0
ARC
  5
37ED6
  8
0
 10
6975.2537526184669332
 20
345.3335149909977986
 30
0.0
 40
0.0110951118664085
 50
201.6767770197257903
 51
243.4666105119337942
  0
ARC
  5
37ED7
  8
0
 10
6975.2503424587894187
 20
345.3321595244688069
 30
0.0
 40
0.007425441779664
 50
151.9682320764360952
 51
201.6767770197257903
  0
ARC
  5
37ED8
  8
0
 10
6975.2511970622717854
 20
345.3317045157567122
 30
0.0
 40
0.0083936256682842
 50
111.9188430899388038
 51
151.9682320764360952
  0
ARC
  5
37ED9
  8
0
 10
6975.2531049996832735
 20
345.3269628789649914
 30
0.0
 40
0.0135047258071471
 50
91.3625426300058479
 51
111.9188430899388038
  0
ARC
  5
37EDA
  8
0
 10
6975.2519530282879714
 20
345.3040215957947794
 30
0.0
 40
0.0136935283379641
 50
91.8700003674893964
 51
121.9999666138861016
  0
ARC
  5
37EDB
  8
0
 10
6975.2528853910680482
 20
345.3008747284371225
 30
0.0
 40
0.0168895107589337
 50
66.0695804288579183
 51
94.6840255983135535
  0
ARC
  5
37EDC
  8
0
 10
6975.2576390125032049
 20
345.3113703260052034
 30
0.0
 40
0.0053686475705733
 50
26.6128954654919703
 51
67.0055512133603628
  0
ARC
  5
37EDD
  8
0
 10
6975.2595820996712064
 20
345.3128301242098814
 30
0.0
 40
0.0030090585928589
 50
304.4398897377647017
 51
18.3064417813064004
  0
ARC
  5
37EDE
  8
0
 10
6975.2533662366531644
 20
345.3219043776433068
 30
0.0
 40
0.0140081050019648
 50
267.6172158405410073
 51
304.4173163771620239
  0
ARC
  5
37EDF
  8
0
 10
6975.2522308131656246
 20
345.3220990584341052
 30
0.0
 40
0.0142014460224431
 50
236.5218952895720008
 51
272.2317669319742777
  0
ARC
  5
37EE0
  8
0
 10
6975.2463989452508031
 20
345.3130842837725254
 30
0.0
 40
0.0034669816520192
 50
184.2184779969952046
 51
234.7306205037282041
  0
ARC
  5
37EE1
  8
0
 10
6975.2466201022407404
 20
345.312479087195527
 30
0.0
 40
0.0036953738296941
 50
121.3674229406141052
 51
174.5626122491428873
  0
LINE
  5
37EE2
  8
0
 10
6975.2512641487910514
 20
345.322668233814511
 30
0.0
 11
6976.0810752567585951
 21
345.322668233814511
 31
0.0
  0
LINE
  5
37EE3
  8
0
 10
6975.2515045296267999
 20
345.3029867335945937
 30
0.0
 11
6976.080834875925575
 21
345.3029867335945937
 31
0.0
  0
ARC
  5
37EE4
  8
0
 10
6975.2522439601652877
 20
345.2901534292677752
 30
0.0
 40
0.032529564169193
 50
91.7260467517828602
 51
113.5903961615778002
  0
ARC
  5
37EE5
  8
0
 10
6975.2444031744753374
 20
345.3081915400056232
 30
0.0
 40
0.0128610979180456
 50
113.7384776747692996
 51
144.5233532863244932
  0
ARC
  5
37EE6
  8
0
 10
6975.2378441626087806
 20
345.3128660052838086
 30
0.0
 40
0.0048068281010643
 50
144.5233532863244932
 51
209.3126570675393907
  0
ARC
  5
37EE7
  8
0
 10
6975.2425598743284354
 20
345.3155137092455789
 30
0.0
 40
0.0102149953773752
 50
209.3126570675393907
 51
238.0199107561695087
  0
ARC
  5
37EE8
  8
0
 10
6975.2490274606689127
 20
345.3258720190880808
 30
0.0
 40
0.0224266396513169
 50
238.0199107561695087
 51
257.6869038445249203
  0
ARC
  5
37EE9
  8
0
 10
6975.2538429441046901
 20
345.3479335920818016
 30
0.0
 40
0.0450076467963748
 50
257.6869038445249203
 51
267.0218031384571873
  0
ARC
  5
37EEA
  8
0
 10
6975.245705226672726
 20
345.2889867038380203
 30
0.0
 40
0.0110514380962286
 50
91.7640116720177161
 51
102.5463270263254003
  0
ARC
  5
37EEB
  8
0
 10
6975.2495322885206406
 20
345.2147408328805795
 30
0.0
 40
0.0853938143605408
 50
90.2050624356932218
 51
92.7971715645086732
  0
ARC
  5
37EEC
  8
0
 10
6975.251005269741654
 20
345.2178461574354174
 30
0.0
 40
0.0823071624153886
 50
88.7617776718231681
 51
91.2382223281768177
  0
ARC
  5
37EED
  8
0
 10
6975.2535097326226605
 20
345.2268464228843072
 30
0.0
 40
0.0732912718682145
 50
85.3004195788820994
 51
90.5674509173352646
  0
ARC
  5
37EEE
  8
0
 10
6975.2582167768287036
 20
345.2821951047611151
 30
0.0
 40
0.0177437087641405
 50
77.5227127959115876
 51
85.8055652008768845
  0
ARC
  5
37EEF
  8
0
 10
6975.2616008512759436
 20
345.2976318652804935
 30
0.0
 40
0.0019406474762104
 50
62.2914671993160525
 51
76.6073252434654108
  0
ARC
  5
37EF0
  8
0
 10
6975.2623685389125967
 20
345.2990935658023091
 30
0.0
 40
0.0002896136407758
 50
31.1808170791515309
 51
62.2914671993727822
  0
ARC
  5
37EF1
  8
0
 10
6975.2625139521842357
 20
345.2991995027838925
 30
0.0
 40
0.0001114211977828
 50
308.7461300319741895
 51
23.263950827826779
  0
ARC
  5
37EF2
  8
0
 10
6975.2618927751636875
 20
345.3000268766573981
 30
0.0
 40
0.0011459743429865
 50
283.2586594137198972
 51
307.078151710239581
  0
ARC
  5
37EF3
  8
0
 10
6975.2576268074217296
 20
345.3193882883696801
 30
0.0
 40
0.0209716698992461
 50
272.9150165034366182
 51
282.4711612902780189
  0
ARC
  5
37EF4
  8
0
 10
6975.2529981269035488
 20
345.3837700036650062
 30
0.0
 40
0.0855161035613774
 50
269.8564517859672947
 51
273.8186018104560731
  0
ARC
  5
37EF5
  8
0
 10
6975.25241316814936
 20
345.3481864966877879
 30
0.0
 40
0.0499337042800063
 50
261.5856994602060013
 51
270.425367837601982
  0
ARC
  5
37EF6
  8
0
 10
6975.2463661273213802
 20
345.3075820556867939
 30
0.0
 40
0.0088815642756358
 50
249.3012150304176942
 51
261.8457063360933716
  0
ARC
  5
37EF7
  8
0
 10
6975.2434083152411404
 20
345.299791359602807
 30
0.0
 40
0.0005484518201936
 50
213.0010931168737045
 51
250.6833892852386896
  0
ARC
  5
37EF8
  8
0
 10
6975.2430778641391953
 20
345.2995268054726807
 30
0.0
 40
0.0001339435588038
 50
120.7018675976838011
 51
194.7768181346453957
  0
ARC
  5
37EF9
  8
0
 10
6975.2435440436393037
 20
345.2988447075130125
 30
0.0
 40
0.0009598944694843
 50
104.4488781909534936
 51
123.8418227838018026
  0
ARC
  5
37EFA
  8
0
 10
6975.245705226672726
 20
345.2861471648521956
 30
0.0
 40
0.0110514380962286
 50
91.7640116720177161
 51
102.5463270263254003
  0
ARC
  5
37EFB
  8
0
 10
6975.2495322885188216
 20
345.2119012938949254
 30
0.0
 40
0.0853938143605408
 50
90.2050624356932218
 51
92.7971715645086732
  0
ARC
  5
37EFC
  8
0
 10
6975.251005269741654
 20
345.2150066184495927
 30
0.0
 40
0.0823071624153886
 50
88.7617776718231681
 51
91.2382223281768177
  0
ARC
  5
37EFD
  8
0
 10
6975.2535097326226605
 20
345.2240068838984826
 30
0.0
 40
0.0732912718682145
 50
85.3004195788820994
 51
90.5674509173352646
  0
ARC
  5
37EFE
  8
0
 10
6975.2582167768277941
 20
345.2793555657752904
 30
0.0
 40
0.0177437087641405
 50
77.5227127959115876
 51
85.8055652008768845
  0
ARC
  5
37EFF
  8
0
 10
6975.2616008512759436
 20
345.2947923262947825
 30
0.0
 40
0.0019406474762104
 50
62.2914671993160525
 51
76.6073252434654108
  0
ARC
  5
37F00
  8
0
 10
6975.2623685389125967
 20
345.2962540268165981
 30
0.0
 40
0.0002896136407758
 50
31.1808170791515309
 51
62.2914671993727822
  0
ARC
  5
37F01
  8
0
 10
6975.2625139521842357
 20
345.2963599637981247
 30
0.0
 40
0.0001114211977828
 50
308.7461300319741895
 51
23.263950827826779
  0
ARC
  5
37F02
  8
0
 10
6975.2618927751636875
 20
345.2971873376715735
 30
0.0
 40
0.0011459743429865
 50
283.2586594137198972
 51
307.078151710239581
  0
ARC
  5
37F03
  8
0
 10
6975.2576268074217296
 20
345.316548749384026
 30
0.0
 40
0.0209716698992461
 50
272.9150165034366182
 51
282.4711612902780189
  0
ARC
  5
37F04
  8
0
 10
6975.2529981269035488
 20
345.3809304646791816
 30
0.0
 40
0.0855161035613774
 50
269.8564517859672947
 51
273.8186018104560731
  0
ARC
  5
37F05
  8
0
 10
6975.25241316814936
 20
345.3453469577020201
 30
0.0
 40
0.0499337042800063
 50
261.5856994602060013
 51
270.425367837601982
  0
ARC
  5
37F06
  8
0
 10
6975.2463661273186517
 20
345.304742516701026
 30
0.0
 40
0.0088815642756358
 50
249.3012150304176942
 51
261.8457063360933716
  0
ARC
  5
37F07
  8
0
 10
6975.2434083152411404
 20
345.2969518206169823
 30
0.0
 40
0.0005484518201936
 50
213.0010931168737045
 51
250.6833892852386896
  0
ARC
  5
37F08
  8
0
 10
6975.2430778641391953
 20
345.2966872664870266
 30
0.0
 40
0.0001339435588038
 50
120.7018675976838011
 51
194.7768181346453957
  0
ARC
  5
37F09
  8
0
 10
6975.2435440436393037
 20
345.2960051685271878
 30
0.0
 40
0.0009598944694843
 50
104.4488781909534936
 51
123.8418227838018026
  0
ARC
  5
37F0A
  8
0
 10
6975.245705226672726
 20
345.2918262428522098
 30
0.0
 40
0.0110514380962286
 50
91.7640116720177161
 51
102.5463270263254003
  0
ARC
  5
37F0B
  8
0
 10
6975.2495322885188216
 20
345.2175803718948828
 30
0.0
 40
0.0853938143605408
 50
90.2050624356932218
 51
92.7971715645086732
  0
ARC
  5
37F0C
  8
0
 10
6975.251005269741654
 20
345.2206856964496069
 30
0.0
 40
0.0823071624153886
 50
88.7617776718231681
 51
89.3009887877561539
  0
ARC
  5
37F0D
  8
0
 10
6975.251005269741654
 20
345.2206856964496069
 30
0.0
 40
0.0823071624153886
 50
89.7198469252174533
 51
91.2382223281768177
  0
ARC
  5
37F0E
  8
0
 10
6975.2535097326226605
 20
345.2296859618984968
 30
0.0
 40
0.0732912718682145
 50
85.3004195788820994
 51
90.5674509173352646
  0
ARC
  5
37F0F
  8
0
 10
6975.2582167768277941
 20
345.2850346437751909
 30
0.0
 40
0.0177437087641405
 50
77.5227127959115876
 51
85.8055652008768845
  0
ARC
  5
37F10
  8
0
 10
6975.2616008512759436
 20
345.300471404294683
 30
0.0
 40
0.0019406474762104
 50
62.2914671993160525
 51
76.6073252434654108
  0
ARC
  5
37F11
  8
0
 10
6975.2623685389125967
 20
345.3019331048164986
 30
0.0
 40
0.0002896136407758
 50
31.1808170791515309
 51
62.2914671993727822
  0
ARC
  5
37F12
  8
0
 10
6975.2625139521842357
 20
345.3020390417980821
 30
0.0
 40
0.0001114211977828
 50
308.7461300319741895
 51
23.263950827826779
  0
ARC
  5
37F13
  8
0
 10
6975.2618927751636875
 20
345.3028664156715877
 30
0.0
 40
0.0011459743429865
 50
283.2586594137198972
 51
307.078151710239581
  0
ARC
  5
37F14
  8
0
 10
6975.2576268074217296
 20
345.3222278273839265
 30
0.0
 40
0.0209716698992461
 50
272.9150165034366182
 51
282.4711612902780189
  0
ARC
  5
37F15
  8
0
 10
6975.2529981269035488
 20
345.3866095426790821
 30
0.0
 40
0.0855161035613774
 50
269.8564517859672947
 51
273.8186018104560731
  0
ARC
  5
37F16
  8
0
 10
6975.25241316814936
 20
345.3510260357019774
 30
0.0
 40
0.0499337042800063
 50
261.5856994602060013
 51
270.425367837601982
  0
ARC
  5
37F17
  8
0
 10
6975.2463661273186517
 20
345.3104215947010971
 30
0.0
 40
0.0088815642756358
 50
249.3012150304176942
 51
261.8457063360933716
  0
ARC
  5
37F18
  8
0
 10
6975.2434083152411404
 20
345.3026308986169965
 30
0.0
 40
0.0005484518201936
 50
213.0010931168737045
 51
250.6833892852386896
  0
ARC
  5
37F19
  8
0
 10
6975.2430778641391953
 20
345.3023663444869271
 30
0.0
 40
0.0001339435588038
 50
120.7018675976838011
 51
194.7768181346453957
  0
ARC
  5
37F1A
  8
0
 10
6975.2435440436393037
 20
345.301684246527202
 30
0.0
 40
0.0009598944694843
 50
104.4488781909534936
 51
123.8418227838018026
  0
ARC
  5
37F1B
  8
0
 10
6975.280358606709342
 20
345.3585319941674925
 30
0.0
 40
0.0079887293576476
 50
126.0049339796369026
 51
183.1073007527220113
  0
ARC
  5
37F1C
  8
0
 10
6975.2814506398381127
 20
345.3587884618381167
 30
0.0
 40
0.0090951905296246
 50
184.3477563420188119
 51
228.3863366220303988
  0
ARC
  5
37F1D
  8
0
 10
6975.2822264370579433
 20
345.3594562501813243
 30
0.0
 40
0.0101105880217837
 50
227.6125784578420905
 51
269.9065837367364793
  0
ARC
  5
37F1E
  8
0
 10
6975.2822773714342475
 20
345.3597737638907006
 30
0.0
 40
0.0104283062262813
 50
269.6295808180740892
 51
310.1457309400462918
  0
ARC
  5
37F1F
  8
0
 10
6975.2835212699083058
 20
345.358334561505103
 30
0.0
 40
0.008526217070622
 50
309.9915607955704218
 51
2.3370235296814998
  0
ARC
  5
37F20
  8
0
 10
6975.2835175639256704
 20
345.3581307414738717
 30
0.0
 40
0.0085406559783217
 50
3.7023471565343571
 51
53.4819722869982996
  0
ARC
  5
37F21
  8
0
 10
6975.2822769060030623
 20
345.3300372029053733
 30
0.0
 40
0.0104126813355631
 50
47.8359068317624434
 51
90.3684139386644887
  0
ARC
  5
37F22
  8
0
 10
6975.2836027112571173
 20
345.3315012050928203
 30
0.0
 40
0.0084375707123716
 50
351.8618189218979069
 51
47.8359068317602478
  0
ARC
  5
37F23
  8
0
 10
6975.2833302364006158
 20
345.3317646330102093
 30
0.0
 40
0.0087474154016247
 50
305.0185064175926186
 51
350.4062255549990255
  0
ARC
  5
37F24
  8
0
 10
6975.2823138392759574
 20
345.333055902827482
 30
0.0
 40
0.0103885749514263
 50
277.7171945193770739
 51
305.5226740153934202
  0
ARC
  5
37F25
  8
0
 10
6975.2822891072610219
 20
345.3321003946152814
 30
0.0
 40
0.0094462781117249
 50
244.4994291126695884
 51
266.8671661818380016
  0
ARC
  5
37F26
  8
0
 10
6975.2822891072610219
 20
345.3321003946152814
 30
0.0
 40
0.0094462781117249
 50
273.1328338181619984
 51
278.6441368833935144
  0
ARC
  5
37F27
  8
0
 10
6975.2831786949882371
 20
345.3335008736868872
 30
0.0
 40
0.0110951118664085
 50
201.6767770197257903
 51
243.4666105119337942
  0
ARC
  5
37F28
  8
0
 10
6975.2797685353098132
 20
345.3321454071580092
 30
0.0
 40
0.007425441779664
 50
151.9682320764360952
 51
201.6767770197257903
  0
ARC
  5
37F29
  8
0
 10
6975.2806231387930893
 20
345.3316903984458008
 30
0.0
 40
0.0083936256682842
 50
111.9188430899388038
 51
151.9682320764360952
  0
ARC
  5
37F2A
  8
0
 10
6975.2825310762045774
 20
345.32694876165408
 30
0.0
 40
0.0135047258071471
 50
91.3625426300058479
 51
111.9188430899388038
  0
ARC
  5
37F2B
  8
0
 10
6975.2813791048101848
 20
345.3040074784839248
 30
0.0
 40
0.0136935283379641
 50
91.8700003674893964
 51
121.9999666138861016
  0
ARC
  5
37F2C
  8
0
 10
6975.2823114675893521
 20
345.3008606111260974
 30
0.0
 40
0.0168895107589337
 50
66.0695804288579183
 51
94.6840255983135535
  0
ARC
  5
37F2D
  8
0
 10
6975.2870650890235993
 20
345.3113562086941783
 30
0.0
 40
0.0053686475705733
 50
26.6128954654919703
 51
67.0055512133603628
  0
ARC
  5
37F2E
  8
0
 10
6975.2890081761943293
 20
345.3128160068990269
 30
0.0
 40
0.0030090585928589
 50
304.4398897377647017
 51
18.3064417813064004
  0
ARC
  5
37F2F
  8
0
 10
6975.2827923131726493
 20
345.3218902603323954
 30
0.0
 40
0.0140081050019648
 50
267.6172158405410073
 51
304.4173163771620239
  0
ARC
  5
37F30
  8
0
 10
6975.281656889687838
 20
345.3220849411231939
 30
0.0
 40
0.0142014460224431
 50
236.5218952895720008
 51
272.2317669319742777
  0
ARC
  5
37F31
  8
0
 10
6975.275825021772107
 20
345.3130701664615003
 30
0.0
 40
0.0034669816520192
 50
184.2184779969952046
 51
234.7306205037282041
  0
ARC
  5
37F32
  8
0
 10
6975.2760461787620443
 20
345.3124649698846156
 30
0.0
 40
0.0036953738296941
 50
121.3674229406141052
 51
174.5626122491428873
  0
ARC
  5
37F33
  8
0
 10
6975.2751313031949394
 20
345.2889725865269952
 30
0.0
 40
0.0110514380962286
 50
91.7640116720177161
 51
102.5463270263254003
  0
ARC
  5
37F34
  8
0
 10
6975.2789583650419445
 20
345.214726715569725
 30
0.0
 40
0.0853938143605408
 50
90.2050624356932218
 51
92.7971715645086732
  0
ARC
  5
37F35
  8
0
 10
6975.280431346262958
 20
345.217832040124506
 30
0.0
 40
0.0823071624153886
 50
88.7617776718231681
 51
91.2382223281768177
  0
ARC
  5
37F36
  8
0
 10
6975.2829358091439644
 20
345.2268323055732822
 30
0.0
 40
0.0732912718682145
 50
85.3004195788820994
 51
90.5674509173352646
  0
ARC
  5
37F37
  8
0
 10
6975.287642853349098
 20
345.28218098745009
 30
0.0
 40
0.0177437087641405
 50
77.5227127959115876
 51
85.8055652008768845
  0
ARC
  5
37F38
  8
0
 10
6975.291026927798157
 20
345.2976177479695821
 30
0.0
 40
0.0019406474762104
 50
62.2914671993160525
 51
76.6073252434654108
  0
ARC
  5
37F39
  8
0
 10
6975.2917946154357196
 20
345.2990794484913977
 30
0.0
 40
0.0002896136407758
 50
31.1808170791515309
 51
62.2914671993727822
  0
ARC
  5
37F3A
  8
0
 10
6975.2919400287037206
 20
345.2991853854729811
 30
0.0
 40
0.0001114211977828
 50
308.7461300319741895
 51
23.263950827826779
  0
ARC
  5
37F3B
  8
0
 10
6975.2913188516849914
 20
345.3000127593464867
 30
0.0
 40
0.0011459743429865
 50
283.2586594137198972
 51
307.078151710239581
  0
ARC
  5
37F3C
  8
0
 10
6975.287052883943943
 20
345.3193741710588256
 30
0.0
 40
0.0209716698992461
 50
272.9150165034366182
 51
282.4711612902780189
  0
ARC
  5
37F3D
  8
0
 10
6975.2824242034248527
 20
345.3837558863539812
 30
0.0
 40
0.0855161035613774
 50
269.8564517859672947
 51
273.8186018104560731
  0
ARC
  5
37F3E
  8
0
 10
6975.2818392446706639
 20
345.3481723793768765
 30
0.0
 40
0.0499337042800063
 50
261.5856994602060013
 51
270.425367837601982
  0
ARC
  5
37F3F
  8
0
 10
6975.2757922038408651
 20
345.3075679383758825
 30
0.0
 40
0.0088815642756358
 50
249.3012150304176942
 51
261.8457063360933716
  0
ARC
  5
37F40
  8
0
 10
6975.2728343917633538
 20
345.2997772422917819
 30
0.0
 40
0.0005484518201936
 50
213.0010931168737045
 51
250.6833892852386896
  0
ARC
  5
37F41
  8
0
 10
6975.2725039406623182
 20
345.2995126881618262
 30
0.0
 40
0.0001339435588038
 50
120.7018675976838011
 51
194.7768181346453957
  0
ARC
  5
37F42
  8
0
 10
6975.2729701201596981
 20
345.2988305902021011
 30
0.0
 40
0.0009598944694843
 50
104.4488781909534936
 51
123.8418227838018026
  0
ARC
  5
37F43
  8
0
 10
6975.2751313031931204
 20
345.2861330475412842
 30
0.0
 40
0.0110514380962286
 50
91.7640116720177161
 51
102.5463270263254003
  0
ARC
  5
37F44
  8
0
 10
6975.278958365041035
 20
345.2118871765839003
 30
0.0
 40
0.0853938143605408
 50
90.2050624356932218
 51
92.7971715645086732
  0
ARC
  5
37F45
  8
0
 10
6975.280431346262958
 20
345.2149925011386813
 30
0.0
 40
0.0823071624153886
 50
88.7617776718231681
 51
91.2382223281768177
  0
ARC
  5
37F46
  8
0
 10
6975.2829358091439644
 20
345.223992766587628
 30
0.0
 40
0.0732912718682145
 50
85.3004195788820994
 51
90.5674509173352646
  0
ARC
  5
37F47
  8
0
 10
6975.287642853349098
 20
345.279341448464379
 30
0.0
 40
0.0177437087641405
 50
77.5227127959115876
 51
85.8055652008768845
  0
ARC
  5
37F48
  8
0
 10
6975.291026927798157
 20
345.2947782089838142
 30
0.0
 40
0.0019406474762104
 50
62.2914671993160525
 51
76.6073252434654108
  0
ARC
  5
37F49
  8
0
 10
6975.2917946154357196
 20
345.296239909505573
 30
0.0
 40
0.0002896136407758
 50
31.1808170791515309
 51
62.2914671993727822
  0
ARC
  5
37F4A
  8
0
 10
6975.2919400287037206
 20
345.2963458464872133
 30
0.0
 40
0.0001114211977828
 50
308.7461300319741895
 51
23.263950827826779
  0
ARC
  5
37F4B
  8
0
 10
6975.2913188516849914
 20
345.2971732203607189
 30
0.0
 40
0.0011459743429865
 50
283.2586594137198972
 51
307.078151710239581
  0
ARC
  5
37F4C
  8
0
 10
6975.287052883943943
 20
345.3165346320731146
 30
0.0
 40
0.0209716698992461
 50
272.9150165034366182
 51
282.4711612902780189
  0
ARC
  5
37F4D
  8
0
 10
6975.2824242034248527
 20
345.380916347368327
 30
0.0
 40
0.0855161035613774
 50
269.8564517859672947
 51
273.8186018104560731
  0
ARC
  5
37F4E
  8
0
 10
6975.2818392446706639
 20
345.3453328403911087
 30
0.0
 40
0.0499337042800063
 50
261.5856994602060013
 51
270.425367837601982
  0
ARC
  5
37F4F
  8
0
 10
6975.2757922038408651
 20
345.3047283993901146
 30
0.0
 40
0.0088815642756358
 50
249.3012150304176942
 51
261.8457063360933716
  0
ARC
  5
37F50
  8
0
 10
6975.2728343917633538
 20
345.2969377033061278
 30
0.0
 40
0.0005484518201936
 50
213.0010931168737045
 51
250.6833892852386896
  0
ARC
  5
37F51
  8
0
 10
6975.2725039406623182
 20
345.2966731491760015
 30
0.0
 40
0.0001339435588038
 50
120.7018675976838011
 51
194.7768181346453957
  0
ARC
  5
37F52
  8
0
 10
6975.2729701201596981
 20
345.2959910512162764
 30
0.0
 40
0.0009598944694843
 50
104.4488781909534936
 51
123.8418227838018026
  0
ARC
  5
37F53
  8
0
 10
6975.2751313031931204
 20
345.2918121255412984
 30
0.0
 40
0.0110514380962286
 50
91.7640116720177161
 51
102.5463270263254003
  0
ARC
  5
37F54
  8
0
 10
6975.278958365041035
 20
345.2175662545840282
 30
0.0
 40
0.0853938143605408
 50
90.2050624356932218
 51
92.7971715645086732
  0
ARC
  5
37F55
  8
0
 10
6975.2822516902642747
 20
345.3151824423785001
 30
0.0
 40
0.0122229916137248
 50
266.1710967219767099
 51
269.8043523399464902
  0
ARC
  5
37F56
  8
0
 10
6975.2824534108913213
 20
345.0857504821528892
 30
0.0
 40
0.2172422889351832
 50
90.4271641420743606
 51
91.0024453057437057
  0
ARC
  5
37F57
  8
0
 10
6975.2829358091439644
 20
345.2296718445875854
 30
0.0
 40
0.0732912718682145
 50
85.3004195788820994
 51
90.5674509173352646
  0
ARC
  5
37F58
  8
0
 10
6975.287642853349098
 20
345.2850205264642796
 30
0.0
 40
0.0177437087641405
 50
77.5227127959115876
 51
85.8055652008768845
  0
ARC
  5
37F59
  8
0
 10
6975.291026927798157
 20
345.3004572869837716
 30
0.0
 40
0.0019406474762104
 50
62.2914671993160525
 51
76.6073252434654108
  0
ARC
  5
37F5A
  8
0
 10
6975.2917946154357196
 20
345.3019189875055872
 30
0.0
 40
0.0002896136407758
 50
31.1808170791515309
 51
62.2914671993727822
  0
ARC
  5
37F5B
  8
0
 10
6975.2919400287037206
 20
345.3020249244872275
 30
0.0
 40
0.0001114211977828
 50
308.7461300319741895
 51
23.263950827826779
  0
ARC
  5
37F5C
  8
0
 10
6975.2913188516849914
 20
345.3028522983606763
 30
0.0
 40
0.0011459743429865
 50
283.2586594137198972
 51
307.078151710239581
  0
ARC
  5
37F5D
  8
0
 10
6975.287052883943943
 20
345.3222137100730151
 30
0.0
 40
0.0209716698992461
 50
272.9150165034366182
 51
282.4711612902780189
  0
ARC
  5
37F5E
  8
0
 10
6975.2824242034248527
 20
345.3865954253682276
 30
0.0
 40
0.0855161035613774
 50
269.8564517859672947
 51
273.8186018104560731
  0
ARC
  5
37F5F
  8
0
 10
6975.2818392446706639
 20
345.3510119183911229
 30
0.0
 40
0.0499337042800063
 50
261.5856994602060013
 51
270.425367837601982
  0
ARC
  5
37F60
  8
0
 10
6975.2757922038408651
 20
345.310407477390072
 30
0.0
 40
0.0088815642756358
 50
249.3012150304176942
 51
261.8457063360933716
  0
ARC
  5
37F61
  8
0
 10
6975.2728343917633538
 20
345.3026167813060852
 30
0.0
 40
0.0005484518201936
 50
213.0010931168737045
 51
250.6833892852386896
  0
ARC
  5
37F62
  8
0
 10
6975.2725039406623182
 20
345.3023522271760157
 30
0.0
 40
0.0001339435588038
 50
120.7018675976838011
 51
194.7768181346453957
  0
ARC
  5
37F63
  8
0
 10
6975.2729701201596981
 20
345.3016701292162907
 30
0.0
 40
0.0009598944694843
 50
104.4488781909534936
 51
123.8418227838018026
  0
ARC
  5
37F64
  8
0
 10
6975.3098848815079691
 20
345.3585319941674925
 30
0.0
 40
0.0079887293576476
 50
126.0049339796369026
 51
183.1073007527220113
  0
ARC
  5
37F65
  8
0
 10
6975.3109769146358303
 20
345.3587884618381167
 30
0.0
 40
0.0090951905296246
 50
184.3477563420188119
 51
228.3863366220303988
  0
ARC
  5
37F66
  8
0
 10
6975.3117527118556609
 20
345.3594562501813243
 30
0.0
 40
0.0101105880217837
 50
227.6125784578420905
 51
269.9065837367364793
  0
ARC
  5
37F67
  8
0
 10
6975.3118036462319651
 20
345.3597737638907006
 30
0.0
 40
0.0104283062262813
 50
269.6295808180740892
 51
310.1457309400462918
  0
ARC
  5
37F68
  8
0
 10
6975.3130475447060235
 20
345.358334561505103
 30
0.0
 40
0.008526217070622
 50
309.9915607955704218
 51
2.3370235296814998
  0
ARC
  5
37F69
  8
0
 10
6975.3130438387242975
 20
345.3581307414738717
 30
0.0
 40
0.0085406559783217
 50
3.7023471565343571
 51
53.4819722869982996
  0
ARC
  5
37F6A
  8
0
 10
6975.31180318080078
 20
345.3300372029053733
 30
0.0
 40
0.0104126813355631
 50
47.8359068317624434
 51
90.3684139386644887
  0
ARC
  5
37F6B
  8
0
 10
6975.313128986054835
 20
345.3315012050928203
 30
0.0
 40
0.0084375707123716
 50
351.8618189218979069
 51
47.8359068317602478
  0
ARC
  5
37F6C
  8
0
 10
6975.3128565112010619
 20
345.3317646330102093
 30
0.0
 40
0.0087474154016247
 50
305.0185064175926186
 51
350.4062255549990255
  0
ARC
  5
37F6D
  8
0
 10
6975.3118401140745846
 20
345.333055902827482
 30
0.0
 40
0.0103885749514263
 50
277.7171945193770739
 51
305.5226740153934202
  0
ARC
  5
37F6E
  8
0
 10
6975.311815382059649
 20
345.3321003946152814
 30
0.0
 40
0.0094462781117249
 50
244.4994291126695884
 51
266.8671661818380016
  0
ARC
  5
37F6F
  8
0
 10
6975.311815382059649
 20
345.3321003946152814
 30
0.0
 40
0.0094462781117249
 50
273.1328338181619984
 51
278.6441368833935144
  0
ARC
  5
37F70
  8
0
 10
6975.3127049697868642
 20
345.3335008736868872
 30
0.0
 40
0.0110951118664085
 50
201.6767770197257903
 51
243.4666105119337942
  0
ARC
  5
37F71
  8
0
 10
6975.3092948101066213
 20
345.3321454071580092
 30
0.0
 40
0.007425441779664
 50
151.9682320764360952
 51
201.6767770197257903
  0
ARC
  5
37F72
  8
0
 10
6975.3101494135917164
 20
345.3316903984458008
 30
0.0
 40
0.0083936256682842
 50
111.9188430899388038
 51
151.9682320764360952
  0
ARC
  5
37F73
  8
0
 10
6975.3120573510032045
 20
345.32694876165408
 30
0.0
 40
0.0135047258071471
 50
91.3625426300058479
 51
111.9188430899388038
  0
ARC
  5
37F74
  8
0
 10
6975.3109053796069929
 20
345.3040074784839248
 30
0.0
 40
0.0136935283379641
 50
91.8700003674893964
 51
121.9999666138861016
  0
ARC
  5
37F75
  8
0
 10
6975.3118377423879792
 20
345.3008606111260974
 30
0.0
 40
0.0168895107589337
 50
66.0695804288579183
 51
94.6840255983135535
  0
ARC
  5
37F76
  8
0
 10
6975.3165913638231359
 20
345.3113562086941783
 30
0.0
 40
0.0053686475705733
 50
26.6128954654919703
 51
67.0055512133603628
  0
ARC
  5
37F77
  8
0
 10
6975.3185344509911374
 20
345.3128160068990269
 30
0.0
 40
0.0030090585928589
 50
304.4398897377647017
 51
18.3064417813064004
  0
ARC
  5
37F78
  8
0
 10
6975.3123185879730954
 20
345.3218902603323954
 30
0.0
 40
0.0140081050019648
 50
267.6172158405410073
 51
304.4173163771620239
  0
ARC
  5
37F79
  8
0
 10
6975.3111831644837366
 20
345.3220849411231939
 30
0.0
 40
0.0142014460224431
 50
236.5218952895720008
 51
272.2317669319742777
  0
ARC
  5
37F7A
  8
0
 10
6975.3053512965707341
 20
345.3130701664615003
 30
0.0
 40
0.0034669816520192
 50
184.2184779969952046
 51
234.7306205037282041
  0
ARC
  5
37F7B
  8
0
 10
6975.3055724535606714
 20
345.3124649698846156
 30
0.0
 40
0.0036953738296941
 50
121.3674229406141052
 51
174.5626122491428873
  0
ARC
  5
37F7C
  8
0
 10
6975.304657577992657
 20
345.2889725865269952
 30
0.0
 40
0.0110514380962286
 50
91.7640116720177161
 51
102.5463270263254003
  0
ARC
  5
37F7D
  8
0
 10
6975.3084846398387526
 20
345.214726715569725
 30
0.0
 40
0.0853938143605408
 50
90.2050624356932218
 51
92.7971715645086732
  0
ARC
  5
37F7E
  8
0
 10
6975.3099576210597661
 20
345.217832040124506
 30
0.0
 40
0.0823071624153886
 50
88.7617776718231681
 51
91.2382223281768177
  0
ARC
  5
37F7F
  8
0
 10
6975.3124620839407726
 20
345.2268323055732822
 30
0.0
 40
0.0732912718682145
 50
85.3004195788820994
 51
90.5674509173352646
  0
ARC
  5
37F80
  8
0
 10
6975.3171691281477251
 20
345.28218098745009
 30
0.0
 40
0.0177437087641405
 50
77.5227127959115876
 51
85.8055652008768845
  0
ARC
  5
37F81
  8
0
 10
6975.3205532025958746
 20
345.2976177479695821
 30
0.0
 40
0.0019406474762104
 50
62.2914671993160525
 51
76.6073252434654108
  0
ARC
  5
37F82
  8
0
 10
6975.3213208902352562
 20
345.2990794484913977
 30
0.0
 40
0.0002896136407758
 50
31.1808170791515309
 51
62.2914671993727822
  0
ARC
  5
37F83
  8
0
 10
6975.3214663035041667
 20
345.2991853854729811
 30
0.0
 40
0.0001114211977828
 50
308.7461300319741895
 51
23.263950827826779
  0
ARC
  5
37F84
  8
0
 10
6975.320845126486347
 20
345.3000127593464867
 30
0.0
 40
0.0011459743429865
 50
283.2586594137198972
 51
307.078151710239581
  0
ARC
  5
37F85
  8
0
 10
6975.3165791587398417
 20
345.3193741710588256
 30
0.0
 40
0.0209716698992461
 50
272.9150165034366182
 51
282.4711612902780189
  0
ARC
  5
37F86
  8
0
 10
6975.3119504782225704
 20
345.3837558863539812
 30
0.0
 40
0.0855161035613774
 50
269.8564517859672947
 51
273.8186018104560731
  0
ARC
  5
37F87
  8
0
 10
6975.3113655194702005
 20
345.3481723793768765
 30
0.0
 40
0.0499337042800063
 50
261.5856994602060013
 51
270.425367837601982
  0
ARC
  5
37F88
  8
0
 10
6975.3053184786385827
 20
345.3075679383758825
 30
0.0
 40
0.0088815642756358
 50
249.3012150304176942
 51
261.8457063360933716
  0
ARC
  5
37F89
  8
0
 10
6975.3023606665601619
 20
345.2997772422917819
 30
0.0
 40
0.0005484518201936
 50
213.0010931168737045
 51
250.6833892852386896
  0
ARC
  5
37F8A
  8
0
 10
6975.3020302154591263
 20
345.2995126881618262
 30
0.0
 40
0.0001339435588038
 50
120.7018675976838011
 51
194.7768181346453957
  0
ARC
  5
37F8B
  8
0
 10
6975.3024963949592347
 20
345.2988305902021011
 30
0.0
 40
0.0009598944694843
 50
104.4488781909534936
 51
123.8418227838018026
  0
ARC
  5
37F8C
  8
0
 10
6975.304657577992657
 20
345.2861330475412842
 30
0.0
 40
0.0110514380962286
 50
91.7640116720177161
 51
102.5463270263254003
  0
ARC
  5
37F8D
  8
0
 10
6975.3084846398387526
 20
345.2118871765839003
 30
0.0
 40
0.0853938143605408
 50
90.2050624356932218
 51
92.7971715645086732
  0
ARC
  5
37F8E
  8
0
 10
6975.3099576210597661
 20
345.2149925011386813
 30
0.0
 40
0.0823071624153886
 50
88.7617776718231681
 51
91.2382223281768177
  0
ARC
  5
37F8F
  8
0
 10
6975.3124620839407726
 20
345.223992766587628
 30
0.0
 40
0.0732912718682145
 50
85.3004195788820994
 51
90.5674509173352646
  0
ARC
  5
37F90
  8
0
 10
6975.3171691281477251
 20
345.279341448464379
 30
0.0
 40
0.0177437087641405
 50
77.5227127959115876
 51
85.8055652008768845
  0
ARC
  5
37F91
  8
0
 10
6975.3205532025958746
 20
345.2947782089838142
 30
0.0
 40
0.0019406474762104
 50
62.2914671993160525
 51
76.6073252434654108
  0
ARC
  5
37F92
  8
0
 10
6975.3213208902352562
 20
345.296239909505573
 30
0.0
 40
0.0002896136407758
 50
31.1808170791515309
 51
62.2914671993727822
  0
ARC
  5
37F93
  8
0
 10
6975.3214663035041667
 20
345.2963458464872133
 30
0.0
 40
0.0001114211977828
 50
308.7461300319741895
 51
23.263950827826779
  0
ARC
  5
37F94
  8
0
 10
6975.3208451264836185
 20
345.2971732203607189
 30
0.0
 40
0.0011459743429865
 50
283.2586594137198972
 51
307.078151710239581
  0
ARC
  5
37F95
  8
0
 10
6975.3165791587398417
 20
345.3165346320731146
 30
0.0
 40
0.0209716698992461
 50
272.9150165034366182
 51
282.4711612902780189
  0
ARC
  5
37F96
  8
0
 10
6975.3119504782225704
 20
345.380916347368327
 30
0.0
 40
0.0855161035613774
 50
269.8564517859672947
 51
273.8186018104560731
  0
ARC
  5
37F97
  8
0
 10
6975.3113655194702005
 20
345.3453328403911087
 30
0.0
 40
0.0499337042800063
 50
261.5856994602060013
 51
270.425367837601982
  0
ARC
  5
37F98
  8
0
 10
6975.3053184786385827
 20
345.3047283993901146
 30
0.0
 40
0.0088815642756358
 50
249.3012150304176942
 51
261.8457063360933716
  0
ARC
  5
37F99
  8
0
 10
6975.3023606665601619
 20
345.2969377033061278
 30
0.0
 40
0.0005484518201936
 50
213.0010931168737045
 51
250.6833892852386896
  0
ARC
  5
37F9A
  8
0
 10
6975.3020302154582168
 20
345.2966731491760015
 30
0.0
 40
0.0001339435588038
 50
120.7018675976838011
 51
194.7768181346453957
  0
ARC
  5
37F9B
  8
0
 10
6975.3024963949574158
 20
345.2959910512162764
 30
0.0
 40
0.0009598944694843
 50
104.4488781909534936
 51
123.8418227838018026
  0
ARC
  5
37F9C
  8
0
 10
6975.304657577992657
 20
345.2918121255412984
 30
0.0
 40
0.0110514380962286
 50
91.7640116720177161
 51
102.5463270263254003
  0
ARC
  5
37F9D
  8
0
 10
6975.3084846398387526
 20
345.2175662545840282
 30
0.0
 40
0.0853938143605408
 50
90.2050624356932218
 51
92.7971715645086732
  0
ARC
  5
37F9E
  8
0
 10
6975.3117779650619923
 20
345.3151824423785001
 30
0.0
 40
0.0122229916137248
 50
266.1710967219767099
 51
269.8043523399464902
  0
ARC
  5
37F9F
  8
0
 10
6975.3119796856881294
 20
345.0857504821528892
 30
0.0
 40
0.2172422889351832
 50
90.4271641420743606
 51
91.0024453057437057
  0
ARC
  5
37FA0
  8
0
 10
6975.3124620839407726
 20
345.2296718445875854
 30
0.0
 40
0.0732912718682145
 50
85.3004195788820994
 51
90.5674509173352646
  0
ARC
  5
37FA1
  8
0
 10
6975.3171691281477251
 20
345.2850205264642796
 30
0.0
 40
0.0177437087641405
 50
77.5227127959115876
 51
85.8055652008768845
  0
ARC
  5
37FA2
  8
0
 10
6975.3205532025958746
 20
345.3004572869837716
 30
0.0
 40
0.0019406474762104
 50
62.2914671993160525
 51
76.6073252434654108
  0
ARC
  5
37FA3
  8
0
 10
6975.3213208902352562
 20
345.3019189875055872
 30
0.0
 40
0.0002896136407758
 50
31.1808170791515309
 51
62.2914671993727822
  0
ARC
  5
37FA4
  8
0
 10
6975.3214663035041667
 20
345.3020249244872275
 30
0.0
 40
0.0001114211977828
 50
308.7461300319741895
 51
23.263950827826779
  0
ARC
  5
37FA5
  8
0
 10
6975.3208451264836185
 20
345.3028522983606763
 30
0.0
 40
0.0011459743429865
 50
283.2586594137198972
 51
307.078151710239581
  0
ARC
  5
37FA6
  8
0
 10
6975.3165791587398417
 20
345.3222137100730151
 30
0.0
 40
0.0209716698992461
 50
272.9150165034366182
 51
282.4711612902780189
  0
ARC
  5
37FA7
  8
0
 10
6975.3119504782225704
 20
345.3865954253682276
 30
0.0
 40
0.0855161035613774
 50
269.8564517859672947
 51
273.8186018104560731
  0
ARC
  5
37FA8
  8
0
 10
6975.3113655194702005
 20
345.3510119183911229
 30
0.0
 40
0.0499337042800063
 50
261.5856994602060013
 51
270.425367837601982
  0
ARC
  5
37FA9
  8
0
 10
6975.3053184786385827
 20
345.310407477390072
 30
0.0
 40
0.0088815642756358
 50
249.3012150304176942
 51
261.8457063360933716
  0
ARC
  5
37FAA
  8
0
 10
6975.3023606665601619
 20
345.3026167813060852
 30
0.0
 40
0.0005484518201936
 50
213.0010931168737045
 51
250.6833892852386896
  0
ARC
  5
37FAB
  8
0
 10
6975.3020302154582168
 20
345.3023522271760157
 30
0.0
 40
0.0001339435588038
 50
120.7018675976838011
 51
194.7768181346453957
  0
ARC
  5
37FAC
  8
0
 10
6975.3024963949574158
 20
345.3016701292162907
 30
0.0
 40
0.0009598944694843
 50
104.4488781909534936
 51
123.8418227838018026
  0
ARC
  5
37FAD
  8
0
 10
6975.3394139011470543
 20
345.3585319941674925
 30
0.0
 40
0.0079887293576476
 50
126.0049339796369026
 51
183.1073007527220113
  0
ARC
  5
37FAE
  8
0
 10
6975.3405059342749155
 20
345.3587884618381167
 30
0.0
 40
0.0090951905296246
 50
184.3477563420188119
 51
228.3863366220303988
  0
ARC
  5
37FAF
  8
0
 10
6975.341281731496565
 20
345.3594562501813243
 30
0.0
 40
0.0101105880217837
 50
227.6125784578420905
 51
269.9065837367364793
  0
ARC
  5
37FB0
  8
0
 10
6975.3413326658737788
 20
345.3597737638907006
 30
0.0
 40
0.0104283062262813
 50
269.6295808180740892
 51
310.1457309400462918
  0
ARC
  5
37FB1
  8
0
 10
6975.3425765643451086
 20
345.358334561505103
 30
0.0
 40
0.008526217070622
 50
309.9915607955704218
 51
2.3370235296814998
  0
ARC
  5
37FB2
  8
0
 10
6975.3425728583652017
 20
345.3581307414738717
 30
0.0
 40
0.0085406559783217
 50
3.7023471565343571
 51
53.4819722869982996
  0
ARC
  5
37FB3
  8
0
 10
6975.3413322004425936
 20
345.3300372029053733
 30
0.0
 40
0.0104126813355631
 50
47.8359068317624434
 51
90.3684139386644887
  0
ARC
  5
37FB4
  8
0
 10
6975.3426580056948296
 20
345.3315012050928203
 30
0.0
 40
0.0084375707123716
 50
351.8618189218979069
 51
47.8359068317602478
  0
ARC
  5
37FB5
  8
0
 10
6975.3423855308401471
 20
345.3317646330102093
 30
0.0
 40
0.0087474154016247
 50
305.0185064175926186
 51
350.4062255549990255
  0
ARC
  5
37FB6
  8
0
 10
6975.3413691337145792
 20
345.333055902827482
 30
0.0
 40
0.0103885749514263
 50
277.7171945193770739
 51
305.5226740153934202
  0
ARC
  5
37FB7
  8
0
 10
6975.3413444016996436
 20
345.3321003946152814
 30
0.0
 40
0.0094462781117249
 50
244.4994291126695884
 51
266.8671661818380016
  0
ARC
  5
37FB8
  8
0
 10
6975.3413444016996436
 20
345.3321003946152814
 30
0.0
 40
0.0094462781117249
 50
273.1328338181619984
 51
278.6441368833935144
  0
ARC
  5
37FB9
  8
0
 10
6975.3422339894268589
 20
345.3335008736868872
 30
0.0
 40
0.0110951118664085
 50
201.6767770197257903
 51
243.4666105119337942
  0
ARC
  5
37FBA
  8
0
 10
6975.3388238297493444
 20
345.3321454071580092
 30
0.0
 40
0.007425441779664
 50
151.9682320764360952
 51
201.6767770197257903
  0
ARC
  5
37FBB
  8
0
 10
6975.3396784332326206
 20
345.3316903984458008
 30
0.0
 40
0.0083936256682842
 50
111.9188430899388038
 51
151.9682320764360952
  0
ARC
  5
37FBC
  8
0
 10
6975.3415863706431992
 20
345.32694876165408
 30
0.0
 40
0.0135047258071471
 50
91.3625426300058479
 51
111.9188430899388038
  0
ARC
  5
37FBD
  8
0
 10
6975.3404343992488066
 20
345.3040074784839248
 30
0.0
 40
0.0136935283379641
 50
91.8700003674893964
 51
121.9999666138861016
  0
ARC
  5
37FBE
  8
0
 10
6975.3413667620279739
 20
345.3008606111260974
 30
0.0
 40
0.0168895107589337
 50
66.0695804288579183
 51
94.6840255983135535
  0
ARC
  5
37FBF
  8
0
 10
6975.3461203834631306
 20
345.3113562086941783
 30
0.0
 40
0.0053686475705733
 50
26.6128954654919703
 51
67.0055512133603628
  0
ARC
  5
37FC0
  8
0
 10
6975.3480634706320416
 20
345.3128160068990269
 30
0.0
 40
0.0030090585928589
 50
304.4398897377647017
 51
18.3064417813064004
  0
ARC
  5
37FC1
  8
0
 10
6975.3418476076130901
 20
345.3218902603323954
 30
0.0
 40
0.0140081050019648
 50
267.6172158405410073
 51
304.4173163771620239
  0
ARC
  5
37FC2
  8
0
 10
6975.3407121841255503
 20
345.3220849411231939
 30
0.0
 40
0.0142014460224431
 50
236.5218952895720008
 51
272.2317669319742777
  0
ARC
  5
37FC3
  8
0
 10
6975.3348803162107288
 20
345.3130701664615003
 30
0.0
 40
0.0034669816520192
 50
184.2184779969952046
 51
234.7306205037282041
  0
ARC
  5
37FC4
  8
0
 10
6975.3351014732015756
 20
345.3124649698846156
 30
0.0
 40
0.0036953738296941
 50
121.3674229406141052
 51
174.5626122491428873
  0
ARC
  5
37FC5
  8
0
 10
6975.3341865976335612
 20
345.2889725865269952
 30
0.0
 40
0.0110514380962286
 50
91.7640116720177161
 51
102.5463270263254003
  0
ARC
  5
37FC6
  8
0
 10
6975.3380136594805663
 20
345.214726715569725
 30
0.0
 40
0.0853938143605408
 50
90.2050624356932218
 51
92.7971715645086732
  0
ARC
  5
37FC7
  8
0
 10
6975.3394866407015797
 20
345.217832040124506
 30
0.0
 40
0.0823071624153886
 50
88.7617776718231681
 51
91.2382223281768177
  0
ARC
  5
37FC8
  8
0
 10
6975.3419911035825862
 20
345.2268323055732822
 30
0.0
 40
0.0732912718682145
 50
85.3004195788820994
 51
90.5674509173352646
  0
ARC
  5
37FC9
  8
0
 10
6975.3466981477877198
 20
345.28218098745009
 30
0.0
 40
0.0177437087641405
 50
77.5227127959115876
 51
85.8055652008768845
  0
ARC
  5
37FCA
  8
0
 10
6975.3500822222358693
 20
345.2976177479695821
 30
0.0
 40
0.0019406474762104
 50
62.2914671993160525
 51
76.6073252434654108
  0
ARC
  5
37FCB
  8
0
 10
6975.3508499098743414
 20
345.2990794484913977
 30
0.0
 40
0.0002896136407758
 50
31.1808170791515309
 51
62.2914671993727822
  0
ARC
  5
37FCC
  8
0
 10
6975.3509953231432519
 20
345.2991853854729811
 30
0.0
 40
0.0001114211977828
 50
308.7461300319741895
 51
23.263950827826779
  0
ARC
  5
37FCD
  8
0
 10
6975.3503741461236132
 20
345.3000127593464867
 30
0.0
 40
0.0011459743429865
 50
283.2586594137198972
 51
307.078151710239581
  0
ARC
  5
37FCE
  8
0
 10
6975.3461081783807458
 20
345.3193741710588256
 30
0.0
 40
0.0209716698992461
 50
272.9150165034366182
 51
282.4711612902780189
  0
ARC
  5
37FCF
  8
0
 10
6975.341479497862565
 20
345.3837558863539812
 30
0.0
 40
0.0855161035613774
 50
269.8564517859672947
 51
273.8186018104560731
  0
ARC
  5
37FD0
  8
0
 10
6975.3408945391101952
 20
345.3481723793768765
 30
0.0
 40
0.0499337042800063
 50
261.5856994602060013
 51
270.425367837601982
  0
ARC
  5
37FD1
  8
0
 10
6975.3348474982803964
 20
345.3075679383758825
 30
0.0
 40
0.0088815642756358
 50
249.3012150304176942
 51
261.8457063360933716
  0
ARC
  5
37FD2
  8
0
 10
6975.3318896862019756
 20
345.2997772422917819
 30
0.0
 40
0.0005484518201936
 50
213.0010931168737045
 51
250.6833892852386896
  0
ARC
  5
37FD3
  8
0
 10
6975.3315592350982115
 20
345.2995126881618262
 30
0.0
 40
0.0001339435588038
 50
120.7018675976838011
 51
194.7768181346453957
  0
ARC
  5
37FD4
  8
0
 10
6975.3320254145992294
 20
345.2988305902021011
 30
0.0
 40
0.0009598944694843
 50
104.4488781909534936
 51
123.8418227838018026
  0
ARC
  5
37FD5
  8
0
 10
6975.3341865976335612
 20
345.2861330475412842
 30
0.0
 40
0.0110514380962286
 50
91.7640116720177161
 51
102.5463270263254003
  0
ARC
  5
37FD6
  8
0
 10
6975.3380136594805663
 20
345.2118871765839003
 30
0.0
 40
0.0853938143605408
 50
90.2050624356932218
 51
92.7971715645086732
  0
ARC
  5
37FD7
  8
0
 10
6975.3394866407015797
 20
345.2149925011386813
 30
0.0
 40
0.0823071624153886
 50
88.7617776718231681
 51
91.2382223281768177
  0
ARC
  5
37FD8
  8
0
 10
6975.3419911035825862
 20
345.223992766587628
 30
0.0
 40
0.0732912718682145
 50
85.3004195788820994
 51
90.5674509173352646
  0
ARC
  5
37FD9
  8
0
 10
6975.3466981477877198
 20
345.279341448464379
 30
0.0
 40
0.0177437087641405
 50
77.5227127959115876
 51
85.8055652008768845
  0
ARC
  5
37FDA
  8
0
 10
6975.3500822222358693
 20
345.2947782089838142
 30
0.0
 40
0.0019406474762104
 50
62.2914671993160525
 51
76.6073252434654108
  0
ARC
  5
37FDB
  8
0
 10
6975.3508499098743414
 20
345.296239909505573
 30
0.0
 40
0.0002896136407758
 50
31.1808170791515309
 51
62.2914671993727822
  0
ARC
  5
37FDC
  8
0
 10
6975.3509953231432519
 20
345.2963458464872133
 30
0.0
 40
0.0001114211977828
 50
308.7461300319741895
 51
23.263950827826779
  0
ARC
  5
37FDD
  8
0
 10
6975.3503741461236132
 20
345.2971732203607189
 30
0.0
 40
0.0011459743429865
 50
283.2586594137198972
 51
307.078151710239581
  0
ARC
  5
37FDE
  8
0
 10
6975.3461081783807458
 20
345.3165346320731146
 30
0.0
 40
0.0209716698992461
 50
272.9150165034366182
 51
282.4711612902780189
  0
ARC
  5
37FDF
  8
0
 10
6975.341479497862565
 20
345.380916347368327
 30
0.0
 40
0.0855161035613774
 50
269.8564517859672947
 51
273.8186018104560731
  0
ARC
  5
37FE0
  8
0
 10
6975.3408945391101952
 20
345.3453328403911087
 30
0.0
 40
0.0499337042800063
 50
261.5856994602060013
 51
270.425367837601982
  0
ARC
  5
37FE1
  8
0
 10
6975.3348474982803964
 20
345.3047283993901146
 30
0.0
 40
0.0088815642756358
 50
249.3012150304176942
 51
261.8457063360933716
  0
ARC
  5
37FE2
  8
0
 10
6975.3318896862010661
 20
345.2969377033061278
 30
0.0
 40
0.0005484518201936
 50
213.0010931168737045
 51
250.6833892852386896
  0
ARC
  5
37FE3
  8
0
 10
6975.3315592350982115
 20
345.2966731491760015
 30
0.0
 40
0.0001339435588038
 50
120.7018675976838011
 51
194.7768181346453957
  0
ARC
  5
37FE4
  8
0
 10
6975.3320254145992294
 20
345.2959910512162764
 30
0.0
 40
0.0009598944694843
 50
104.4488781909534936
 51
123.8418227838018026
  0
ARC
  5
37FE5
  8
0
 10
6975.3341865976335612
 20
345.2918121255412984
 30
0.0
 40
0.0110514380962286
 50
91.7640116720177161
 51
102.5463270263254003
  0
ARC
  5
37FE6
  8
0
 10
6975.3380136594805663
 20
345.2175662545840282
 30
0.0
 40
0.0853938143605408
 50
90.2050624356932218
 51
92.7971715645086732
  0
ARC
  5
37FE7
  8
0
 10
6975.3413069847019869
 20
345.3151824423785001
 30
0.0
 40
0.0122229916137248
 50
266.1710967219767099
 51
269.8043523399464902
  0
ARC
  5
37FE8
  8
0
 10
6975.341508705329943
 20
345.0857504821528892
 30
0.0
 40
0.2172422889351832
 50
90.4271641420743606
 51
91.0024453057437057
  0
ARC
  5
37FE9
  8
0
 10
6975.3419911035825862
 20
345.2296718445875854
 30
0.0
 40
0.0732912718682145
 50
85.3004195788820994
 51
90.5674509173352646
  0
ARC
  5
37FEA
  8
0
 10
6975.3466981477877198
 20
345.2850205264642796
 30
0.0
 40
0.0177437087641405
 50
77.5227127959115876
 51
85.8055652008768845
  0
ARC
  5
37FEB
  8
0
 10
6975.3500822222358693
 20
345.3004572869837716
 30
0.0
 40
0.0019406474762104
 50
62.2914671993160525
 51
76.6073252434654108
  0
ARC
  5
37FEC
  8
0
 10
6975.3508499098743414
 20
345.3019189875055872
 30
0.0
 40
0.0002896136407758
 50
31.1808170791515309
 51
62.2914671993727822
  0
ARC
  5
37FED
  8
0
 10
6975.3509953231432519
 20
345.3020249244872275
 30
0.0
 40
0.0001114211977828
 50
308.7461300319741895
 51
23.263950827826779
  0
ARC
  5
37FEE
  8
0
 10
6975.3503741461236132
 20
345.3028522983606763
 30
0.0
 40
0.0011459743429865
 50
283.2586594137198972
 51
307.078151710239581
  0
ARC
  5
37FEF
  8
0
 10
6975.3461081783807458
 20
345.3222137100730151
 30
0.0
 40
0.0209716698992461
 50
272.9150165034366182
 51
282.4711612902780189
  0
ARC
  5
37FF0
  8
0
 10
6975.341479497862565
 20
345.3865954253682276
 30
0.0
 40
0.0855161035613774
 50
269.8564517859672947
 51
273.8186018104560731
  0
ARC
  5
37FF1
  8
0
 10
6975.3408945391101952
 20
345.3510119183911229
 30
0.0
 40
0.0499337042800063
 50
261.5856994602060013
 51
270.425367837601982
  0
ARC
  5
37FF2
  8
0
 10
6975.3348474982803964
 20
345.310407477390072
 30
0.0
 40
0.0088815642756358
 50
249.3012150304176942
 51
261.8457063360933716
  0
ARC
  5
37FF3
  8
0
 10
6975.3318896862010661
 20
345.3026167813060852
 30
0.0
 40
0.0005484518201936
 50
213.0010931168737045
 51
250.6833892852386896
  0
ARC
  5
37FF4
  8
0
 10
6975.3315592350982115
 20
345.3023522271760157
 30
0.0
 40
0.0001339435588038
 50
120.7018675976838011
 51
194.7768181346453957
  0
ARC
  5
37FF5
  8
0
 10
6975.3320254145992294
 20
345.3016701292162907
 30
0.0
 40
0.0009598944694843
 50
104.4488781909534936
 51
123.8418227838018026
  0
ARC
  5
37FF6
  8
0
 10
6975.3689399996737848
 20
345.3585319941674925
 30
0.0
 40
0.0079887293576476
 50
126.0049339796369026
 51
183.1073007527220113
  0
ARC
  5
37FF7
  8
0
 10
6975.370032032801646
 20
345.3587884618381167
 30
0.0
 40
0.0090951905296246
 50
184.3477563420188119
 51
228.3863366220303988
  0
ARC
  5
37FF8
  8
0
 10
6975.370807830022386
 20
345.3594562501813243
 30
0.0
 40
0.0101105880217837
 50
227.6125784578420905
 51
269.9065837367364793
  0
ARC
  5
37FF9
  8
0
 10
6975.3708587643986903
 20
345.3597737638907006
 30
0.0
 40
0.0104283062262813
 50
269.6295808180740892
 51
310.1457309400462918
  0
ARC
  5
37FFA
  8
0
 10
6975.3721026628718391
 20
345.358334561505103
 30
0.0
 40
0.008526217070622
 50
309.9915607955704218
 51
2.3370235296814998
  0
ARC
  5
37FFB
  8
0
 10
6975.3720989568901132
 20
345.3581307414738717
 30
0.0
 40
0.0085406559783217
 50
3.7023471565343571
 51
53.4819722869982996
  0
ARC
  5
37FFC
  8
0
 10
6975.3708582989693241
 20
345.3300372029053733
 30
0.0
 40
0.0104126813355631
 50
47.8359068317624434
 51
90.3684139386644887
  0
ARC
  5
37FFD
  8
0
 10
6975.3721841042197411
 20
345.3315012050928203
 30
0.0
 40
0.0084375707123716
 50
351.8618189218979069
 51
47.8359068317602478
  0
ARC
  5
37FFE
  8
0
 10
6975.3719116293659681
 20
345.3317646330102093
 30
0.0
 40
0.0087474154016247
 50
305.0185064175926186
 51
350.4062255549990255
  0
ARC
  5
37FFF
  8
0
 10
6975.3708952322413097
 20
345.333055902827482
 30
0.0
 40
0.0103885749514263
 50
277.7171945193770739
 51
305.5226740153934202
  0
ARC
  5
38000
  8
0
 10
6975.3708705002245551
 20
345.3321003946152814
 30
0.0
 40
0.0094462781117249
 50
244.4994291126695884
 51
266.8671661818380016
  0
ARC
  5
38001
  8
0
 10
6975.3708705002245551
 20
345.3321003946152814
 30
0.0
 40
0.0094462781117249
 50
273.1328338181619984
 51
278.6441368833935144
  0
ARC
  5
38002
  8
0
 10
6975.3717600879517704
 20
345.3335008736868872
 30
0.0
 40
0.0110951118664085
 50
201.6767770197257903
 51
243.4666105119337942
  0
ARC
  5
38003
  8
0
 10
6975.3683499282742559
 20
345.3321454071580092
 30
0.0
 40
0.007425441779664
 50
151.9682320764360952
 51
201.6767770197257903
  0
ARC
  5
38004
  8
0
 10
6975.3692045317584416
 20
345.3316903984458008
 30
0.0
 40
0.0083936256682842
 50
111.9188430899388038
 51
151.9682320764360952
  0
ARC
  5
38005
  8
0
 10
6975.3711124691690202
 20
345.32694876165408
 30
0.0
 40
0.0135047258071471
 50
91.3625426300058479
 51
111.9188430899388038
  0
ARC
  5
38006
  8
0
 10
6975.3699604977737181
 20
345.3040074784839248
 30
0.0
 40
0.0136935283379641
 50
91.8700003674893964
 51
121.9999666138861016
  0
ARC
  5
38007
  8
0
 10
6975.3708928605528854
 20
345.3008606111260974
 30
0.0
 40
0.0168895107589337
 50
66.0695804288579183
 51
94.6840255983135535
  0
ARC
  5
38008
  8
0
 10
6975.3756464819889516
 20
345.3113562086941783
 30
0.0
 40
0.0053686475705733
 50
26.6128954654919703
 51
67.0055512133603628
  0
ARC
  5
38009
  8
0
 10
6975.3775895691569531
 20
345.3128160068990269
 30
0.0
 40
0.0030090585928589
 50
304.4398897377647017
 51
18.3064417813064004
  0
ARC
  5
3800A
  8
0
 10
6975.3713737061380016
 20
345.3218902603323954
 30
0.0
 40
0.0140081050019648
 50
267.6172158405410073
 51
304.4173163771620239
  0
ARC
  5
3800B
  8
0
 10
6975.3702382826522808
 20
345.3220849411231939
 30
0.0
 40
0.0142014460224431
 50
236.5218952895720008
 51
272.2317669319742777
  0
ARC
  5
3800C
  8
0
 10
6975.3644064147365498
 20
345.3130701664615003
 30
0.0
 40
0.0034669816520192
 50
184.2184779969952046
 51
234.7306205037282041
  0
ARC
  5
3800D
  8
0
 10
6975.3646275717273966
 20
345.3124649698846156
 30
0.0
 40
0.0036953738296941
 50
121.3674229406141052
 51
174.5626122491428873
  0
ARC
  5
3800E
  8
0
 10
6975.3637126961593822
 20
345.2889725865269952
 30
0.0
 40
0.0110514380962286
 50
91.7640116720177161
 51
102.5463270263254003
  0
ARC
  5
3800F
  8
0
 10
6975.3675397580072968
 20
345.214726715569725
 30
0.0
 40
0.0853938143605408
 50
90.2050624356932218
 51
92.7971715645086732
  0
ARC
  5
38010
  8
0
 10
6975.3690127392283102
 20
345.217832040124506
 30
0.0
 40
0.0823071624153886
 50
88.7617776718231681
 51
91.2382223281768177
  0
ARC
  5
38011
  8
0
 10
6975.3715172021093167
 20
345.2268323055732822
 30
0.0
 40
0.0732912718682145
 50
85.3004195788820994
 51
90.5674509173352646
  0
ARC
  5
38012
  8
0
 10
6975.3762242463144503
 20
345.28218098745009
 30
0.0
 40
0.0177437087641405
 50
77.5227127959115876
 51
85.8055652008768845
  0
ARC
  5
38013
  8
0
 10
6975.3796083207607808
 20
345.2976177479695821
 30
0.0
 40
0.0019406474762104
 50
62.2914671993160525
 51
76.6073252434654108
  0
ARC
  5
38014
  8
0
 10
6975.3803760083992529
 20
345.2990794484913977
 30
0.0
 40
0.0002896136407758
 50
31.1808170791515309
 51
62.2914671993727822
  0
ARC
  5
38015
  8
0
 10
6975.3805214216690729
 20
345.2991853854729811
 30
0.0
 40
0.0001114211977828
 50
308.7461300319741895
 51
23.263950827826779
  0
ARC
  5
38016
  8
0
 10
6975.3799002446503437
 20
345.3000127593464867
 30
0.0
 40
0.0011459743429865
 50
283.2586594137198972
 51
307.078151710239581
  0
ARC
  5
38017
  8
0
 10
6975.3756342769065668
 20
345.3193741710588256
 30
0.0
 40
0.0209716698992461
 50
272.9150165034366182
 51
282.4711612902780189
  0
ARC
  5
38018
  8
0
 10
6975.371005596390205
 20
345.3837558863539812
 30
0.0
 40
0.0855161035613774
 50
269.8564517859672947
 51
273.8186018104560731
  0
ARC
  5
38019
  8
0
 10
6975.3704206376351067
 20
345.3481723793768765
 30
0.0
 40
0.0499337042800063
 50
261.5856994602060013
 51
270.425367837601982
  0
ARC
  5
3801A
  8
0
 10
6975.3643735968071269
 20
345.3075679383758825
 30
0.0
 40
0.0088815642756358
 50
249.3012150304176942
 51
261.8457063360933716
  0
ARC
  5
3801B
  8
0
 10
6975.3614157847268871
 20
345.2997772422917819
 30
0.0
 40
0.0005484518201936
 50
213.0010931168737045
 51
250.6833892852386896
  0
ARC
  5
3801C
  8
0
 10
6975.361085333624942
 20
345.2995126881618262
 30
0.0
 40
0.0001339435588038
 50
120.7018675976838011
 51
194.7768181346453957
  0
ARC
  5
3801D
  8
0
 10
6975.3615515131241409
 20
345.2988305902021011
 30
0.0
 40
0.0009598944694843
 50
104.4488781909534936
 51
123.8418227838018026
  0
ARC
  5
3801E
  8
0
 10
6975.3637126961593822
 20
345.2861330475412842
 30
0.0
 40
0.0110514380962286
 50
91.7640116720177161
 51
102.5463270263254003
  0
ARC
  5
3801F
  8
0
 10
6975.3675397580072968
 20
345.2118871765839003
 30
0.0
 40
0.0853938143605408
 50
90.2050624356932218
 51
92.7971715645086732
  0
ARC
  5
38020
  8
0
 10
6975.3690127392283102
 20
345.2149925011386813
 30
0.0
 40
0.0823071624153886
 50
88.7617776718231681
 51
91.2382223281768177
  0
ARC
  5
38021
  8
0
 10
6975.3715172021093167
 20
345.223992766587628
 30
0.0
 40
0.0732912718682145
 50
85.3004195788820994
 51
90.5674509173352646
  0
ARC
  5
38022
  8
0
 10
6975.3762242463144503
 20
345.279341448464379
 30
0.0
 40
0.0177437087641405
 50
77.5227127959115876
 51
85.8055652008768845
  0
ARC
  5
38023
  8
0
 10
6975.3796083207607808
 20
345.2947782089838142
 30
0.0
 40
0.0019406474762104
 50
62.2914671993160525
 51
76.6073252434654108
  0
ARC
  5
38024
  8
0
 10
6975.3803760083992529
 20
345.296239909505573
 30
0.0
 40
0.0002896136407758
 50
31.1808170791515309
 51
62.2914671993727822
  0
ARC
  5
38025
  8
0
 10
6975.3805214216690729
 20
345.2963458464872133
 30
0.0
 40
0.0001114211977828
 50
308.7461300319741895
 51
23.263950827826779
  0
ARC
  5
38026
  8
0
 10
6975.3799002446503437
 20
345.2971732203607189
 30
0.0
 40
0.0011459743429865
 50
283.2586594137198972
 51
307.078151710239581
  0
ARC
  5
38027
  8
0
 10
6975.3756342769065668
 20
345.3165346320731146
 30
0.0
 40
0.0209716698992461
 50
272.9150165034366182
 51
282.4711612902780189
  0
ARC
  5
38028
  8
0
 10
6975.371005596390205
 20
345.380916347368327
 30
0.0
 40
0.0855161035613774
 50
269.8564517859672947
 51
273.8186018104560731
  0
ARC
  5
38029
  8
0
 10
6975.3704206376351067
 20
345.3453328403911087
 30
0.0
 40
0.0499337042800063
 50
261.5856994602060013
 51
270.425367837601982
  0
ARC
  5
3802A
  8
0
 10
6975.3643735968053079
 20
345.3047283993901146
 30
0.0
 40
0.0088815642756358
 50
249.3012150304176942
 51
261.8457063360933716
  0
ARC
  5
3802B
  8
0
 10
6975.3614157847268871
 20
345.2969377033061278
 30
0.0
 40
0.0005484518201936
 50
213.0010931168737045
 51
250.6833892852386896
  0
ARC
  5
3802C
  8
0
 10
6975.361085333624942
 20
345.2966731491760015
 30
0.0
 40
0.0001339435588038
 50
120.7018675976838011
 51
194.7768181346453957
  0
ARC
  5
3802D
  8
0
 10
6975.3615515131241409
 20
345.2959910512162764
 30
0.0
 40
0.0009598944694843
 50
104.4488781909534936
 51
123.8418227838018026
  0
ARC
  5
3802E
  8
0
 10
6975.3637126961593822
 20
345.2918121255412984
 30
0.0
 40
0.0110514380962286
 50
91.7640116720177161
 51
102.5463270263254003
  0
ARC
  5
3802F
  8
0
 10
6975.3675397580072968
 20
345.2175662545840282
 30
0.0
 40
0.0853938143605408
 50
90.2050624356932218
 51
92.7971715645086732
  0
ARC
  5
38030
  8
0
 10
6975.3708330832278079
 20
345.3151824423785001
 30
0.0
 40
0.0122229916137248
 50
266.1710967219767099
 51
269.8043523399464902
  0
ARC
  5
38031
  8
0
 10
6975.3710348038548545
 20
345.0857504821528892
 30
0.0
 40
0.2172422889351832
 50
90.4271641420743606
 51
91.0024453057437057
  0
ARC
  5
38032
  8
0
 10
6975.3715172021093167
 20
345.2296718445875854
 30
0.0
 40
0.0732912718682145
 50
85.3004195788820994
 51
90.5674509173352646
  0
ARC
  5
38033
  8
0
 10
6975.3762242463144503
 20
345.2850205264642796
 30
0.0
 40
0.0177437087641405
 50
77.5227127959115876
 51
85.8055652008768845
  0
ARC
  5
38034
  8
0
 10
6975.3796083207607808
 20
345.3004572869837716
 30
0.0
 40
0.0019406474762104
 50
62.2914671993160525
 51
76.6073252434654108
  0
ARC
  5
38035
  8
0
 10
6975.3803760083992529
 20
345.3019189875055872
 30
0.0
 40
0.0002896136407758
 50
31.1808170791515309
 51
62.2914671993727822
  0
ARC
  5
38036
  8
0
 10
6975.3805214216690729
 20
345.3020249244872275
 30
0.0
 40
0.0001114211977828
 50
308.7461300319741895
 51
23.263950827826779
  0
ARC
  5
38037
  8
0
 10
6975.3799002446503437
 20
345.3028522983606763
 30
0.0
 40
0.0011459743429865
 50
283.2586594137198972
 51
307.078151710239581
  0
ARC
  5
38038
  8
0
 10
6975.3756342769065668
 20
345.3222137100730151
 30
0.0
 40
0.0209716698992461
 50
272.9150165034366182
 51
282.4711612902780189
  0
ARC
  5
38039
  8
0
 10
6975.371005596390205
 20
345.3865954253682276
 30
0.0
 40
0.0855161035613774
 50
269.8564517859672947
 51
273.8186018104560731
  0
ARC
  5
3803A
  8
0
 10
6975.3704206376351067
 20
345.3510119183911229
 30
0.0
 40
0.0499337042800063
 50
261.5856994602060013
 51
270.425367837601982
  0
ARC
  5
3803B
  8
0
 10
6975.3643735968053079
 20
345.310407477390072
 30
0.0
 40
0.0088815642756358
 50
249.3012150304176942
 51
261.8457063360933716
  0
ARC
  5
3803C
  8
0
 10
6975.3614157847268871
 20
345.3026167813060852
 30
0.0
 40
0.0005484518201936
 50
213.0010931168737045
 51
250.6833892852386896
  0
ARC
  5
3803D
  8
0
 10
6975.361085333624942
 20
345.3023522271760157
 30
0.0
 40
0.0001339435588038
 50
120.7018675976838011
 51
194.7768181346453957
  0
ARC
  5
3803E
  8
0
 10
6975.3615515131241409
 20
345.3016701292162907
 30
0.0
 40
0.0009598944694843
 50
104.4488781909534936
 51
123.8418227838018026
  0
ARC
  5
3803F
  8
0
 10
6975.3984675587080346
 20
345.3585319941674925
 30
0.0
 40
0.0079887293576476
 50
126.0049339796369026
 51
183.1073007527220113
  0
ARC
  5
38040
  8
0
 10
6975.3995595918349863
 20
345.3587884618381167
 30
0.0
 40
0.0090951905296246
 50
184.3477563420188119
 51
228.3863366220303988
  0
ARC
  5
38041
  8
0
 10
6975.4003353890548169
 20
345.3594562501813243
 30
0.0
 40
0.0101105880217837
 50
227.6125784578420905
 51
269.9065837367364793
  0
ARC
  5
38042
  8
0
 10
6975.4003863234329401
 20
345.3597737638907006
 30
0.0
 40
0.0104283062262813
 50
269.6295808180740892
 51
310.1457309400462918
  0
ARC
  5
38043
  8
0
 10
6975.401630221906089
 20
345.358334561505103
 30
0.0
 40
0.008526217070622
 50
309.9915607955704218
 51
2.3370235296814998
  0
ARC
  5
38044
  8
0
 10
6975.4016265159252725
 20
345.3581307414738717
 30
0.0
 40
0.0085406559783217
 50
3.7023471565343571
 51
53.4819722869982996
  0
ARC
  5
38045
  8
0
 10
6975.400385858001755
 20
345.3300372029053733
 30
0.0
 40
0.0104126813355631
 50
47.8359068317624434
 51
90.3684139386644887
  0
ARC
  5
38046
  8
0
 10
6975.40171166325581
 20
345.3315012050928203
 30
0.0
 40
0.0084375707123716
 50
351.8618189218979069
 51
47.8359068317602478
  0
ARC
  5
38047
  8
0
 10
6975.401439188400218
 20
345.3317646330102093
 30
0.0
 40
0.0087474154016247
 50
305.0185064175926186
 51
350.4062255549990255
  0
ARC
  5
38048
  8
0
 10
6975.4004227912737406
 20
345.333055902827482
 30
0.0
 40
0.0103885749514263
 50
277.7171945193770739
 51
305.5226740153934202
  0
ARC
  5
38049
  8
0
 10
6975.4003980592578955
 20
345.3321003946152814
 30
0.0
 40
0.0094462781117249
 50
244.4994291126695884
 51
266.8671661818380016
  0
ARC
  5
3804A
  8
0
 10
6975.4003980592578955
 20
345.3321003946152814
 30
0.0
 40
0.0094462781117249
 50
273.1328338181619984
 51
278.6441368833935144
  0
ARC
  5
3804B
  8
0
 10
6975.4012876469869298
 20
345.3335008736868872
 30
0.0
 40
0.0110951118664085
 50
201.6767770197257903
 51
243.4666105119337942
  0
ARC
  5
3804C
  8
0
 10
6975.3978774873066868
 20
345.3321454071580092
 30
0.0
 40
0.007425441779664
 50
151.9682320764360952
 51
201.6767770197257903
  0
ARC
  5
3804D
  8
0
 10
6975.398732090791782
 20
345.3316903984458008
 30
0.0
 40
0.0083936256682842
 50
111.9188430899388038
 51
151.9682320764360952
  0
ARC
  5
3804E
  8
0
 10
6975.4006400282023606
 20
345.32694876165408
 30
0.0
 40
0.0135047258071471
 50
91.3625426300058479
 51
111.9188430899388038
  0
ARC
  5
3804F
  8
0
 10
6975.3994880568070585
 20
345.3040074784839248
 30
0.0
 40
0.0136935283379641
 50
91.8700003674893964
 51
121.9999666138861016
  0
ARC
  5
38050
  8
0
 10
6975.4004204195880448
 20
345.3008606111260974
 30
0.0
 40
0.0168895107589337
 50
66.0695804288579183
 51
94.6840255983135535
  0
ARC
  5
38051
  8
0
 10
6975.4051740410213824
 20
345.3113562086941783
 30
0.0
 40
0.0053686475705733
 50
26.6128954654919703
 51
67.0055512133603628
  0
ARC
  5
38052
  8
0
 10
6975.4071171281921124
 20
345.3128160068990269
 30
0.0
 40
0.0030090585928589
 50
304.4398897377647017
 51
18.3064417813064004
  0
ARC
  5
38053
  8
0
 10
6975.4009012651722514
 20
345.3218902603323954
 30
0.0
 40
0.0140081050019648
 50
267.6172158405410073
 51
304.4173163771620239
  0
ARC
  5
38054
  8
0
 10
6975.3997658416847116
 20
345.3220849411231939
 30
0.0
 40
0.0142014460224431
 50
236.5218952895720008
 51
272.2317669319742777
  0
ARC
  5
38055
  8
0
 10
6975.3939339737707996
 20
345.3130701664615003
 30
0.0
 40
0.0034669816520192
 50
184.2184779969952046
 51
234.7306205037282041
  0
ARC
  5
38056
  8
0
 10
6975.3941551307607369
 20
345.3124649698846156
 30
0.0
 40
0.0036953738296941
 50
121.3674229406141052
 51
174.5626122491428873
  0
ARC
  5
38057
  8
0
 10
6975.3932402551927225
 20
345.2889725865269952
 30
0.0
 40
0.0110514380962286
 50
91.7640116720177161
 51
102.5463270263254003
  0
ARC
  5
38058
  8
0
 10
6975.3970673170397276
 20
345.214726715569725
 30
0.0
 40
0.0853938143605408
 50
90.2050624356932218
 51
92.7971715645086732
  0
ARC
  5
38059
  8
0
 10
6975.3985402982607411
 20
345.217832040124506
 30
0.0
 40
0.0823071624153886
 50
88.7617776718231681
 51
91.2382223281768177
  0
ARC
  5
3805A
  8
0
 10
6975.4010447611417476
 20
345.2268323055732822
 30
0.0
 40
0.0732912718682145
 50
85.3004195788820994
 51
90.5674509173352646
  0
ARC
  5
3805B
  8
0
 10
6975.4057518053477907
 20
345.28218098745009
 30
0.0
 40
0.0177437087641405
 50
77.5227127959115876
 51
85.8055652008768845
  0
ARC
  5
3805C
  8
0
 10
6975.4091358797968496
 20
345.2976177479695821
 30
0.0
 40
0.0019406474762104
 50
62.2914671993160525
 51
76.6073252434654108
  0
ARC
  5
3805D
  8
0
 10
6975.4099035674353217
 20
345.2990794484913977
 30
0.0
 40
0.0002896136407758
 50
31.1808170791515309
 51
62.2914671993727822
  0
ARC
  5
3805E
  8
0
 10
6975.4100489807033227
 20
345.2991853854729811
 30
0.0
 40
0.0001114211977828
 50
308.7461300319741895
 51
23.263950827826779
  0
ARC
  5
3805F
  8
0
 10
6975.409427803683684
 20
345.3000127593464867
 30
0.0
 40
0.0011459743429865
 50
283.2586594137198972
 51
307.078151710239581
  0
ARC
  5
38060
  8
0
 10
6975.4051618359408167
 20
345.3193741710588256
 30
0.0
 40
0.0209716698992461
 50
272.9150165034366182
 51
282.4711612902780189
  0
ARC
  5
38061
  8
0
 10
6975.4005331554235454
 20
345.3837558863539812
 30
0.0
 40
0.0855161035613774
 50
269.8564517859672947
 51
273.8186018104560731
  0
ARC
  5
38062
  8
0
 10
6975.399948196670266
 20
345.3481723793768765
 30
0.0
 40
0.0499337042800063
 50
261.5856994602060013
 51
270.425367837601982
  0
ARC
  5
38063
  8
0
 10
6975.3939011558395578
 20
345.3075679383758825
 30
0.0
 40
0.0088815642756358
 50
249.3012150304176942
 51
261.8457063360933716
  0
ARC
  5
38064
  8
0
 10
6975.3909433437611369
 20
345.2997772422917819
 30
0.0
 40
0.0005484518201936
 50
213.0010931168737045
 51
250.6833892852386896
  0
ARC
  5
38065
  8
0
 10
6975.3906128926591919
 20
345.2995126881618262
 30
0.0
 40
0.0001339435588038
 50
120.7018675976838011
 51
194.7768181346453957
  0
ARC
  5
38066
  8
0
 10
6975.3910790721593003
 20
345.2988305902021011
 30
0.0
 40
0.0009598944694843
 50
104.4488781909534936
 51
123.8418227838018026
  0
ARC
  5
38067
  8
0
 10
6975.3932402551927225
 20
345.2861330475412842
 30
0.0
 40
0.0110514380962286
 50
91.7640116720177161
 51
102.5463270263254003
  0
ARC
  5
38068
  8
0
 10
6975.3970673170397276
 20
345.2118871765839003
 30
0.0
 40
0.0853938143605408
 50
90.2050624356932218
 51
92.7971715645086732
  0
ARC
  5
38069
  8
0
 10
6975.3985402982607411
 20
345.2149925011386813
 30
0.0
 40
0.0823071624153886
 50
88.7617776718231681
 51
91.2382223281768177
  0
ARC
  5
3806A
  8
0
 10
6975.4010447611417476
 20
345.223992766587628
 30
0.0
 40
0.0732912718682145
 50
85.3004195788820994
 51
90.5674509173352646
  0
ARC
  5
3806B
  8
0
 10
6975.4057518053477907
 20
345.279341448464379
 30
0.0
 40
0.0177437087641405
 50
77.5227127959115876
 51
85.8055652008768845
  0
ARC
  5
3806C
  8
0
 10
6975.4091358797950306
 20
345.2947782089838142
 30
0.0
 40
0.0019406474762104
 50
62.2914671993160525
 51
76.6073252434654108
  0
ARC
  5
3806D
  8
0
 10
6975.4099035674353217
 20
345.296239909505573
 30
0.0
 40
0.0002896136407758
 50
31.1808170791515309
 51
62.2914671993727822
  0
ARC
  5
3806E
  8
0
 10
6975.4100489807033227
 20
345.2963458464872133
 30
0.0
 40
0.0001114211977828
 50
308.7461300319741895
 51
23.263950827826779
  0
ARC
  5
3806F
  8
0
 10
6975.409427803683684
 20
345.2971732203607189
 30
0.0
 40
0.0011459743429865
 50
283.2586594137198972
 51
307.078151710239581
  0
ARC
  5
38070
  8
0
 10
6975.4051618359408167
 20
345.3165346320731146
 30
0.0
 40
0.0209716698992461
 50
272.9150165034366182
 51
282.4711612902780189
  0
ARC
  5
38071
  8
0
 10
6975.4005331554217264
 20
345.380916347368327
 30
0.0
 40
0.0855161035613774
 50
269.8564517859672947
 51
273.8186018104560731
  0
ARC
  5
38072
  8
0
 10
6975.399948196670266
 20
345.3453328403911087
 30
0.0
 40
0.0499337042800063
 50
261.5856994602060013
 51
270.425367837601982
  0
ARC
  5
38073
  8
0
 10
6975.3939011558395578
 20
345.3047283993901146
 30
0.0
 40
0.0088815642756358
 50
249.3012150304176942
 51
261.8457063360933716
  0
ARC
  5
38074
  8
0
 10
6975.3909433437611369
 20
345.2969377033061278
 30
0.0
 40
0.0005484518201936
 50
213.0010931168737045
 51
250.6833892852386896
  0
ARC
  5
38075
  8
0
 10
6975.3906128926591919
 20
345.2966731491760015
 30
0.0
 40
0.0001339435588038
 50
120.7018675976838011
 51
194.7768181346453957
  0
ARC
  5
38076
  8
0
 10
6975.3910790721565718
 20
345.2959910512162764
 30
0.0
 40
0.0009598944694843
 50
104.4488781909534936
 51
123.8418227838018026
  0
ARC
  5
38077
  8
0
 10
6975.3932402551927225
 20
345.2918121255412984
 30
0.0
 40
0.0110514380962286
 50
91.7640116720177161
 51
102.5463270263254003
  0
ARC
  5
38078
  8
0
 10
6975.3970673170397276
 20
345.2175662545840282
 30
0.0
 40
0.0853938143605408
 50
90.2050624356932218
 51
92.7971715645086732
  0
ARC
  5
38079
  8
0
 10
6975.4003606422629673
 20
345.3151824423785001
 30
0.0
 40
0.0122229916137248
 50
266.1710967219767099
 51
269.8043523399464902
  0
ARC
  5
3807A
  8
0
 10
6975.4005623628891044
 20
345.0857504821528892
 30
0.0
 40
0.2172422889351832
 50
90.4271641420743606
 51
91.0024453057437057
  0
ARC
  5
3807B
  8
0
 10
6975.4010447611417476
 20
345.2296718445875854
 30
0.0
 40
0.0732912718682145
 50
85.3004195788820994
 51
90.5674509173352646
  0
ARC
  5
3807C
  8
0
 10
6975.4057518053477907
 20
345.2850205264642796
 30
0.0
 40
0.0177437087641405
 50
77.5227127959115876
 51
85.8055652008768845
  0
ARC
  5
3807D
  8
0
 10
6975.4091358797950306
 20
345.3004572869837716
 30
0.0
 40
0.0019406474762104
 50
62.2914671993160525
 51
76.6073252434654108
  0
ARC
  5
3807E
  8
0
 10
6975.4099035674353217
 20
345.3019189875055872
 30
0.0
 40
0.0002896136407758
 50
31.1808170791515309
 51
62.2914671993727822
  0
ARC
  5
3807F
  8
0
 10
6975.4100489807033227
 20
345.3020249244872275
 30
0.0
 40
0.0001114211977828
 50
308.7461300319741895
 51
23.263950827826779
  0
ARC
  5
38080
  8
0
 10
6975.409427803683684
 20
345.3028522983606763
 30
0.0
 40
0.0011459743429865
 50
283.2586594137198972
 51
307.078151710239581
  0
ARC
  5
38081
  8
0
 10
6975.4051618359408167
 20
345.3222137100730151
 30
0.0
 40
0.0209716698992461
 50
272.9150165034366182
 51
282.4711612902780189
  0
ARC
  5
38082
  8
0
 10
6975.4005331554217264
 20
345.3865954253682276
 30
0.0
 40
0.0855161035613774
 50
269.8564517859672947
 51
273.8186018104560731
  0
ARC
  5
38083
  8
0
 10
6975.399948196670266
 20
345.3510119183911229
 30
0.0
 40
0.0499337042800063
 50
261.5856994602060013
 51
270.425367837601982
  0
ARC
  5
38084
  8
0
 10
6975.3939011558395578
 20
345.310407477390072
 30
0.0
 40
0.0088815642756358
 50
249.3012150304176942
 51
261.8457063360933716
  0
ARC
  5
38085
  8
0
 10
6975.3909433437611369
 20
345.3026167813060852
 30
0.0
 40
0.0005484518201936
 50
213.0010931168737045
 51
250.6833892852386896
  0
ARC
  5
38086
  8
0
 10
6975.3906128926591919
 20
345.3023522271760157
 30
0.0
 40
0.0001339435588038
 50
120.7018675976838011
 51
194.7768181346453957
  0
ARC
  5
38087
  8
0
 10
6975.3910790721565718
 20
345.3016701292162907
 30
0.0
 40
0.0009598944694843
 50
104.4488781909534936
 51
123.8418227838018026
  0
ARC
  5
38088
  8
0
 10
6975.4279965783307489
 20
345.3585319941674925
 30
0.0
 40
0.0079887293576476
 50
126.0049339796369026
 51
183.1073007527220113
  0
ARC
  5
38089
  8
0
 10
6975.4290886114604291
 20
345.3587884618381167
 30
0.0
 40
0.0090951905296246
 50
184.3477563420188119
 51
228.3863366220303988
  0
ARC
  5
3808A
  8
0
 10
6975.4298644086802597
 20
345.3594562501813243
 30
0.0
 40
0.0101105880217837
 50
227.6125784578420905
 51
269.9065837367364793
  0
ARC
  5
3808B
  8
0
 10
6975.4299153430556544
 20
345.3597737638907006
 30
0.0
 40
0.0104283062262813
 50
269.6295808180740892
 51
310.1457309400462918
  0
ARC
  5
3808C
  8
0
 10
6975.4311592415297127
 20
345.358334561505103
 30
0.0
 40
0.008526217070622
 50
309.9915607955704218
 51
2.3370235296814998
  0
ARC
  5
3808D
  8
0
 10
6975.4311555355488963
 20
345.3581307414738717
 30
0.0
 40
0.0085406559783217
 50
3.7023471565343571
 51
53.4819722869982996
  0
ARC
  5
3808E
  8
0
 10
6975.4299148776262882
 20
345.3300372029053733
 30
0.0
 40
0.0104126813355631
 50
47.8359068317624434
 51
90.3684139386644887
  0
ARC
  5
3808F
  8
0
 10
6975.4312406828794337
 20
345.3315012050928203
 30
0.0
 40
0.0084375707123716
 50
351.8618189218979069
 51
47.8359068317602478
  0
ARC
  5
38090
  8
0
 10
6975.4309682080229322
 20
345.3317646330102093
 30
0.0
 40
0.0087474154016247
 50
305.0185064175926186
 51
350.4062255549990255
  0
ARC
  5
38091
  8
0
 10
6975.4299518108982738
 20
345.333055902827482
 30
0.0
 40
0.0103885749514263
 50
277.7171945193770739
 51
305.5226740153934202
  0
ARC
  5
38092
  8
0
 10
6975.4299270788824288
 20
345.3321003946152814
 30
0.0
 40
0.0094462781117249
 50
244.4994291126695884
 51
266.8671661818380016
  0
ARC
  5
38093
  8
0
 10
6975.4299270788824288
 20
345.3321003946152814
 30
0.0
 40
0.0094462781117249
 50
273.1328338181619984
 51
278.6441368833935144
  0
ARC
  5
38094
  8
0
 10
6975.4308166666105535
 20
345.3335008736868872
 30
0.0
 40
0.0110951118664085
 50
201.6767770197257903
 51
243.4666105119337942
  0
ARC
  5
38095
  8
0
 10
6975.4274065069312201
 20
345.3321454071580092
 30
0.0
 40
0.007425441779664
 50
151.9682320764360952
 51
201.6767770197257903
  0
ARC
  5
38096
  8
0
 10
6975.4282611104154057
 20
345.3316903984458008
 30
0.0
 40
0.0083936256682842
 50
111.9188430899388038
 51
151.9682320764360952
  0
ARC
  5
38097
  8
0
 10
6975.4301690478268938
 20
345.32694876165408
 30
0.0
 40
0.0135047258071471
 50
91.3625426300058479
 51
111.9188430899388038
  0
ARC
  5
38098
  8
0
 10
6975.4290170764315917
 20
345.3040074784839248
 30
0.0
 40
0.0136935283379641
 50
91.8700003674893964
 51
121.9999666138861016
  0
ARC
  5
38099
  8
0
 10
6975.429949439210759
 20
345.3008606111260974
 30
0.0
 40
0.0168895107589337
 50
66.0695804288579183
 51
94.6840255983135535
  0
ARC
  5
3809A
  8
0
 10
6975.4347030606459157
 20
345.3113562086941783
 30
0.0
 40
0.0053686475705733
 50
26.6128954654919703
 51
67.0055512133603628
  0
ARC
  5
3809B
  8
0
 10
6975.4366461478157362
 20
345.3128160068990269
 30
0.0
 40
0.0030090585928589
 50
304.4398897377647017
 51
18.3064417813064004
  0
ARC
  5
3809C
  8
0
 10
6975.4304302847949657
 20
345.3218902603323954
 30
0.0
 40
0.0140081050019648
 50
267.6172158405410073
 51
304.4173163771620239
  0
ARC
  5
3809D
  8
0
 10
6975.4292948613083354
 20
345.3220849411231939
 30
0.0
 40
0.0142014460224431
 50
236.5218952895720008
 51
272.2317669319742777
  0
ARC
  5
3809E
  8
0
 10
6975.4234629933944234
 20
345.3130701664615003
 30
0.0
 40
0.0034669816520192
 50
184.2184779969952046
 51
234.7306205037282041
  0
ARC
  5
3809F
  8
0
 10
6975.4236841503843607
 20
345.3124649698846156
 30
0.0
 40
0.0036953738296941
 50
121.3674229406141052
 51
174.5626122491428873
  0
ARC
  5
380A0
  8
0
 10
6975.4227692748163463
 20
345.2889725865269952
 30
0.0
 40
0.0110514380962286
 50
91.7640116720177161
 51
102.5463270263254003
  0
ARC
  5
380A1
  8
0
 10
6975.4265963366642609
 20
345.214726715569725
 30
0.0
 40
0.0853938143605408
 50
90.2050624356932218
 51
92.7971715645086732
  0
ARC
  5
380A2
  8
0
 10
6975.4280693178852744
 20
345.217832040124506
 30
0.0
 40
0.0823071624153886
 50
88.7617776718231681
 51
91.2382223281768177
  0
ARC
  5
380A3
  8
0
 10
6975.4305737807671903
 20
345.2268323055732822
 30
0.0
 40
0.0732912718682145
 50
85.3004195788820994
 51
90.5674509173352646
  0
ARC
  5
380A4
  8
0
 10
6975.4352808249723239
 20
345.28218098745009
 30
0.0
 40
0.0177437087641405
 50
77.5227127959115876
 51
85.8055652008768845
  0
ARC
  5
380A5
  8
0
 10
6975.4386648994195639
 20
345.2976177479695821
 30
0.0
 40
0.0019406474762104
 50
62.2914671993160525
 51
76.6073252434654108
  0
ARC
  5
380A6
  8
0
 10
6975.439432587058036
 20
345.2990794484913977
 30
0.0
 40
0.0002896136407758
 50
31.1808170791515309
 51
62.2914671993727822
  0
ARC
  5
380A7
  8
0
 10
6975.439578000326037
 20
345.2991853854729811
 30
0.0
 40
0.0001114211977828
 50
308.7461300319741895
 51
23.263950827826779
  0
ARC
  5
380A8
  8
0
 10
6975.4389568233082173
 20
345.3000127593464867
 30
0.0
 40
0.0011459743429865
 50
283.2586594137198972
 51
307.078151710239581
  0
ARC
  5
380A9
  8
0
 10
6975.4346908555644404
 20
345.3193741710588256
 30
0.0
 40
0.0209716698992461
 50
272.9150165034366182
 51
282.4711612902780189
  0
ARC
  5
380AA
  8
0
 10
6975.4300621750471691
 20
345.3837558863539812
 30
0.0
 40
0.0855161035613774
 50
269.8564517859672947
 51
273.8186018104560731
  0
ARC
  5
380AB
  8
0
 10
6975.4294772162938898
 20
345.3481723793768765
 30
0.0
 40
0.0499337042800063
 50
261.5856994602060013
 51
270.425367837601982
  0
ARC
  5
380AC
  8
0
 10
6975.423430175464091
 20
345.3075679383758825
 30
0.0
 40
0.0088815642756358
 50
249.3012150304176942
 51
261.8457063360933716
  0
ARC
  5
380AD
  8
0
 10
6975.4204723633847607
 20
345.2997772422917819
 30
0.0
 40
0.0005484518201936
 50
213.0010931168737045
 51
250.6833892852386896
  0
ARC
  5
380AE
  8
0
 10
6975.4201419122837251
 20
345.2995126881618262
 30
0.0
 40
0.0001339435588038
 50
120.7018675976838011
 51
194.7768181346453957
  0
ARC
  5
380AF
  8
0
 10
6975.4206080917820145
 20
345.2988305902021011
 30
0.0
 40
0.0009598944694843
 50
104.4488781909534936
 51
123.8418227838018026
  0
ARC
  5
380B0
  8
0
 10
6975.4227692748163463
 20
345.2861330475412842
 30
0.0
 40
0.0110514380962286
 50
91.7640116720177161
 51
102.5463270263254003
  0
ARC
  5
380B1
  8
0
 10
6975.4265963366642609
 20
345.2118871765839003
 30
0.0
 40
0.0853938143605408
 50
90.2050624356932218
 51
92.7971715645086732
  0
ARC
  5
380B2
  8
0
 10
6975.4280693178843649
 20
345.2149925011386813
 30
0.0
 40
0.0823071624153886
 50
88.7617776718231681
 51
91.2382223281768177
  0
ARC
  5
380B3
  8
0
 10
6975.4305737807662808
 20
345.223992766587628
 30
0.0
 40
0.0732912718682145
 50
85.3004195788820994
 51
90.5674509173352646
  0
ARC
  5
380B4
  8
0
 10
6975.4352808249723239
 20
345.279341448464379
 30
0.0
 40
0.0177437087641405
 50
77.5227127959115876
 51
85.8055652008768845
  0
ARC
  5
380B5
  8
0
 10
6975.4386648994195639
 20
345.2947782089838142
 30
0.0
 40
0.0019406474762104
 50
62.2914671993160525
 51
76.6073252434654108
  0
ARC
  5
380B6
  8
0
 10
6975.439432587058036
 20
345.296239909505573
 30
0.0
 40
0.0002896136407758
 50
31.1808170791515309
 51
62.2914671993727822
  0
ARC
  5
380B7
  8
0
 10
6975.439578000326037
 20
345.2963458464872133
 30
0.0
 40
0.0001114211977828
 50
308.7461300319741895
 51
23.263950827826779
  0
ARC
  5
380B8
  8
0
 10
6975.4389568233082173
 20
345.2971732203607189
 30
0.0
 40
0.0011459743429865
 50
283.2586594137198972
 51
307.078151710239581
  0
ARC
  5
380B9
  8
0
 10
6975.4346908555644404
 20
345.3165346320731146
 30
0.0
 40
0.0209716698992461
 50
272.9150165034366182
 51
282.4711612902780189
  0
ARC
  5
380BA
  8
0
 10
6975.4300621750471691
 20
345.380916347368327
 30
0.0
 40
0.0855161035613774
 50
269.8564517859672947
 51
273.8186018104560731
  0
ARC
  5
380BB
  8
0
 10
6975.4294772162938898
 20
345.3453328403911087
 30
0.0
 40
0.0499337042800063
 50
261.5856994602060013
 51
270.425367837601982
  0
ARC
  5
380BC
  8
0
 10
6975.423430175464091
 20
345.3047283993901146
 30
0.0
 40
0.0088815642756358
 50
249.3012150304176942
 51
261.8457063360933716
  0
ARC
  5
380BD
  8
0
 10
6975.4204723633847607
 20
345.2969377033061278
 30
0.0
 40
0.0005484518201936
 50
213.0010931168737045
 51
250.6833892852386896
  0
ARC
  5
380BE
  8
0
 10
6975.4201419122819061
 20
345.2966731491760015
 30
0.0
 40
0.0001339435588038
 50
120.7018675976838011
 51
194.7768181346453957
  0
ARC
  5
380BF
  8
0
 10
6975.4206080917820145
 20
345.2959910512162764
 30
0.0
 40
0.0009598944694843
 50
104.4488781909534936
 51
123.8418227838018026
  0
ARC
  5
380C0
  8
0
 10
6975.4227692748163463
 20
345.2918121255412984
 30
0.0
 40
0.0110514380962286
 50
91.7640116720177161
 51
102.5463270263254003
  0
ARC
  5
380C1
  8
0
 10
6975.4265963366642609
 20
345.2175662545840282
 30
0.0
 40
0.0853938143605408
 50
90.2050624356932218
 51
92.7971715645086732
  0
ARC
  5
380C2
  8
0
 10
6975.4298896618856816
 20
345.3151824423785001
 30
0.0
 40
0.0122229916137248
 50
266.1710967219767099
 51
269.8043523399464902
  0
ARC
  5
380C3
  8
0
 10
6975.4300913825118187
 20
345.0857504821528892
 30
0.0
 40
0.2172422889351832
 50
90.4271641420743606
 51
91.0024453057437057
  0
ARC
  5
380C4
  8
0
 10
6975.4305737807662808
 20
345.2296718445875854
 30
0.0
 40
0.0732912718682145
 50
85.3004195788820994
 51
90.5674509173352646
  0
ARC
  5
380C5
  8
0
 10
6975.4352808249723239
 20
345.2850205264642796
 30
0.0
 40
0.0177437087641405
 50
77.5227127959115876
 51
85.8055652008768845
  0
ARC
  5
380C6
  8
0
 10
6975.4386648994195639
 20
345.3004572869837716
 30
0.0
 40
0.0019406474762104
 50
62.2914671993160525
 51
76.6073252434654108
  0
ARC
  5
380C7
  8
0
 10
6975.439432587058036
 20
345.3019189875055872
 30
0.0
 40
0.0002896136407758
 50
31.1808170791515309
 51
62.2914671993727822
  0
ARC
  5
380C8
  8
0
 10
6975.439578000326037
 20
345.3020249244872275
 30
0.0
 40
0.0001114211977828
 50
308.7461300319741895
 51
23.263950827826779
  0
ARC
  5
380C9
  8
0
 10
6975.4389568233082173
 20
345.3028522983606763
 30
0.0
 40
0.0011459743429865
 50
283.2586594137198972
 51
307.078151710239581
  0
ARC
  5
380CA
  8
0
 10
6975.4346908555644404
 20
345.3222137100730151
 30
0.0
 40
0.0209716698992461
 50
272.9150165034366182
 51
282.4711612902780189
  0
ARC
  5
380CB
  8
0
 10
6975.4300621750471691
 20
345.3865954253682276
 30
0.0
 40
0.0855161035613774
 50
269.8564517859672947
 51
273.8186018104560731
  0
ARC
  5
380CC
  8
0
 10
6975.4294772162938898
 20
345.3510119183911229
 30
0.0
 40
0.0499337042800063
 50
261.5856994602060013
 51
270.425367837601982
  0
ARC
  5
380CD
  8
0
 10
6975.423430175464091
 20
345.310407477390072
 30
0.0
 40
0.0088815642756358
 50
249.3012150304176942
 51
261.8457063360933716
  0
ARC
  5
380CE
  8
0
 10
6975.4204723633847607
 20
345.3026167813060852
 30
0.0
 40
0.0005484518201936
 50
213.0010931168737045
 51
250.6833892852386896
  0
ARC
  5
380CF
  8
0
 10
6975.4201419122819061
 20
345.3023522271760157
 30
0.0
 40
0.0001339435588038
 50
120.7018675976838011
 51
194.7768181346453957
  0
ARC
  5
380D0
  8
0
 10
6975.4206080917820145
 20
345.3016701292162907
 30
0.0
 40
0.0009598944694843
 50
104.4488781909534936
 51
123.8418227838018026
  0
ARC
  5
380D1
  8
0
 10
6975.4575241373486278
 20
345.3585319941674925
 30
0.0
 40
0.0079887293576476
 50
126.0049339796369026
 51
183.1073007527220113
  0
ARC
  5
380D2
  8
0
 10
6975.4586161704746701
 20
345.3587884618381167
 30
0.0
 40
0.0090951905296246
 50
184.3477563420188119
 51
228.3863366220303988
  0
ARC
  5
380D3
  8
0
 10
6975.4593919676963196
 20
345.3594562501813243
 30
0.0
 40
0.0101105880217837
 50
227.6125784578420905
 51
269.9065837367364793
  0
ARC
  5
380D4
  8
0
 10
6975.4594429020744428
 20
345.3597737638907006
 30
0.0
 40
0.0104283062262813
 50
269.6295808180740892
 51
310.1457309400462918
  0
ARC
  5
380D5
  8
0
 10
6975.4606868005466822
 20
345.358334561505103
 30
0.0
 40
0.008526217070622
 50
309.9915607955704218
 51
2.3370235296814998
  0
ARC
  5
380D6
  8
0
 10
6975.4606830945640468
 20
345.3581307414738717
 30
0.0
 40
0.0085406559783217
 50
3.7023471565343571
 51
53.4819722869982996
  0
ARC
  5
380D7
  8
0
 10
6975.4594424366432577
 20
345.3300372029053733
 30
0.0
 40
0.0104126813355631
 50
47.8359068317624434
 51
90.3684139386644887
  0
ARC
  5
380D8
  8
0
 10
6975.4607682418936747
 20
345.3315012050928203
 30
0.0
 40
0.0084375707123716
 50
351.8618189218979069
 51
47.8359068317602478
  0
ARC
  5
380D9
  8
0
 10
6975.4604957670408112
 20
345.3317646330102093
 30
0.0
 40
0.0087474154016247
 50
305.0185064175926186
 51
350.4062255549990255
  0
ARC
  5
380DA
  8
0
 10
6975.4594793699161528
 20
345.333055902827482
 30
0.0
 40
0.0103885749514263
 50
277.7171945193770739
 51
305.5226740153934202
  0
ARC
  5
380DB
  8
0
 10
6975.4594546378993982
 20
345.3321003946152814
 30
0.0
 40
0.0094462781117249
 50
244.4994291126695884
 51
266.8671661818380016
  0
ARC
  5
380DC
  8
0
 10
6975.4594546378993982
 20
345.3321003946152814
 30
0.0
 40
0.0094462781117249
 50
273.1328338181619984
 51
278.6441368833935144
  0
ARC
  5
380DD
  8
0
 10
6975.4603442256284325
 20
345.3335008736868872
 30
0.0
 40
0.0110951118664085
 50
201.6767770197257903
 51
243.4666105119337942
  0
ARC
  5
380DE
  8
0
 10
6975.456934065949099
 20
345.3321454071580092
 30
0.0
 40
0.007425441779664
 50
151.9682320764360952
 51
201.6767770197257903
  0
ARC
  5
380DF
  8
0
 10
6975.4577886694323752
 20
345.3316903984458008
 30
0.0
 40
0.0083936256682842
 50
111.9188430899388038
 51
151.9682320764360952
  0
ARC
  5
380E0
  8
0
 10
6975.4596966068438633
 20
345.32694876165408
 30
0.0
 40
0.0135047258071471
 50
91.3625426300058479
 51
111.9188430899388038
  0
ARC
  5
380E1
  8
0
 10
6975.4585446354476517
 20
345.3040074784839248
 30
0.0
 40
0.0136935283379641
 50
91.8700003674893964
 51
121.9999666138861016
  0
ARC
  5
380E2
  8
0
 10
6975.459476998228638
 20
345.3008606111260974
 30
0.0
 40
0.0168895107589337
 50
66.0695804288579183
 51
94.6840255983135535
  0
ARC
  5
380E3
  8
0
 10
6975.4642306196628851
 20
345.3113562086941783
 30
0.0
 40
0.0053686475705733
 50
26.6128954654919703
 51
67.0055512133603628
  0
ARC
  5
380E4
  8
0
 10
6975.4661737068327056
 20
345.3128160068990269
 30
0.0
 40
0.0030090585928589
 50
304.4398897377647017
 51
18.3064417813064004
  0
ARC
  5
380E5
  8
0
 10
6975.4599578438128447
 20
345.3218902603323954
 30
0.0
 40
0.0140081050019648
 50
267.6172158405410073
 51
304.4173163771620239
  0
ARC
  5
380E6
  8
0
 10
6975.4588224203262143
 20
345.3220849411231939
 30
0.0
 40
0.0142014460224431
 50
236.5218952895720008
 51
272.2317669319742777
  0
ARC
  5
380E7
  8
0
 10
6975.4529905524113929
 20
345.3130701664615003
 30
0.0
 40
0.0034669816520192
 50
184.2184779969952046
 51
234.7306205037282041
  0
ARC
  5
380E8
  8
0
 10
6975.4532117094013302
 20
345.3124649698846156
 30
0.0
 40
0.0036953738296941
 50
121.3674229406141052
 51
174.5626122491428873
  0
ARC
  5
380E9
  8
0
 10
6975.4522968338333158
 20
345.2889725865269952
 30
0.0
 40
0.0110514380962286
 50
91.7640116720177161
 51
102.5463270263254003
  0
ARC
  5
380EA
  8
0
 10
6975.4561238956812304
 20
345.214726715569725
 30
0.0
 40
0.0853938143605408
 50
90.2050624356932218
 51
92.7971715645086732
  0
ARC
  5
380EB
  8
0
 10
6975.4575968769022438
 20
345.217832040124506
 30
0.0
 40
0.0823071624153886
 50
88.7617776718231681
 51
91.2382223281768177
  0
ARC
  5
380EC
  8
0
 10
6975.4601013397832503
 20
345.2268323055732822
 30
0.0
 40
0.0732912718682145
 50
85.3004195788820994
 51
90.5674509173352646
  0
ARC
  5
380ED
  8
0
 10
6975.4648083839883839
 20
345.28218098745009
 30
0.0
 40
0.0177437087641405
 50
77.5227127959115876
 51
85.8055652008768845
  0
ARC
  5
380EE
  8
0
 10
6975.4681924584356238
 20
345.2976177479695821
 30
0.0
 40
0.0019406474762104
 50
62.2914671993160525
 51
76.6073252434654108
  0
ARC
  5
380EF
  8
0
 10
6975.4689601460750055
 20
345.2990794484913977
 30
0.0
 40
0.0002896136407758
 50
31.1808170791515309
 51
62.2914671993727822
  0
ARC
  5
380F0
  8
0
 10
6975.469105559343916
 20
345.2991853854729811
 30
0.0
 40
0.0001114211977828
 50
308.7461300319741895
 51
23.263950827826779
  0
ARC
  5
380F1
  8
0
 10
6975.4684843823251867
 20
345.3000127593464867
 30
0.0
 40
0.0011459743429865
 50
283.2586594137198972
 51
307.078151710239581
  0
ARC
  5
380F2
  8
0
 10
6975.4642184145823194
 20
345.3193741710588256
 30
0.0
 40
0.0209716698992461
 50
272.9150165034366182
 51
282.4711612902780189
  0
ARC
  5
380F3
  8
0
 10
6975.4595897340641386
 20
345.3837558863539812
 30
0.0
 40
0.0855161035613774
 50
269.8564517859672947
 51
273.8186018104560731
  0
ARC
  5
380F4
  8
0
 10
6975.4590047753090403
 20
345.3481723793768765
 30
0.0
 40
0.0499337042800063
 50
261.5856994602060013
 51
270.425367837601982
  0
ARC
  5
380F5
  8
0
 10
6975.4529577344792415
 20
345.3075679383758825
 30
0.0
 40
0.0088815642756358
 50
249.3012150304176942
 51
261.8457063360933716
  0
ARC
  5
380F6
  8
0
 10
6975.4499999224017301
 20
345.2997772422917819
 30
0.0
 40
0.0005484518201936
 50
213.0010931168737045
 51
250.6833892852386896
  0
ARC
  5
380F7
  8
0
 10
6975.4496694712988756
 20
345.2995126881618262
 30
0.0
 40
0.0001339435588038
 50
120.7018675976838011
 51
194.7768181346453957
  0
ARC
  5
380F8
  8
0
 10
6975.450135650798984
 20
345.2988305902021011
 30
0.0
 40
0.0009598944694843
 50
104.4488781909534936
 51
123.8418227838018026
  0
ARC
  5
380F9
  8
0
 10
6975.4522968338333158
 20
345.2861330475412842
 30
0.0
 40
0.0110514380962286
 50
91.7640116720177161
 51
102.5463270263254003
  0
ARC
  5
380FA
  8
0
 10
6975.4561238956812304
 20
345.2118871765839003
 30
0.0
 40
0.0853938143605408
 50
90.2050624356932218
 51
92.7971715645086732
  0
ARC
  5
380FB
  8
0
 10
6975.4575968769022438
 20
345.2149925011386813
 30
0.0
 40
0.0823071624153886
 50
88.7617776718231681
 51
91.2382223281768177
  0
ARC
  5
380FC
  8
0
 10
6975.4601013397832503
 20
345.223992766587628
 30
0.0
 40
0.0732912718682145
 50
85.3004195788820994
 51
90.5674509173352646
  0
ARC
  5
380FD
  8
0
 10
6975.4648083839883839
 20
345.279341448464379
 30
0.0
 40
0.0177437087641405
 50
77.5227127959115876
 51
85.8055652008768845
  0
ARC
  5
380FE
  8
0
 10
6975.4681924584356238
 20
345.2947782089838142
 30
0.0
 40
0.0019406474762104
 50
62.2914671993160525
 51
76.6073252434654108
  0
ARC
  5
380FF
  8
0
 10
6975.4689601460750055
 20
345.296239909505573
 30
0.0
 40
0.0002896136407758
 50
31.1808170791515309
 51
62.2914671993727822
  0
ARC
  5
38100
  8
0
 10
6975.469105559343916
 20
345.2963458464872133
 30
0.0
 40
0.0001114211977828
 50
308.7461300319741895
 51
23.263950827826779
  0
ARC
  5
38101
  8
0
 10
6975.4684843823242772
 20
345.2971732203607189
 30
0.0
 40
0.0011459743429865
 50
283.2586594137198972
 51
307.078151710239581
  0
ARC
  5
38102
  8
0
 10
6975.4642184145823194
 20
345.3165346320731146
 30
0.0
 40
0.0209716698992461
 50
272.9150165034366182
 51
282.4711612902780189
  0
ARC
  5
38103
  8
0
 10
6975.4595897340641386
 20
345.380916347368327
 30
0.0
 40
0.0855161035613774
 50
269.8564517859672947
 51
273.8186018104560731
  0
ARC
  5
38104
  8
0
 10
6975.4590047753090403
 20
345.3453328403911087
 30
0.0
 40
0.0499337042800063
 50
261.5856994602060013
 51
270.425367837601982
  0
ARC
  5
38105
  8
0
 10
6975.4529577344792415
 20
345.3047283993901146
 30
0.0
 40
0.0088815642756358
 50
249.3012150304176942
 51
261.8457063360933716
  0
ARC
  5
38106
  8
0
 10
6975.4499999224017301
 20
345.2969377033061278
 30
0.0
 40
0.0005484518201936
 50
213.0010931168737045
 51
250.6833892852386896
  0
ARC
  5
38107
  8
0
 10
6975.4496694712988756
 20
345.2966731491760015
 30
0.0
 40
0.0001339435588038
 50
120.7018675976838011
 51
194.7768181346453957
  0
ARC
  5
38108
  8
0
 10
6975.450135650798984
 20
345.2959910512162764
 30
0.0
 40
0.0009598944694843
 50
104.4488781909534936
 51
123.8418227838018026
  0
ARC
  5
38109
  8
0
 10
6975.4522968338333158
 20
345.2918121255412984
 30
0.0
 40
0.0110514380962286
 50
91.7640116720177161
 51
102.5463270263254003
  0
ARC
  5
3810A
  8
0
 10
6975.4561238956812304
 20
345.2175662545840282
 30
0.0
 40
0.0853938143605408
 50
90.2050624356932218
 51
92.7971715645086732
  0
ARC
  5
3810B
  8
0
 10
6975.459417220902651
 20
345.3151824423785001
 30
0.0
 40
0.0122229916137248
 50
266.1710967219767099
 51
269.8043523399464902
  0
ARC
  5
3810C
  8
0
 10
6975.4596189415287881
 20
345.0857504821528892
 30
0.0
 40
0.2172422889351832
 50
90.4271641420743606
 51
91.0024453057437057
  0
ARC
  5
3810D
  8
0
 10
6975.4601013397832503
 20
345.2296718445875854
 30
0.0
 40
0.0732912718682145
 50
85.3004195788820994
 51
90.5674509173352646
  0
ARC
  5
3810E
  8
0
 10
6975.4648083839883839
 20
345.2850205264642796
 30
0.0
 40
0.0177437087641405
 50
77.5227127959115876
 51
85.8055652008768845
  0
ARC
  5
3810F
  8
0
 10
6975.4681924584356238
 20
345.3004572869837716
 30
0.0
 40
0.0019406474762104
 50
62.2914671993160525
 51
76.6073252434654108
  0
ARC
  5
38110
  8
0
 10
6975.4689601460750055
 20
345.3019189875055872
 30
0.0
 40
0.0002896136407758
 50
31.1808170791515309
 51
62.2914671993727822
  0
ARC
  5
38111
  8
0
 10
6975.469105559343916
 20
345.3020249244872275
 30
0.0
 40
0.0001114211977828
 50
308.7461300319741895
 51
23.263950827826779
  0
ARC
  5
38112
  8
0
 10
6975.4684843823242772
 20
345.3028522983606763
 30
0.0
 40
0.0011459743429865
 50
283.2586594137198972
 51
307.078151710239581
  0
ARC
  5
38113
  8
0
 10
6975.4642184145823194
 20
345.3222137100730151
 30
0.0
 40
0.0209716698992461
 50
272.9150165034366182
 51
282.4711612902780189
  0
ARC
  5
38114
  8
0
 10
6975.4595897340641386
 20
345.3865954253682276
 30
0.0
 40
0.0855161035613774
 50
269.8564517859672947
 51
273.8186018104560731
  0
ARC
  5
38115
  8
0
 10
6975.4590047753090403
 20
345.3510119183911229
 30
0.0
 40
0.0499337042800063
 50
261.5856994602060013
 51
270.425367837601982
  0
ARC
  5
38116
  8
0
 10
6975.4529577344792415
 20
345.310407477390072
 30
0.0
 40
0.0088815642756358
 50
249.3012150304176942
 51
261.8457063360933716
  0
ARC
  5
38117
  8
0
 10
6975.4499999224017301
 20
345.3026167813060852
 30
0.0
 40
0.0005484518201936
 50
213.0010931168737045
 51
250.6833892852386896
  0
ARC
  5
38118
  8
0
 10
6975.4496694712988756
 20
345.3023522271760157
 30
0.0
 40
0.0001339435588038
 50
120.7018675976838011
 51
194.7768181346453957
  0
ARC
  5
38119
  8
0
 10
6975.450135650798984
 20
345.3016701292162907
 30
0.0
 40
0.0009598944694843
 50
104.4488781909534936
 51
123.8418227838018026
  0
ARC
  5
3811A
  8
0
 10
6975.4870516964492708
 20
345.3585319941674925
 30
0.0
 40
0.0079887293576476
 50
126.0049339796369026
 51
183.1073007527220113
  0
ARC
  5
3811B
  8
0
 10
6975.488143729577132
 20
345.3587884618381167
 30
0.0
 40
0.0090951905296246
 50
184.3477563420188119
 51
228.3863366220303988
  0
ARC
  5
3811C
  8
0
 10
6975.4889195267978721
 20
345.3594562501813243
 30
0.0
 40
0.0101105880217837
 50
227.6125784578420905
 51
269.9065837367364793
  0
ARC
  5
3811D
  8
0
 10
6975.4889704611732668
 20
345.3597737638907006
 30
0.0
 40
0.0104283062262813
 50
269.6295808180740892
 51
310.1457309400462918
  0
ARC
  5
3811E
  8
0
 10
6975.4902143596473252
 20
345.358334561505103
 30
0.0
 40
0.008526217070622
 50
309.9915607955704218
 51
2.3370235296814998
  0
ARC
  5
3811F
  8
0
 10
6975.4902106536637802
 20
345.3581307414738717
 30
0.0
 40
0.0085406559783217
 50
3.7023471565343571
 51
53.4819722869982996
  0
ARC
  5
38120
  8
0
 10
6975.4889699957411722
 20
345.3300372029053733
 30
0.0
 40
0.0104126813355631
 50
47.8359068317624434
 51
90.3684139386644887
  0
ARC
  5
38121
  8
0
 10
6975.4902958009943177
 20
345.3315012050928203
 30
0.0
 40
0.0084375707123716
 50
351.8618189218979069
 51
47.8359068317602478
  0
ARC
  5
38122
  8
0
 10
6975.4900233261414542
 20
345.3317646330102093
 30
0.0
 40
0.0087474154016247
 50
305.0185064175926186
 51
350.4062255549990255
  0
ARC
  5
38123
  8
0
 10
6975.4890069290158863
 20
345.333055902827482
 30
0.0
 40
0.0103885749514263
 50
277.7171945193770739
 51
305.5226740153934202
  0
ARC
  5
38124
  8
0
 10
6975.4889821969991317
 20
345.3321003946152814
 30
0.0
 40
0.0094462781117249
 50
244.4994291126695884
 51
266.8671661818380016
  0
ARC
  5
38125
  8
0
 10
6975.4889821969991317
 20
345.3321003946152814
 30
0.0
 40
0.0094462781117249
 50
273.1328338181619984
 51
278.6441368833935144
  0
ARC
  5
38126
  8
0
 10
6975.4898717847272565
 20
345.3335008736868872
 30
0.0
 40
0.0110951118664085
 50
201.6767770197257903
 51
243.4666105119337942
  0
ARC
  5
38127
  8
0
 10
6975.4864616250488325
 20
345.3321454071580092
 30
0.0
 40
0.007425441779664
 50
151.9682320764360952
 51
201.6767770197257903
  0
ARC
  5
38128
  8
0
 10
6975.4873162285321087
 20
345.3316903984458008
 30
0.0
 40
0.0083936256682842
 50
111.9188430899388038
 51
151.9682320764360952
  0
ARC
  5
38129
  8
0
 10
6975.4892241659435967
 20
345.32694876165408
 30
0.0
 40
0.0135047258071471
 50
91.3625426300058479
 51
111.9188430899388038
  0
ARC
  5
3812A
  8
0
 10
6975.4880721945482946
 20
345.3040074784839248
 30
0.0
 40
0.0136935283379641
 50
91.8700003674893964
 51
121.9999666138861016
  0
ARC
  5
3812B
  8
0
 10
6975.4890045573292809
 20
345.3008606111260974
 30
0.0
 40
0.0168895107589337
 50
66.0695804288579183
 51
94.6840255983135535
  0
ARC
  5
3812C
  8
0
 10
6975.4937581787626186
 20
345.3113562086941783
 30
0.0
 40
0.0053686475705733
 50
26.6128954654919703
 51
67.0055512133603628
  0
ARC
  5
3812D
  8
0
 10
6975.4957012659333486
 20
345.3128160068990269
 30
0.0
 40
0.0030090585928589
 50
304.4398897377647017
 51
18.3064417813064004
  0
ARC
  5
3812E
  8
0
 10
6975.4894854029125781
 20
345.3218902603323954
 30
0.0
 40
0.0140081050019648
 50
267.6172158405410073
 51
304.4173163771620239
  0
ARC
  5
3812F
  8
0
 10
6975.4883499794259478
 20
345.3220849411231939
 30
0.0
 40
0.0142014460224431
 50
236.5218952895720008
 51
272.2317669319742777
  0
ARC
  5
38130
  8
0
 10
6975.4825181115111263
 20
345.3130701664615003
 30
0.0
 40
0.0034669816520192
 50
184.2184779969952046
 51
234.7306205037282041
  0
ARC
  5
38131
  8
0
 10
6975.4827392685010636
 20
345.3124649698846156
 30
0.0
 40
0.0036953738296941
 50
121.3674229406141052
 51
174.5626122491428873
  0
ARC
  5
38132
  8
0
 10
6975.4818243929330492
 20
345.2889725865269952
 30
0.0
 40
0.0110514380962286
 50
91.7640116720177161
 51
102.5463270263254003
  0
ARC
  5
38133
  8
0
 10
6975.4856514547791448
 20
345.214726715569725
 30
0.0
 40
0.0853938143605408
 50
90.2050624356932218
 51
92.7971715645086732
  0
ARC
  5
38134
  8
0
 10
6975.4871244360019773
 20
345.217832040124506
 30
0.0
 40
0.0823071624153886
 50
88.7617776718231681
 51
91.2382223281768177
  0
ARC
  5
38135
  8
0
 10
6975.4896288988829838
 20
345.2268323055732822
 30
0.0
 40
0.0732912718682145
 50
85.3004195788820994
 51
90.5674509173352646
  0
ARC
  5
38136
  8
0
 10
6975.4943359430881173
 20
345.28218098745009
 30
0.0
 40
0.0177437087641405
 50
77.5227127959115876
 51
85.8055652008768845
  0
ARC
  5
38137
  8
0
 10
6975.4977200175362668
 20
345.2976177479695821
 30
0.0
 40
0.0019406474762104
 50
62.2914671993160525
 51
76.6073252434654108
  0
ARC
  5
38138
  8
0
 10
6975.4984877051747389
 20
345.2990794484913977
 30
0.0
 40
0.0002896136407758
 50
31.1808170791515309
 51
62.2914671993727822
  0
ARC
  5
38139
  8
0
 10
6975.4986331184436494
 20
345.2991853854729811
 30
0.0
 40
0.0001114211977828
 50
308.7461300319741895
 51
23.263950827826779
  0
ARC
  5
3813A
  8
0
 10
6975.4980119414249202
 20
345.3000127593464867
 30
0.0
 40
0.0011459743429865
 50
283.2586594137198972
 51
307.078151710239581
  0
ARC
  5
3813B
  8
0
 10
6975.4937459736820529
 20
345.3193741710588256
 30
0.0
 40
0.0209716698992461
 50
272.9150165034366182
 51
282.4711612902780189
  0
ARC
  5
3813C
  8
0
 10
6975.4891172931638721
 20
345.3837558863539812
 30
0.0
 40
0.0855161035613774
 50
269.8564517859672947
 51
273.8186018104560731
  0
ARC
  5
3813D
  8
0
 10
6975.4885323344087737
 20
345.3481723793768765
 30
0.0
 40
0.0499337042800063
 50
261.5856994602060013
 51
270.425367837601982
  0
ARC
  5
3813E
  8
0
 10
6975.482485293578975
 20
345.3075679383758825
 30
0.0
 40
0.0088815642756358
 50
249.3012150304176942
 51
261.8457063360933716
  0
ARC
  5
3813F
  8
0
 10
6975.4795274815005541
 20
345.2997772422917819
 30
0.0
 40
0.0005484518201936
 50
213.0010931168737045
 51
250.6833892852386896
  0
ARC
  5
38140
  8
0
 10
6975.4791970303986091
 20
345.2995126881618262
 30
0.0
 40
0.0001339435588038
 50
120.7018675976838011
 51
194.7768181346453957
  0
ARC
  5
38141
  8
0
 10
6975.4796632098987175
 20
345.2988305902021011
 30
0.0
 40
0.0009598944694843
 50
104.4488781909534936
 51
123.8418227838018026
  0
ARC
  5
38142
  8
0
 10
6975.4818243929330492
 20
345.2861330475412842
 30
0.0
 40
0.0110514380962286
 50
91.7640116720177161
 51
102.5463270263254003
  0
ARC
  5
38143
  8
0
 10
6975.4856514547791448
 20
345.2118871765839003
 30
0.0
 40
0.0853938143605408
 50
90.2050624356932218
 51
92.7971715645086732
  0
ARC
  5
38144
  8
0
 10
6975.4871244360019773
 20
345.2149925011386813
 30
0.0
 40
0.0823071624153886
 50
88.7617776718231681
 51
91.2382223281768177
  0
ARC
  5
38145
  8
0
 10
6975.4896288988829838
 20
345.223992766587628
 30
0.0
 40
0.0732912718682145
 50
85.3004195788820994
 51
90.5674509173352646
  0
ARC
  5
38146
  8
0
 10
6975.4943359430881173
 20
345.279341448464379
 30
0.0
 40
0.0177437087641405
 50
77.5227127959115876
 51
85.8055652008768845
  0
ARC
  5
38147
  8
0
 10
6975.4977200175362668
 20
345.2947782089838142
 30
0.0
 40
0.0019406474762104
 50
62.2914671993160525
 51
76.6073252434654108
  0
ARC
  5
38148
  8
0
 10
6975.4984877051747389
 20
345.296239909505573
 30
0.0
 40
0.0002896136407758
 50
31.1808170791515309
 51
62.2914671993727822
  0
ARC
  5
38149
  8
0
 10
6975.4986331184436494
 20
345.2963458464872133
 30
0.0
 40
0.0001114211977828
 50
308.7461300319741895
 51
23.263950827826779
  0
ARC
  5
3814A
  8
0
 10
6975.4980119414249202
 20
345.2971732203607189
 30
0.0
 40
0.0011459743429865
 50
283.2586594137198972
 51
307.078151710239581
  0
ARC
  5
3814B
  8
0
 10
6975.4937459736811434
 20
345.3165346320731146
 30
0.0
 40
0.0209716698992461
 50
272.9150165034366182
 51
282.4711612902780189
  0
ARC
  5
3814C
  8
0
 10
6975.4891172931638721
 20
345.380916347368327
 30
0.0
 40
0.0855161035613774
 50
269.8564517859672947
 51
273.8186018104560731
  0
ARC
  5
3814D
  8
0
 10
6975.4885323344087737
 20
345.3453328403911087
 30
0.0
 40
0.0499337042800063
 50
261.5856994602060013
 51
270.425367837601982
  0
ARC
  5
3814E
  8
0
 10
6975.482485293578975
 20
345.3047283993901146
 30
0.0
 40
0.0088815642756358
 50
249.3012150304176942
 51
261.8457063360933716
  0
ARC
  5
3814F
  8
0
 10
6975.4795274815005541
 20
345.2969377033061278
 30
0.0
 40
0.0005484518201936
 50
213.0010931168737045
 51
250.6833892852386896
  0
ARC
  5
38150
  8
0
 10
6975.4791970303986091
 20
345.2966731491760015
 30
0.0
 40
0.0001339435588038
 50
120.7018675976838011
 51
194.7768181346453957
  0
ARC
  5
38151
  8
0
 10
6975.4796632098987175
 20
345.2959910512162764
 30
0.0
 40
0.0009598944694843
 50
104.4488781909534936
 51
123.8418227838018026
  0
ARC
  5
38152
  8
0
 10
6975.4818243929330492
 20
345.2918121255412984
 30
0.0
 40
0.0110514380962286
 50
91.7640116720177161
 51
102.5463270263254003
  0
ARC
  5
38153
  8
0
 10
6975.4856514547791448
 20
345.2175662545840282
 30
0.0
 40
0.0853938143605408
 50
90.2050624356932218
 51
92.7971715645086732
  0
ARC
  5
38154
  8
0
 10
6975.488944780003294
 20
345.3151824423785001
 30
0.0
 40
0.0122229916137248
 50
266.1710967219767099
 51
269.8043523399464902
  0
ARC
  5
38155
  8
0
 10
6975.4891465006276121
 20
345.0857504821528892
 30
0.0
 40
0.2172422889351832
 50
90.4271641420743606
 51
91.0024453057437057
  0
ARC
  5
38156
  8
0
 10
6975.4896288988829838
 20
345.2296718445875854
 30
0.0
 40
0.0732912718682145
 50
85.3004195788820994
 51
90.5674509173352646
  0
ARC
  5
38157
  8
0
 10
6975.4943359430881173
 20
345.2850205264642796
 30
0.0
 40
0.0177437087641405
 50
77.5227127959115876
 51
85.8055652008768845
  0
ARC
  5
38158
  8
0
 10
6975.4977200175362668
 20
345.3004572869837716
 30
0.0
 40
0.0019406474762104
 50
62.2914671993160525
 51
76.6073252434654108
  0
ARC
  5
38159
  8
0
 10
6975.4984877051747389
 20
345.3019189875055872
 30
0.0
 40
0.0002896136407758
 50
31.1808170791515309
 51
62.2914671993727822
  0
ARC
  5
3815A
  8
0
 10
6975.4986331184436494
 20
345.3020249244872275
 30
0.0
 40
0.0001114211977828
 50
308.7461300319741895
 51
23.263950827826779
  0
ARC
  5
3815B
  8
0
 10
6975.4980119414249202
 20
345.3028522983606763
 30
0.0
 40
0.0011459743429865
 50
283.2586594137198972
 51
307.078151710239581
  0
ARC
  5
3815C
  8
0
 10
6975.4937459736811434
 20
345.3222137100730151
 30
0.0
 40
0.0209716698992461
 50
272.9150165034366182
 51
282.4711612902780189
  0
ARC
  5
3815D
  8
0
 10
6975.4891172931638721
 20
345.3865954253682276
 30
0.0
 40
0.0855161035613774
 50
269.8564517859672947
 51
273.8186018104560731
  0
ARC
  5
3815E
  8
0
 10
6975.4885323344087737
 20
345.3510119183911229
 30
0.0
 40
0.0499337042800063
 50
261.5856994602060013
 51
270.425367837601982
  0
ARC
  5
3815F
  8
0
 10
6975.482485293578975
 20
345.310407477390072
 30
0.0
 40
0.0088815642756358
 50
249.3012150304176942
 51
261.8457063360933716
  0
ARC
  5
38160
  8
0
 10
6975.4795274815005541
 20
345.3026167813060852
 30
0.0
 40
0.0005484518201936
 50
213.0010931168737045
 51
250.6833892852386896
  0
ARC
  5
38161
  8
0
 10
6975.4791970303986091
 20
345.3023522271760157
 30
0.0
 40
0.0001339435588038
 50
120.7018675976838011
 51
194.7768181346453957
  0
ARC
  5
38162
  8
0
 10
6975.4796632098987175
 20
345.3016701292162907
 30
0.0
 40
0.0009598944694843
 50
104.4488781909534936
 51
123.8418227838018026
  0
ARC
  5
38163
  8
0
 10
6975.5165792554471409
 20
345.3585319941674925
 30
0.0
 40
0.0079887293576476
 50
126.0049339796369026
 51
183.1073007527220113
  0
ARC
  5
38164
  8
0
 10
6975.5176712885750021
 20
345.3587884618381167
 30
0.0
 40
0.0090951905296246
 50
184.3477563420188119
 51
228.3863366220303988
  0
ARC
  5
38165
  8
0
 10
6975.5184470857957422
 20
345.3594562501813243
 30
0.0
 40
0.0101105880217837
 50
227.6125784578420905
 51
269.9065837367364793
  0
ARC
  5
38166
  8
0
 10
6975.5184980201747749
 20
345.3597737638907006
 30
0.0
 40
0.0104283062262813
 50
269.6295808180740892
 51
310.1457309400462918
  0
ARC
  5
38167
  8
0
 10
6975.5197419186451953
 20
345.358334561505103
 30
0.0
 40
0.008526217070622
 50
309.9915607955704218
 51
2.3370235296814998
  0
ARC
  5
38168
  8
0
 10
6975.5197382126643788
 20
345.3581307414738717
 30
0.0
 40
0.0085406559783217
 50
3.7023471565343571
 51
53.4819722869982996
  0
ARC
  5
38169
  8
0
 10
6975.5184975547417707
 20
345.3300372029053733
 30
0.0
 40
0.0104126813355631
 50
47.8359068317624434
 51
90.3684139386644887
  0
ARC
  5
3816A
  8
0
 10
6975.5198233599949162
 20
345.3315012050928203
 30
0.0
 40
0.0084375707123716
 50
351.8618189218979069
 51
47.8359068317602478
  0
ARC
  5
3816B
  8
0
 10
6975.5195508851402337
 20
345.3317646330102093
 30
0.0
 40
0.0087474154016247
 50
305.0185064175926186
 51
350.4062255549990255
  0
ARC
  5
3816C
  8
0
 10
6975.5185344880155753
 20
345.333055902827482
 30
0.0
 40
0.0103885749514263
 50
277.7171945193770739
 51
305.5226740153934202
  0
ARC
  5
3816D
  8
0
 10
6975.5185097559997303
 20
345.3321003946152814
 30
0.0
 40
0.0094462781117249
 50
244.4994291126695884
 51
266.8671661818380016
  0
ARC
  5
3816E
  8
0
 10
6975.5185097559997303
 20
345.3321003946152814
 30
0.0
 40
0.0094462781117249
 50
273.1328338181619984
 51
278.6441368833935144
  0
ARC
  5
3816F
  8
0
 10
6975.519399343727855
 20
345.3335008736868872
 30
0.0
 40
0.0110951118664085
 50
201.6767770197257903
 51
243.4666105119337942
  0
ARC
  5
38170
  8
0
 10
6975.5159891840494311
 20
345.3321454071580092
 30
0.0
 40
0.007425441779664
 50
151.9682320764360952
 51
201.6767770197257903
  0
ARC
  5
38171
  8
0
 10
6975.5168437875327072
 20
345.3316903984458008
 30
0.0
 40
0.0083936256682842
 50
111.9188430899388038
 51
151.9682320764360952
  0
ARC
  5
38172
  8
0
 10
6975.5187517249441953
 20
345.32694876165408
 30
0.0
 40
0.0135047258071471
 50
91.3625426300058479
 51
111.9188430899388038
  0
ARC
  5
38173
  8
0
 10
6975.5175997535488932
 20
345.3040074784839248
 30
0.0
 40
0.0136935283379641
 50
91.8700003674893964
 51
121.9999666138861016
  0
ARC
  5
38174
  8
0
 10
6975.5185321163280605
 20
345.3008606111260974
 30
0.0
 40
0.0168895107589337
 50
66.0695804288579183
 51
94.6840255983135535
  0
ARC
  5
38175
  8
0
 10
6975.5232857377623077
 20
345.3113562086941783
 30
0.0
 40
0.0053686475705733
 50
26.6128954654919703
 51
67.0055512133603628
  0
ARC
  5
38176
  8
0
 10
6975.5252288249321282
 20
345.3128160068990269
 30
0.0
 40
0.0030090585928589
 50
304.4398897377647017
 51
18.3064417813064004
  0
ARC
  5
38177
  8
0
 10
6975.5190129619140862
 20
345.3218902603323954
 30
0.0
 40
0.0140081050019648
 50
267.6172158405410073
 51
304.4173163771620239
  0
ARC
  5
38178
  8
0
 10
6975.5178775384247274
 20
345.3220849411231939
 30
0.0
 40
0.0142014460224431
 50
236.5218952895720008
 51
272.2317669319742777
  0
ARC
  5
38179
  8
0
 10
6975.5120456705108154
 20
345.3130701664615003
 30
0.0
 40
0.0034669816520192
 50
184.2184779969952046
 51
234.7306205037282041
  0
ARC
  5
3817A
  8
0
 10
6975.5122668275016622
 20
345.3124649698846156
 30
0.0
 40
0.0036953738296941
 50
121.3674229406141052
 51
174.5626122491428873
  0
ARC
  5
3817B
  8
0
 10
6975.5113519519336478
 20
345.2889725865269952
 30
0.0
 40
0.0110514380962286
 50
91.7640116720177161
 51
102.5463270263254003
  0
ARC
  5
3817C
  8
0
 10
6975.5151790137797434
 20
345.214726715569725
 30
0.0
 40
0.0853938143605408
 50
90.2050624356932218
 51
92.7971715645086732
  0
ARC
  5
3817D
  8
0
 10
6975.5166519950016664
 20
345.217832040124506
 30
0.0
 40
0.0823071624153886
 50
88.7617776718231681
 51
91.2382223281768177
  0
ARC
  5
3817E
  8
0
 10
6975.5191564578817633
 20
345.2268323055732822
 30
0.0
 40
0.0732912718682145
 50
85.3004195788820994
 51
90.5674509173352646
  0
ARC
  5
3817F
  8
0
 10
6975.5238635020887159
 20
345.28218098745009
 30
0.0
 40
0.0177437087641405
 50
77.5227127959115876
 51
85.8055652008768845
  0
ARC
  5
38180
  8
0
 10
6975.5272475765359559
 20
345.2976177479695821
 30
0.0
 40
0.0019406474762104
 50
62.2914671993160525
 51
76.6073252434654108
  0
ARC
  5
38181
  8
0
 10
6975.528015264174428
 20
345.2990794484913977
 30
0.0
 40
0.0002896136407758
 50
31.1808170791515309
 51
62.2914671993727822
  0
ARC
  5
38182
  8
0
 10
6975.5281606774433385
 20
345.2991853854729811
 30
0.0
 40
0.0001114211977828
 50
308.7461300319741895
 51
23.263950827826779
  0
ARC
  5
38183
  8
0
 10
6975.5275395004246093
 20
345.3000127593464867
 30
0.0
 40
0.0011459743429865
 50
283.2586594137198972
 51
307.078151710239581
  0
ARC
  5
38184
  8
0
 10
6975.5232735326808324
 20
345.3193741710588256
 30
0.0
 40
0.0209716698992461
 50
272.9150165034366182
 51
282.4711612902780189
  0
ARC
  5
38185
  8
0
 10
6975.5186448521635612
 20
345.3837558863539812
 30
0.0
 40
0.0855161035613774
 50
269.8564517859672947
 51
273.8186018104560731
  0
ARC
  5
38186
  8
0
 10
6975.5180598934093723
 20
345.3481723793768765
 30
0.0
 40
0.0499337042800063
 50
261.5856994602060013
 51
270.425367837601982
  0
ARC
  5
38187
  8
0
 10
6975.5120128525795735
 20
345.3075679383758825
 30
0.0
 40
0.0088815642756358
 50
249.3012150304176942
 51
261.8457063360933716
  0
ARC
  5
38188
  8
0
 10
6975.5090550405011527
 20
345.2997772422917819
 30
0.0
 40
0.0005484518201936
 50
213.0010931168737045
 51
250.6833892852386896
  0
ARC
  5
38189
  8
0
 10
6975.5087245893992076
 20
345.2995126881618262
 30
0.0
 40
0.0001339435588038
 50
120.7018675976838011
 51
194.7768181346453957
  0
ARC
  5
3818A
  8
0
 10
6975.509190768899316
 20
345.2988305902021011
 30
0.0
 40
0.0009598944694843
 50
104.4488781909534936
 51
123.8418227838018026
  0
ARC
  5
3818B
  8
0
 10
6975.5113519519336478
 20
345.2861330475412842
 30
0.0
 40
0.0110514380962286
 50
91.7640116720177161
 51
102.5463270263254003
  0
ARC
  5
3818C
  8
0
 10
6975.5151790137797434
 20
345.2118871765839003
 30
0.0
 40
0.0853938143605408
 50
90.2050624356932218
 51
92.7971715645086732
  0
ARC
  5
3818D
  8
0
 10
6975.5166519950016664
 20
345.2149925011386813
 30
0.0
 40
0.0823071624153886
 50
88.7617776718231681
 51
91.2382223281768177
  0
ARC
  5
3818E
  8
0
 10
6975.5191564578817633
 20
345.223992766587628
 30
0.0
 40
0.0732912718682145
 50
85.3004195788820994
 51
90.5674509173352646
  0
ARC
  5
3818F
  8
0
 10
6975.5238635020887159
 20
345.279341448464379
 30
0.0
 40
0.0177437087641405
 50
77.5227127959115876
 51
85.8055652008768845
  0
ARC
  5
38190
  8
0
 10
6975.5272475765359559
 20
345.2947782089838142
 30
0.0
 40
0.0019406474762104
 50
62.2914671993160525
 51
76.6073252434654108
  0
ARC
  5
38191
  8
0
 10
6975.528015264174428
 20
345.296239909505573
 30
0.0
 40
0.0002896136407758
 50
31.1808170791515309
 51
62.2914671993727822
  0
ARC
  5
38192
  8
0
 10
6975.5281606774433385
 20
345.2963458464872133
 30
0.0
 40
0.0001114211977828
 50
308.7461300319741895
 51
23.263950827826779
  0
ARC
  5
38193
  8
0
 10
6975.5275395004246093
 20
345.2971732203607189
 30
0.0
 40
0.0011459743429865
 50
283.2586594137198972
 51
307.078151710239581
  0
ARC
  5
38194
  8
0
 10
6975.5232735326808324
 20
345.3165346320731146
 30
0.0
 40
0.0209716698992461
 50
272.9150165034366182
 51
282.4711612902780189
  0
ARC
  5
38195
  8
0
 10
6975.5186448521635612
 20
345.380916347368327
 30
0.0
 40
0.0855161035613774
 50
269.8564517859672947
 51
273.8186018104560731
  0
ARC
  5
38196
  8
0
 10
6975.5180598934093723
 20
345.3453328403911087
 30
0.0
 40
0.0499337042800063
 50
261.5856994602060013
 51
270.425367837601982
  0
ARC
  5
38197
  8
0
 10
6975.5120128525795735
 20
345.3047283993901146
 30
0.0
 40
0.0088815642756358
 50
249.3012150304176942
 51
261.8457063360933716
  0
ARC
  5
38198
  8
0
 10
6975.5090550405011527
 20
345.2969377033061278
 30
0.0
 40
0.0005484518201936
 50
213.0010931168737045
 51
250.6833892852386896
  0
ARC
  5
38199
  8
0
 10
6975.5087245893992076
 20
345.2966731491760015
 30
0.0
 40
0.0001339435588038
 50
120.7018675976838011
 51
194.7768181346453957
  0
ARC
  5
3819A
  8
0
 10
6975.509190768899316
 20
345.2959910512162764
 30
0.0
 40
0.0009598944694843
 50
104.4488781909534936
 51
123.8418227838018026
  0
ARC
  5
3819B
  8
0
 10
6975.5113519519336478
 20
345.2918121255412984
 30
0.0
 40
0.0110514380962286
 50
91.7640116720177161
 51
102.5463270263254003
  0
ARC
  5
3819C
  8
0
 10
6975.5151790137797434
 20
345.2175662545840282
 30
0.0
 40
0.0853938143605408
 50
90.2050624356932218
 51
92.7971715645086732
  0
ARC
  5
3819D
  8
0
 10
6975.5184723390029831
 20
345.3151824423785001
 30
0.0
 40
0.0122229916137248
 50
266.1710967219767099
 51
269.8043523399464902
  0
ARC
  5
3819E
  8
0
 10
6975.5186740596282107
 20
345.0857504821528892
 30
0.0
 40
0.2172422889351832
 50
90.4271641420743606
 51
91.0024453057437057
  0
ARC
  5
3819F
  8
0
 10
6975.5191564578817633
 20
345.2296718445875854
 30
0.0
 40
0.0732912718682145
 50
85.3004195788820994
 51
90.5674509173352646
  0
ARC
  5
381A0
  8
0
 10
6975.5238635020887159
 20
345.2850205264642796
 30
0.0
 40
0.0177437087641405
 50
77.5227127959115876
 51
85.8055652008768845
  0
ARC
  5
381A1
  8
0
 10
6975.5272475765359559
 20
345.3004572869837716
 30
0.0
 40
0.0019406474762104
 50
62.2914671993160525
 51
76.6073252434654108
  0
ARC
  5
381A2
  8
0
 10
6975.528015264174428
 20
345.3019189875055872
 30
0.0
 40
0.0002896136407758
 50
31.1808170791515309
 51
62.2914671993727822
  0
ARC
  5
381A3
  8
0
 10
6975.5281606774433385
 20
345.3020249244872275
 30
0.0
 40
0.0001114211977828
 50
308.7461300319741895
 51
23.263950827826779
  0
ARC
  5
381A4
  8
0
 10
6975.5275395004246093
 20
345.3028522983606763
 30
0.0
 40
0.0011459743429865
 50
283.2586594137198972
 51
307.078151710239581
  0
ARC
  5
381A5
  8
0
 10
6975.5232735326808324
 20
345.3222137100730151
 30
0.0
 40
0.0209716698992461
 50
272.9150165034366182
 51
282.4711612902780189
  0
ARC
  5
381A6
  8
0
 10
6975.5186448521635612
 20
345.3865954253682276
 30
0.0
 40
0.0855161035613774
 50
269.8564517859672947
 51
273.8186018104560731
  0
ARC
  5
381A7
  8
0
 10
6975.5180598934093723
 20
345.3510119183911229
 30
0.0
 40
0.0499337042800063
 50
261.5856994602060013
 51
270.425367837601982
  0
ARC
  5
381A8
  8
0
 10
6975.5120128525795735
 20
345.310407477390072
 30
0.0
 40
0.0088815642756358
 50
249.3012150304176942
 51
261.8457063360933716
  0
ARC
  5
381A9
  8
0
 10
6975.5090550405011527
 20
345.3026167813060852
 30
0.0
 40
0.0005484518201936
 50
213.0010931168737045
 51
250.6833892852386896
  0
ARC
  5
381AA
  8
0
 10
6975.5087245893992076
 20
345.3023522271760157
 30
0.0
 40
0.0001339435588038
 50
120.7018675976838011
 51
194.7768181346453957
  0
ARC
  5
381AB
  8
0
 10
6975.509190768899316
 20
345.3016701292162907
 30
0.0
 40
0.0009598944694843
 50
104.4488781909534936
 51
123.8418227838018026
  0
ARC
  5
381AC
  8
0
 10
6975.5461068145486934
 20
345.3585319941674925
 30
0.0
 40
0.0079887293576476
 50
126.0049339796369026
 51
183.1073007527220113
  0
ARC
  5
381AD
  8
0
 10
6975.5471988476747356
 20
345.3587884618381167
 30
0.0
 40
0.0090951905296246
 50
184.3477563420188119
 51
228.3863366220303988
  0
ARC
  5
381AE
  8
0
 10
6975.5479746448963851
 20
345.3594562501813243
 30
0.0
 40
0.0101105880217837
 50
227.6125784578420905
 51
269.9065837367364793
  0
ARC
  5
381AF
  8
0
 10
6975.5480255792726894
 20
345.3597737638907006
 30
0.0
 40
0.0104283062262813
 50
269.6295808180740892
 51
310.1457309400462918
  0
ARC
  5
381B0
  8
0
 10
6975.5492694777467477
 20
345.358334561505103
 30
0.0
 40
0.008526217070622
 50
309.9915607955704218
 51
2.3370235296814998
  0
ARC
  5
381B1
  8
0
 10
6975.5492657717650218
 20
345.3581307414738717
 30
0.0
 40
0.0085406559783217
 50
3.7023471565343571
 51
53.4819722869982996
  0
ARC
  5
381B2
  8
0
 10
6975.5480251138424137
 20
345.3300372029053733
 30
0.0
 40
0.0104126813355631
 50
47.8359068317624434
 51
90.3684139386644887
  0
ARC
  5
381B3
  8
0
 10
6975.5493509190946497
 20
345.3315012050928203
 30
0.0
 40
0.0084375707123716
 50
351.8618189218979069
 51
47.8359068317602478
  0
ARC
  5
381B4
  8
0
 10
6975.5490784442417862
 20
345.3317646330102093
 30
0.0
 40
0.0087474154016247
 50
305.0185064175926186
 51
350.4062255549990255
  0
ARC
  5
381B5
  8
0
 10
6975.5480620471162183
 20
345.333055902827482
 30
0.0
 40
0.0103885749514263
 50
277.7171945193770739
 51
305.5226740153934202
  0
ARC
  5
381B6
  8
0
 10
6975.5480373151003732
 20
345.3321003946152814
 30
0.0
 40
0.0094462781117249
 50
244.4994291126695884
 51
266.8671661818380016
  0
ARC
  5
381B7
  8
0
 10
6975.5480373151003732
 20
345.3321003946152814
 30
0.0
 40
0.0094462781117249
 50
273.1328338181619984
 51
278.6441368833935144
  0
ARC
  5
381B8
  8
0
 10
6975.5489269028275885
 20
345.3335008736868872
 30
0.0
 40
0.0110951118664085
 50
201.6767770197257903
 51
243.4666105119337942
  0
ARC
  5
381B9
  8
0
 10
6975.545516743148255
 20
345.3321454071580092
 30
0.0
 40
0.007425441779664
 50
151.9682320764360952
 51
201.6767770197257903
  0
ARC
  5
381BA
  8
0
 10
6975.5463713466306217
 20
345.3316903984458008
 30
0.0
 40
0.0083936256682842
 50
111.9188430899388038
 51
151.9682320764360952
  0
ARC
  5
381BB
  8
0
 10
6975.5482792840421098
 20
345.32694876165408
 30
0.0
 40
0.0135047258071471
 50
91.3625426300058479
 51
111.9188430899388038
  0
ARC
  5
381BC
  8
0
 10
6975.5471273126477172
 20
345.3040074784839248
 30
0.0
 40
0.0136935283379641
 50
91.8700003674893964
 51
121.9999666138861016
  0
ARC
  5
381BD
  8
0
 10
6975.548059675427794
 20
345.3008606111260974
 30
0.0
 40
0.0168895107589337
 50
66.0695804288579183
 51
94.6840255983135535
  0
ARC
  5
381BE
  8
0
 10
6975.5528132968638602
 20
345.3113562086941783
 30
0.0
 40
0.0053686475705733
 50
26.6128954654919703
 51
67.0055512133603628
  0
ARC
  5
381BF
  8
0
 10
6975.5547563840318617
 20
345.3128160068990269
 30
0.0
 40
0.0030090585928589
 50
304.4398897377647017
 51
18.3064417813064004
  0
ARC
  5
381C0
  8
0
 10
6975.5485405210138197
 20
345.3218902603323954
 30
0.0
 40
0.0140081050019648
 50
267.6172158405410073
 51
304.4173163771620239
  0
ARC
  5
381C1
  8
0
 10
6975.5474050975253704
 20
345.3220849411231939
 30
0.0
 40
0.0142014460224431
 50
236.5218952895720008
 51
272.2317669319742777
  0
ARC
  5
381C2
  8
0
 10
6975.5415732296105489
 20
345.3130701664615003
 30
0.0
 40
0.0034669816520192
 50
184.2184779969952046
 51
234.7306205037282041
  0
ARC
  5
381C3
  8
0
 10
6975.5417943866023052
 20
345.3124649698846156
 30
0.0
 40
0.0036953738296941
 50
121.3674229406141052
 51
174.5626122491428873
  0
ARC
  5
381C4
  8
0
 10
6975.5408795110342908
 20
345.2889725865269952
 30
0.0
 40
0.0110514380962286
 50
91.7640116720177161
 51
102.5463270263254003
  0
ARC
  5
381C5
  8
0
 10
6975.5447065728803864
 20
345.214726715569725
 30
0.0
 40
0.0853938143605408
 50
90.2050624356932218
 51
92.7971715645086732
  0
ARC
  5
381C6
  8
0
 10
6975.5461795540995809
 20
345.217832040124506
 30
0.0
 40
0.0823071624153886
 50
88.7617776718231681
 51
91.2382223281768177
  0
ARC
  5
381C7
  8
0
 10
6975.5486840169824063
 20
345.2268323055732822
 30
0.0
 40
0.0732912718682145
 50
85.3004195788820994
 51
90.5674509173352646
  0
ARC
  5
381C8
  8
0
 10
6975.5533910611893589
 20
345.28218098745009
 30
0.0
 40
0.0177437087641405
 50
77.5227127959115876
 51
85.8055652008768845
  0
ARC
  5
381C9
  8
0
 10
6975.5567751356356894
 20
345.2976177479695821
 30
0.0
 40
0.0019406474762104
 50
62.2914671993160525
 51
76.6073252434654108
  0
ARC
  5
381CA
  8
0
 10
6975.5575428232741615
 20
345.2990794484913977
 30
0.0
 40
0.0002896136407758
 50
31.1808170791515309
 51
62.2914671993727822
  0
ARC
  5
381CB
  8
0
 10
6975.557688236544891
 20
345.2991853854729811
 30
0.0
 40
0.0001114211977828
 50
308.7461300319741895
 51
23.263950827826779
  0
ARC
  5
381CC
  8
0
 10
6975.5570670595252523
 20
345.3000127593464867
 30
0.0
 40
0.0011459743429865
 50
283.2586594137198972
 51
307.078151710239581
  0
ARC
  5
381CD
  8
0
 10
6975.5528010917805659
 20
345.3193741710588256
 30
0.0
 40
0.0209716698992461
 50
272.9150165034366182
 51
282.4711612902780189
  0
ARC
  5
381CE
  8
0
 10
6975.5481724112642041
 20
345.3837558863539812
 30
0.0
 40
0.0855161035613774
 50
269.8564517859672947
 51
273.8186018104560731
  0
ARC
  5
381CF
  8
0
 10
6975.5475874525100153
 20
345.3481723793768765
 30
0.0
 40
0.0499337042800063
 50
261.5856994602060013
 51
270.425367837601982
  0
ARC
  5
381D0
  8
0
 10
6975.5415404116802165
 20
345.3075679383758825
 30
0.0
 40
0.0088815642756358
 50
249.3012150304176942
 51
261.8457063360933716
  0
ARC
  5
381D1
  8
0
 10
6975.5385825996008862
 20
345.2997772422917819
 30
0.0
 40
0.0005484518201936
 50
213.0010931168737045
 51
250.6833892852386896
  0
ARC
  5
381D2
  8
0
 10
6975.5382521484989411
 20
345.2995126881618262
 30
0.0
 40
0.0001339435588038
 50
120.7018675976838011
 51
194.7768181346453957
  0
ARC
  5
381D3
  8
0
 10
6975.53871832799814
 20
345.2988305902021011
 30
0.0
 40
0.0009598944694843
 50
104.4488781909534936
 51
123.8418227838018026
  0
ARC
  5
381D4
  8
0
 10
6975.5408795110342908
 20
345.2861330475412842
 30
0.0
 40
0.0110514380962286
 50
91.7640116720177161
 51
102.5463270263254003
  0
ARC
  5
381D5
  8
0
 10
6975.5447065728803864
 20
345.2118871765839003
 30
0.0
 40
0.0853938143605408
 50
90.2050624356932218
 51
92.7971715645086732
  0
ARC
  5
381D6
  8
0
 10
6975.5461795540995809
 20
345.2149925011386813
 30
0.0
 40
0.0823071624153886
 50
88.7617776718231681
 51
91.2382223281768177
  0
ARC
  5
381D7
  8
0
 10
6975.5486840169824063
 20
345.223992766587628
 30
0.0
 40
0.0732912718682145
 50
85.3004195788820994
 51
90.5674509173352646
  0
ARC
  5
381D8
  8
0
 10
6975.5533910611893589
 20
345.279341448464379
 30
0.0
 40
0.0177437087641405
 50
77.5227127959115876
 51
85.8055652008768845
  0
ARC
  5
381D9
  8
0
 10
6975.5567751356347799
 20
345.2947782089838142
 30
0.0
 40
0.0019406474762104
 50
62.2914671993160525
 51
76.6073252434654108
  0
ARC
  5
381DA
  8
0
 10
6975.5575428232741615
 20
345.296239909505573
 30
0.0
 40
0.0002896136407758
 50
31.1808170791515309
 51
62.2914671993727822
  0
ARC
  5
381DB
  8
0
 10
6975.557688236543072
 20
345.2963458464872133
 30
0.0
 40
0.0001114211977828
 50
308.7461300319741895
 51
23.263950827826779
  0
ARC
  5
381DC
  8
0
 10
6975.5570670595252523
 20
345.2971732203607189
 30
0.0
 40
0.0011459743429865
 50
283.2586594137198972
 51
307.078151710239581
  0
ARC
  5
381DD
  8
0
 10
6975.5528010917805659
 20
345.3165346320731146
 30
0.0
 40
0.0209716698992461
 50
272.9150165034366182
 51
282.4711612902780189
  0
ARC
  5
381DE
  8
0
 10
6975.5481724112642041
 20
345.380916347368327
 30
0.0
 40
0.0855161035613774
 50
269.8564517859672947
 51
273.8186018104560731
  0
ARC
  5
381DF
  8
0
 10
6975.5475874525100153
 20
345.3453328403911087
 30
0.0
 40
0.0499337042800063
 50
261.5856994602060013
 51
270.425367837601982
  0
ARC
  5
381E0
  8
0
 10
6975.5415404116802165
 20
345.3047283993901146
 30
0.0
 40
0.0088815642756358
 50
249.3012150304176942
 51
261.8457063360933716
  0
ARC
  5
381E1
  8
0
 10
6975.5385825996008862
 20
345.2969377033061278
 30
0.0
 40
0.0005484518201936
 50
213.0010931168737045
 51
250.6833892852386896
  0
ARC
  5
381E2
  8
0
 10
6975.5382521484989411
 20
345.2966731491760015
 30
0.0
 40
0.0001339435588038
 50
120.7018675976838011
 51
194.7768181346453957
  0
ARC
  5
381E3
  8
0
 10
6975.53871832799814
 20
345.2959910512162764
 30
0.0
 40
0.0009598944694843
 50
104.4488781909534936
 51
123.8418227838018026
  0
ARC
  5
381E4
  8
0
 10
6975.5408795110342908
 20
345.2918121255412984
 30
0.0
 40
0.0110514380962286
 50
91.7640116720177161
 51
102.5463270263254003
  0
ARC
  5
381E5
  8
0
 10
6975.5447065728803864
 20
345.2175662545840282
 30
0.0
 40
0.0853938143605408
 50
90.2050624356932218
 51
92.7971715645086732
  0
ARC
  5
381E6
  8
0
 10
6975.5479998981027165
 20
345.3151824423785001
 30
0.0
 40
0.0122229916137248
 50
266.1710967219767099
 51
269.8043523399464902
  0
ARC
  5
381E7
  8
0
 10
6975.5482016187279442
 20
345.0857504821528892
 30
0.0
 40
0.2172422889351832
 50
90.4271641420743606
 51
91.0024453057437057
  0
ARC
  5
381E8
  8
0
 10
6975.5486840169824063
 20
345.2296718445875854
 30
0.0
 40
0.0732912718682145
 50
85.3004195788820994
 51
90.5674509173352646
  0
ARC
  5
381E9
  8
0
 10
6975.5533910611893589
 20
345.2850205264642796
 30
0.0
 40
0.0177437087641405
 50
77.5227127959115876
 51
85.8055652008768845
  0
ARC
  5
381EA
  8
0
 10
6975.5567751356347799
 20
345.3004572869837716
 30
0.0
 40
0.0019406474762104
 50
62.2914671993160525
 51
76.6073252434654108
  0
ARC
  5
381EB
  8
0
 10
6975.5575428232741615
 20
345.3019189875055872
 30
0.0
 40
0.0002896136407758
 50
31.1808170791515309
 51
62.2914671993727822
  0
ARC
  5
381EC
  8
0
 10
6975.557688236543072
 20
345.3020249244872275
 30
0.0
 40
0.0001114211977828
 50
308.7461300319741895
 51
23.263950827826779
  0
ARC
  5
381ED
  8
0
 10
6975.5570670595252523
 20
345.3028522983606763
 30
0.0
 40
0.0011459743429865
 50
283.2586594137198972
 51
307.078151710239581
  0
ARC
  5
381EE
  8
0
 10
6975.5528010917805659
 20
345.3222137100730151
 30
0.0
 40
0.0209716698992461
 50
272.9150165034366182
 51
282.4711612902780189
  0
ARC
  5
381EF
  8
0
 10
6975.5481724112642041
 20
345.3865954253682276
 30
0.0
 40
0.0855161035613774
 50
269.8564517859672947
 51
273.8186018104560731
  0
ARC
  5
381F0
  8
0
 10
6975.5475874525100153
 20
345.3510119183911229
 30
0.0
 40
0.0499337042800063
 50
261.5856994602060013
 51
270.425367837601982
  0
ARC
  5
381F1
  8
0
 10
6975.5415404116802165
 20
345.310407477390072
 30
0.0
 40
0.0088815642756358
 50
249.3012150304176942
 51
261.8457063360933716
  0
ARC
  5
381F2
  8
0
 10
6975.5385825996008862
 20
345.3026167813060852
 30
0.0
 40
0.0005484518201936
 50
213.0010931168737045
 51
250.6833892852386896
  0
ARC
  5
381F3
  8
0
 10
6975.5382521484989411
 20
345.3023522271760157
 30
0.0
 40
0.0001339435588038
 50
120.7018675976838011
 51
194.7768181346453957
  0
ARC
  5
381F4
  8
0
 10
6975.53871832799814
 20
345.3016701292162907
 30
0.0
 40
0.0009598944694843
 50
104.4488781909534936
 51
123.8418227838018026
  0
ARC
  5
381F5
  8
0
 10
6975.5756343735483824
 20
345.3585319941674925
 30
0.0
 40
0.0079887293576476
 50
126.0049339796369026
 51
183.1073007527220113
  0
ARC
  5
381F6
  8
0
 10
6975.5767264066762436
 20
345.3587884618381167
 30
0.0
 40
0.0090951905296246
 50
184.3477563420188119
 51
228.3863366220303988
  0
ARC
  5
381F7
  8
0
 10
6975.5775022038969837
 20
345.3594562501813243
 30
0.0
 40
0.0101105880217837
 50
227.6125784578420905
 51
269.9065837367364793
  0
ARC
  5
381F8
  8
0
 10
6975.5775531382741974
 20
345.3597737638907006
 30
0.0
 40
0.0104283062262813
 50
269.6295808180740892
 51
310.1457309400462918
  0
ARC
  5
381F9
  8
0
 10
6975.5787970367464368
 20
345.358334561505103
 30
0.0
 40
0.008526217070622
 50
309.9915607955704218
 51
2.3370235296814998
  0
ARC
  5
381FA
  8
0
 10
6975.5787933307647108
 20
345.3581307414738717
 30
0.0
 40
0.0085406559783217
 50
3.7023471565343571
 51
53.4819722869982996
  0
ARC
  5
381FB
  8
0
 10
6975.5775526728421028
 20
345.3300372029053733
 30
0.0
 40
0.0104126813355631
 50
47.8359068317624434
 51
90.3684139386644887
  0
ARC
  5
381FC
  8
0
 10
6975.5788784780961578
 20
345.3315012050928203
 30
0.0
 40
0.0084375707123716
 50
351.8618189218979069
 51
47.8359068317602478
  0
ARC
  5
381FD
  8
0
 10
6975.5786060032396563
 20
345.3317646330102093
 30
0.0
 40
0.0087474154016247
 50
305.0185064175926186
 51
350.4062255549990255
  0
ARC
  5
381FE
  8
0
 10
6975.5775896061149979
 20
345.333055902827482
 30
0.0
 40
0.0103885749514263
 50
277.7171945193770739
 51
305.5226740153934202
  0
ARC
  5
381FF
  8
0
 10
6975.5775648741000623
 20
345.3321003946152814
 30
0.0
 40
0.0094462781117249
 50
244.4994291126695884
 51
266.8671661818380016
  0
ARC
  5
38200
  8
0
 10
6975.5775648741000623
 20
345.3321003946152814
 30
0.0
 40
0.0094462781117249
 50
273.1328338181619984
 51
278.6441368833935144
  0
ARC
  5
38201
  8
0
 10
6975.578454461828187
 20
345.3335008736868872
 30
0.0
 40
0.0110951118664085
 50
201.6767770197257903
 51
243.4666105119337942
  0
ARC
  5
38202
  8
0
 10
6975.5750443021479441
 20
345.3321454071580092
 30
0.0
 40
0.007425441779664
 50
151.9682320764360952
 51
201.6767770197257903
  0
ARC
  5
38203
  8
0
 10
6975.5758989056312203
 20
345.3316903984458008
 30
0.0
 40
0.0083936256682842
 50
111.9188430899388038
 51
151.9682320764360952
  0
ARC
  5
38204
  8
0
 10
6975.5778068430454368
 20
345.32694876165408
 30
0.0
 40
0.0135047258071471
 50
91.3625426300058479
 51
111.9188430899388038
  0
ARC
  5
38205
  8
0
 10
6975.5766548716483157
 20
345.3040074784839248
 30
0.0
 40
0.0136935283379641
 50
91.8700003674893964
 51
121.9999666138861016
  0
ARC
  5
38206
  8
0
 10
6975.577587234429302
 20
345.3008606111260974
 30
0.0
 40
0.0168895107589337
 50
66.0695804288579183
 51
94.6840255983135535
  0
ARC
  5
38207
  8
0
 10
6975.5823408558617302
 20
345.3113562086941783
 30
0.0
 40
0.0053686475705733
 50
26.6128954654919703
 51
67.0055512133603628
  0
ARC
  5
38208
  8
0
 10
6975.5842839430333697
 20
345.3128160068990269
 30
0.0
 40
0.0030090585928589
 50
304.4398897377647017
 51
18.3064417813064004
  0
ARC
  5
38209
  8
0
 10
6975.5780680800125992
 20
345.3218902603323954
 30
0.0
 40
0.0140081050019648
 50
267.6172158405410073
 51
304.4173163771620239
  0
ARC
  5
3820A
  8
0
 10
6975.5769326565259689
 20
345.3220849411231939
 30
0.0
 40
0.0142014460224431
 50
236.5218952895720008
 51
272.2317669319742777
  0
ARC
  5
3820B
  8
0
 10
6975.5711007886120569
 20
345.3130701664615003
 30
0.0
 40
0.0034669816520192
 50
184.2184779969952046
 51
234.7306205037282041
  0
ARC
  5
3820C
  8
0
 10
6975.5713219456010847
 20
345.3124649698846156
 30
0.0
 40
0.0036953738296941
 50
121.3674229406141052
 51
174.5626122491428873
  0
ARC
  5
3820D
  8
0
 10
6975.5704070700330703
 20
345.2889725865269952
 30
0.0
 40
0.0110514380962286
 50
91.7640116720177161
 51
102.5463270263254003
  0
ARC
  5
3820E
  8
0
 10
6975.5742341318800754
 20
345.214726715569725
 30
0.0
 40
0.0853938143605408
 50
90.2050624356932218
 51
92.7971715645086732
  0
ARC
  5
3820F
  8
0
 10
6975.5757071131010889
 20
345.217832040124506
 30
0.0
 40
0.0823071624153886
 50
88.7617776718231681
 51
91.2382223281768177
  0
ARC
  5
38210
  8
0
 10
6975.5782115759830049
 20
345.2268323055732822
 30
0.0
 40
0.0732912718682145
 50
85.3004195788820994
 51
90.5674509173352646
  0
ARC
  5
38211
  8
0
 10
6975.5829186201881384
 20
345.28218098745009
 30
0.0
 40
0.0177437087641405
 50
77.5227127959115876
 51
85.8055652008768845
  0
ARC
  5
38212
  8
0
 10
6975.5863026946362879
 20
345.2976177479695821
 30
0.0
 40
0.0019406474762104
 50
62.2914671993160525
 51
76.6073252434654108
  0
ARC
  5
38213
  8
0
 10
6975.58707038227476
 20
345.2990794484913977
 30
0.0
 40
0.0002896136407758
 50
31.1808170791515309
 51
62.2914671993727822
  0
ARC
  5
38214
  8
0
 10
6975.5872157955436705
 20
345.2991853854729811
 30
0.0
 40
0.0001114211977828
 50
308.7461300319741895
 51
23.263950827826779
  0
ARC
  5
38215
  8
0
 10
6975.5865946185249413
 20
345.3000127593464867
 30
0.0
 40
0.0011459743429865
 50
283.2586594137198972
 51
307.078151710239581
  0
ARC
  5
38216
  8
0
 10
6975.582328650782074
 20
345.3193741710588256
 30
0.0
 40
0.0209716698992461
 50
272.9150165034366182
 51
282.4711612902780189
  0
ARC
  5
38217
  8
0
 10
6975.5776999702648027
 20
345.3837558863539812
 30
0.0
 40
0.0855161035613774
 50
269.8564517859672947
 51
273.8186018104560731
  0
ARC
  5
38218
  8
0
 10
6975.5771150115097043
 20
345.3481723793768765
 30
0.0
 40
0.0499337042800063
 50
261.5856994602060013
 51
270.425367837601982
  0
ARC
  5
38219
  8
0
 10
6975.5710679706799056
 20
345.3075679383758825
 30
0.0
 40
0.0088815642756358
 50
249.3012150304176942
 51
261.8457063360933716
  0
ARC
  5
3821A
  8
0
 10
6975.5681101586023942
 20
345.2997772422917819
 30
0.0
 40
0.0005484518201936
 50
213.0010931168737045
 51
250.6833892852386896
  0
ARC
  5
3821B
  8
0
 10
6975.5677797075004491
 20
345.2995126881618262
 30
0.0
 40
0.0001339435588038
 50
120.7018675976838011
 51
194.7768181346453957
  0
ARC
  5
3821C
  8
0
 10
6975.5682458869978291
 20
345.2988305902021011
 30
0.0
 40
0.0009598944694843
 50
104.4488781909534936
 51
123.8418227838018026
  0
ARC
  5
3821D
  8
0
 10
6975.5704070700330703
 20
345.2861330475412842
 30
0.0
 40
0.0110514380962286
 50
91.7640116720177161
 51
102.5463270263254003
  0
ARC
  5
3821E
  8
0
 10
6975.5742341318800754
 20
345.2118871765839003
 30
0.0
 40
0.0853938143605408
 50
90.2050624356932218
 51
92.7971715645086732
  0
ARC
  5
3821F
  8
0
 10
6975.5757071131010889
 20
345.2149925011386813
 30
0.0
 40
0.0823071624153886
 50
88.7617776718231681
 51
91.2382223281768177
  0
ARC
  5
38220
  8
0
 10
6975.5782115759830049
 20
345.223992766587628
 30
0.0
 40
0.0732912718682145
 50
85.3004195788820994
 51
90.5674509173352646
  0
ARC
  5
38221
  8
0
 10
6975.5829186201881384
 20
345.279341448464379
 30
0.0
 40
0.0177437087641405
 50
77.5227127959115876
 51
85.8055652008768845
  0
ARC
  5
38222
  8
0
 10
6975.5863026946362879
 20
345.2947782089838142
 30
0.0
 40
0.0019406474762104
 50
62.2914671993160525
 51
76.6073252434654108
  0
ARC
  5
38223
  8
0
 10
6975.58707038227476
 20
345.296239909505573
 30
0.0
 40
0.0002896136407758
 50
31.1808170791515309
 51
62.2914671993727822
  0
ARC
  5
38224
  8
0
 10
6975.5872157955436705
 20
345.2963458464872133
 30
0.0
 40
0.0001114211977828
 50
308.7461300319741895
 51
23.263950827826779
  0
ARC
  5
38225
  8
0
 10
6975.5865946185249413
 20
345.2971732203607189
 30
0.0
 40
0.0011459743429865
 50
283.2586594137198972
 51
307.078151710239581
  0
ARC
  5
38226
  8
0
 10
6975.582328650782074
 20
345.3165346320731146
 30
0.0
 40
0.0209716698992461
 50
272.9150165034366182
 51
282.4711612902780189
  0
ARC
  5
38227
  8
0
 10
6975.5776999702648027
 20
345.380916347368327
 30
0.0
 40
0.0855161035613774
 50
269.8564517859672947
 51
273.8186018104560731
  0
ARC
  5
38228
  8
0
 10
6975.5771150115097043
 20
345.3453328403911087
 30
0.0
 40
0.0499337042800063
 50
261.5856994602060013
 51
270.425367837601982
  0
ARC
  5
38229
  8
0
 10
6975.5710679706799056
 20
345.3047283993901146
 30
0.0
 40
0.0088815642756358
 50
249.3012150304176942
 51
261.8457063360933716
  0
ARC
  5
3822A
  8
0
 10
6975.5681101586023942
 20
345.2969377033061278
 30
0.0
 40
0.0005484518201936
 50
213.0010931168737045
 51
250.6833892852386896
  0
ARC
  5
3822B
  8
0
 10
6975.5677797075004491
 20
345.2966731491760015
 30
0.0
 40
0.0001339435588038
 50
120.7018675976838011
 51
194.7768181346453957
  0
ARC
  5
3822C
  8
0
 10
6975.5682458869978291
 20
345.2959910512162764
 30
0.0
 40
0.0009598944694843
 50
104.4488781909534936
 51
123.8418227838018026
  0
ARC
  5
3822D
  8
0
 10
6975.5704070700330703
 20
345.2918121255412984
 30
0.0
 40
0.0110514380962286
 50
91.7640116720177161
 51
102.5463270263254003
  0
ARC
  5
3822E
  8
0
 10
6975.5742341318800754
 20
345.2175662545840282
 30
0.0
 40
0.0853938143605408
 50
90.2050624356932218
 51
92.7971715645086732
  0
ARC
  5
3822F
  8
0
 10
6975.5775274571024056
 20
345.3151824423785001
 30
0.0
 40
0.0122229916137248
 50
266.1710967219767099
 51
269.8043523399464902
  0
ARC
  5
38230
  8
0
 10
6975.5777291777294522
 20
345.0857504821528892
 30
0.0
 40
0.2172422889351832
 50
90.4271641420743606
 51
91.0024453057437057
  0
ARC
  5
38231
  8
0
 10
6975.5782115759830049
 20
345.2296718445875854
 30
0.0
 40
0.0732912718682145
 50
85.3004195788820994
 51
90.5674509173352646
  0
ARC
  5
38232
  8
0
 10
6975.5829186201881384
 20
345.2850205264642796
 30
0.0
 40
0.0177437087641405
 50
77.5227127959115876
 51
85.8055652008768845
  0
ARC
  5
38233
  8
0
 10
6975.5863026946362879
 20
345.3004572869837716
 30
0.0
 40
0.0019406474762104
 50
62.2914671993160525
 51
76.6073252434654108
  0
ARC
  5
38234
  8
0
 10
6975.58707038227476
 20
345.3019189875055872
 30
0.0
 40
0.0002896136407758
 50
31.1808170791515309
 51
62.2914671993727822
  0
ARC
  5
38235
  8
0
 10
6975.5872157955436705
 20
345.3020249244872275
 30
0.0
 40
0.0001114211977828
 50
308.7461300319741895
 51
23.263950827826779
  0
ARC
  5
38236
  8
0
 10
6975.5865946185249413
 20
345.3028522983606763
 30
0.0
 40
0.0011459743429865
 50
283.2586594137198972
 51
307.078151710239581
  0
ARC
  5
38237
  8
0
 10
6975.582328650782074
 20
345.3222137100730151
 30
0.0
 40
0.0209716698992461
 50
272.9150165034366182
 51
282.4711612902780189
  0
ARC
  5
38238
  8
0
 10
6975.5776999702648027
 20
345.3865954253682276
 30
0.0
 40
0.0855161035613774
 50
269.8564517859672947
 51
273.8186018104560731
  0
ARC
  5
38239
  8
0
 10
6975.5771150115097043
 20
345.3510119183911229
 30
0.0
 40
0.0499337042800063
 50
261.5856994602060013
 51
270.425367837601982
  0
ARC
  5
3823A
  8
0
 10
6975.5710679706799056
 20
345.310407477390072
 30
0.0
 40
0.0088815642756358
 50
249.3012150304176942
 51
261.8457063360933716
  0
ARC
  5
3823B
  8
0
 10
6975.5681101586023942
 20
345.3026167813060852
 30
0.0
 40
0.0005484518201936
 50
213.0010931168737045
 51
250.6833892852386896
  0
ARC
  5
3823C
  8
0
 10
6975.5677797075004491
 20
345.3023522271760157
 30
0.0
 40
0.0001339435588038
 50
120.7018675976838011
 51
194.7768181346453957
  0
ARC
  5
3823D
  8
0
 10
6975.5682458869978291
 20
345.3016701292162907
 30
0.0
 40
0.0009598944694843
 50
104.4488781909534936
 51
123.8418227838018026
  0
ARC
  5
3823E
  8
0
 10
6975.6051604721078547
 20
345.3585319941674925
 30
0.0
 40
0.0079887293576476
 50
126.0049339796369026
 51
183.1073007527220113
  0
ARC
  5
3823F
  8
0
 10
6975.6062525052357159
 20
345.3587884618381167
 30
0.0
 40
0.0090951905296246
 50
184.3477563420188119
 51
228.3863366220303988
  0
ARC
  5
38240
  8
0
 10
6975.6070283024573655
 20
345.3594562501813243
 30
0.0
 40
0.0101105880217837
 50
227.6125784578420905
 51
269.9065837367364793
  0
ARC
  5
38241
  8
0
 10
6975.6070792368336697
 20
345.3597737638907006
 30
0.0
 40
0.0104283062262813
 50
269.6295808180740892
 51
310.1457309400462918
  0
ARC
  5
38242
  8
0
 10
6975.6083231353059091
 20
345.358334561505103
 30
0.0
 40
0.008526217070622
 50
309.9915607955704218
 51
2.3370235296814998
  0
ARC
  5
38243
  8
0
 10
6975.6083194293241831
 20
345.3581307414738717
 30
0.0
 40
0.0085406559783217
 50
3.7023471565343571
 51
53.4819722869982996
  0
ARC
  5
38244
  8
0
 10
6975.6070787714015751
 20
345.3300372029053733
 30
0.0
 40
0.0104126813355631
 50
47.8359068317624434
 51
90.3684139386644887
  0
ARC
  5
38245
  8
0
 10
6975.6084045766538111
 20
345.3315012050928203
 30
0.0
 40
0.0084375707123716
 50
351.8618189218979069
 51
47.8359068317602478
  0
ARC
  5
38246
  8
0
 10
6975.6081321018000381
 20
345.3317646330102093
 30
0.0
 40
0.0087474154016247
 50
305.0185064175926186
 51
350.4062255549990255
  0
ARC
  5
38247
  8
0
 10
6975.6071157046753797
 20
345.333055902827482
 30
0.0
 40
0.0103885749514263
 50
277.7171945193770739
 51
305.5226740153934202
  0
ARC
  5
38248
  8
0
 10
6975.6070909726577156
 20
345.3321003946152814
 30
0.0
 40
0.0094462781117249
 50
244.4994291126695884
 51
266.8671661818380016
  0
ARC
  5
38249
  8
0
 10
6975.6070909726577156
 20
345.3321003946152814
 30
0.0
 40
0.0094462781117249
 50
273.1328338181619984
 51
278.6441368833935144
  0
ARC
  5
3824A
  8
0
 10
6975.6079805603867499
 20
345.3335008736868872
 30
0.0
 40
0.0110951118664085
 50
201.6767770197257903
 51
243.4666105119337942
  0
ARC
  5
3824B
  8
0
 10
6975.6045704007083259
 20
345.3321454071580092
 30
0.0
 40
0.007425441779664
 50
151.9682320764360952
 51
201.6767770197257903
  0
ARC
  5
3824C
  8
0
 10
6975.6054250041906926
 20
345.3316903984458008
 30
0.0
 40
0.0083936256682842
 50
111.9188430899388038
 51
151.9682320764360952
  0
ARC
  5
3824D
  8
0
 10
6975.6073329416030901
 20
345.32694876165408
 30
0.0
 40
0.0135047258071471
 50
91.3625426300058479
 51
111.9188430899388038
  0
ARC
  5
3824E
  8
0
 10
6975.6061809702068786
 20
345.3040074784839248
 30
0.0
 40
0.0136935283379641
 50
91.8700003674893964
 51
121.9999666138861016
  0
ARC
  5
3824F
  8
0
 10
6975.6071133329878649
 20
345.3008606111260974
 30
0.0
 40
0.0168895107589337
 50
66.0695804288579183
 51
94.6840255983135535
  0
ARC
  5
38250
  8
0
 10
6975.611866954422112
 20
345.3113562086941783
 30
0.0
 40
0.0053686475705733
 50
26.6128954654919703
 51
67.0055512133603628
  0
ARC
  5
38251
  8
0
 10
6975.6138100415919325
 20
345.3128160068990269
 30
0.0
 40
0.0030090585928589
 50
304.4398897377647017
 51
18.3064417813064004
  0
ARC
  5
38252
  8
0
 10
6975.607594178572981
 20
345.3218902603323954
 30
0.0
 40
0.0140081050019648
 50
267.6172158405410073
 51
304.4173163771620239
  0
ARC
  5
38253
  8
0
 10
6975.6064587550854412
 20
345.3220849411231939
 30
0.0
 40
0.0142014460224431
 50
236.5218952895720008
 51
272.2317669319742777
  0
ARC
  5
38254
  8
0
 10
6975.6006268871697102
 20
345.3130701664615003
 30
0.0
 40
0.0034669816520192
 50
184.2184779969952046
 51
234.7306205037282041
  0
ARC
  5
38255
  8
0
 10
6975.600848044160557
 20
345.3124649698846156
 30
0.0
 40
0.0036953738296941
 50
121.3674229406141052
 51
174.5626122491428873
  0
ARC
  5
38256
  8
0
 10
6975.5999331685916331
 20
345.2889725865269952
 30
0.0
 40
0.0110514380962286
 50
91.7640116720177161
 51
102.5463270263254003
  0
ARC
  5
38257
  8
0
 10
6975.6037602304395477
 20
345.214726715569725
 30
0.0
 40
0.0853938143605408
 50
90.2050624356932218
 51
92.7971715645086732
  0
ARC
  5
38258
  8
0
 10
6975.6052332116605612
 20
345.217832040124506
 30
0.0
 40
0.0823071624153886
 50
88.7617776718231681
 51
91.2382223281768177
  0
ARC
  5
38259
  8
0
 10
6975.6077376745415677
 20
345.2268323055732822
 30
0.0
 40
0.0732912718682145
 50
85.3004195788820994
 51
90.5674509173352646
  0
ARC
  5
3825A
  8
0
 10
6975.6124447187467013
 20
345.28218098745009
 30
0.0
 40
0.0177437087641405
 50
77.5227127959115876
 51
85.8055652008768845
  0
ARC
  5
3825B
  8
0
 10
6975.6158287931948507
 20
345.2976177479695821
 30
0.0
 40
0.0019406474762104
 50
62.2914671993160525
 51
76.6073252434654108
  0
ARC
  5
3825C
  8
0
 10
6975.6165964808342324
 20
345.2990794484913977
 30
0.0
 40
0.0002896136407758
 50
31.1808170791515309
 51
62.2914671993727822
  0
ARC
  5
3825D
  8
0
 10
6975.6167418941031428
 20
345.2991853854729811
 30
0.0
 40
0.0001114211977828
 50
308.7461300319741895
 51
23.263950827826779
  0
ARC
  5
3825E
  8
0
 10
6975.6161207170844136
 20
345.3000127593464867
 30
0.0
 40
0.0011459743429865
 50
283.2586594137198972
 51
307.078151710239581
  0
ARC
  5
3825F
  8
0
 10
6975.6118547493415463
 20
345.3193741710588256
 30
0.0
 40
0.0209716698992461
 50
272.9150165034366182
 51
282.4711612902780189
  0
ARC
  5
38260
  8
0
 10
6975.607226068824275
 20
345.3837558863539812
 30
0.0
 40
0.0855161035613774
 50
269.8564517859672947
 51
273.8186018104560731
  0
ARC
  5
38261
  8
0
 10
6975.6066411100691766
 20
345.3481723793768765
 30
0.0
 40
0.0499337042800063
 50
261.5856994602060013
 51
270.425367837601982
  0
ARC
  5
38262
  8
0
 10
6975.6005940692393779
 20
345.3075679383758825
 30
0.0
 40
0.0088815642756358
 50
249.3012150304176942
 51
261.8457063360933716
  0
ARC
  5
38263
  8
0
 10
6975.5976362571618665
 20
345.2997772422917819
 30
0.0
 40
0.0005484518201936
 50
213.0010931168737045
 51
250.6833892852386896
  0
ARC
  5
38264
  8
0
 10
6975.597305806059012
 20
345.2995126881618262
 30
0.0
 40
0.0001339435588038
 50
120.7018675976838011
 51
194.7768181346453957
  0
ARC
  5
38265
  8
0
 10
6975.5977719855582109
 20
345.2988305902021011
 30
0.0
 40
0.0009598944694843
 50
104.4488781909534936
 51
123.8418227838018026
  0
ARC
  5
38266
  8
0
 10
6975.5999331685916331
 20
345.2861330475412842
 30
0.0
 40
0.0110514380962286
 50
91.7640116720177161
 51
102.5463270263254003
  0
ARC
  5
38267
  8
0
 10
6975.6037602304395477
 20
345.2118871765839003
 30
0.0
 40
0.0853938143605408
 50
90.2050624356932218
 51
92.7971715645086732
  0
ARC
  5
38268
  8
0
 10
6975.6052332116605612
 20
345.2149925011386813
 30
0.0
 40
0.0823071624153886
 50
88.7617776718231681
 51
91.2382223281768177
  0
ARC
  5
38269
  8
0
 10
6975.6077376745415677
 20
345.223992766587628
 30
0.0
 40
0.0732912718682145
 50
85.3004195788820994
 51
90.5674509173352646
  0
ARC
  5
3826A
  8
0
 10
6975.6124447187467013
 20
345.279341448464379
 30
0.0
 40
0.0177437087641405
 50
77.5227127959115876
 51
85.8055652008768845
  0
ARC
  5
3826B
  8
0
 10
6975.6158287931948507
 20
345.2947782089838142
 30
0.0
 40
0.0019406474762104
 50
62.2914671993160525
 51
76.6073252434654108
  0
ARC
  5
3826C
  8
0
 10
6975.6165964808342324
 20
345.296239909505573
 30
0.0
 40
0.0002896136407758
 50
31.1808170791515309
 51
62.2914671993727822
  0
ARC
  5
3826D
  8
0
 10
6975.6167418941031428
 20
345.2963458464872133
 30
0.0
 40
0.0001114211977828
 50
308.7461300319741895
 51
23.263950827826779
  0
ARC
  5
3826E
  8
0
 10
6975.6161207170844136
 20
345.2971732203607189
 30
0.0
 40
0.0011459743429865
 50
283.2586594137198972
 51
307.078151710239581
  0
ARC
  5
3826F
  8
0
 10
6975.6118547493415463
 20
345.3165346320731146
 30
0.0
 40
0.0209716698992461
 50
272.9150165034366182
 51
282.4711612902780189
  0
ARC
  5
38270
  8
0
 10
6975.607226068824275
 20
345.380916347368327
 30
0.0
 40
0.0855161035613774
 50
269.8564517859672947
 51
273.8186018104560731
  0
ARC
  5
38271
  8
0
 10
6975.6066411100691766
 20
345.3453328403911087
 30
0.0
 40
0.0499337042800063
 50
261.5856994602060013
 51
270.425367837601982
  0
ARC
  5
38272
  8
0
 10
6975.6005940692393779
 20
345.3047283993901146
 30
0.0
 40
0.0088815642756358
 50
249.3012150304176942
 51
261.8457063360933716
  0
ARC
  5
38273
  8
0
 10
6975.5976362571618665
 20
345.2969377033061278
 30
0.0
 40
0.0005484518201936
 50
213.0010931168737045
 51
250.6833892852386896
  0
ARC
  5
38274
  8
0
 10
6975.597305806059012
 20
345.2966731491760015
 30
0.0
 40
0.0001339435588038
 50
120.7018675976838011
 51
194.7768181346453957
  0
ARC
  5
38275
  8
0
 10
6975.5977719855582109
 20
345.2959910512162764
 30
0.0
 40
0.0009598944694843
 50
104.4488781909534936
 51
123.8418227838018026
  0
ARC
  5
38276
  8
0
 10
6975.5999331685916331
 20
345.2918121255412984
 30
0.0
 40
0.0110514380962286
 50
91.7640116720177161
 51
102.5463270263254003
  0
ARC
  5
38277
  8
0
 10
6975.6037602304395477
 20
345.2175662545840282
 30
0.0
 40
0.0853938143605408
 50
90.2050624356932218
 51
92.7971715645086732
  0
ARC
  5
38278
  8
0
 10
6975.6070535556618779
 20
345.3151824423785001
 30
0.0
 40
0.0122229916137248
 50
266.1710967219767099
 51
269.8043523399464902
  0
ARC
  5
38279
  8
0
 10
6975.6072552762889245
 20
345.0857504821528892
 30
0.0
 40
0.2172422889351832
 50
90.4271641420743606
 51
91.0024453057437057
  0
ARC
  5
3827A
  8
0
 10
6975.6077376745415677
 20
345.2296718445875854
 30
0.0
 40
0.0732912718682145
 50
85.3004195788820994
 51
90.5674509173352646
  0
ARC
  5
3827B
  8
0
 10
6975.6124447187467013
 20
345.2850205264642796
 30
0.0
 40
0.0177437087641405
 50
77.5227127959115876
 51
85.8055652008768845
  0
ARC
  5
3827C
  8
0
 10
6975.6158287931948507
 20
345.3004572869837716
 30
0.0
 40
0.0019406474762104
 50
62.2914671993160525
 51
76.6073252434654108
  0
ARC
  5
3827D
  8
0
 10
6975.6165964808342324
 20
345.3019189875055872
 30
0.0
 40
0.0002896136407758
 50
31.1808170791515309
 51
62.2914671993727822
  0
ARC
  5
3827E
  8
0
 10
6975.6167418941031428
 20
345.3020249244872275
 30
0.0
 40
0.0001114211977828
 50
308.7461300319741895
 51
23.263950827826779
  0
ARC
  5
3827F
  8
0
 10
6975.6161207170844136
 20
345.3028522983606763
 30
0.0
 40
0.0011459743429865
 50
283.2586594137198972
 51
307.078151710239581
  0
ARC
  5
38280
  8
0
 10
6975.6118547493415463
 20
345.3222137100730151
 30
0.0
 40
0.0209716698992461
 50
272.9150165034366182
 51
282.4711612902780189
  0
ARC
  5
38281
  8
0
 10
6975.607226068824275
 20
345.3865954253682276
 30
0.0
 40
0.0855161035613774
 50
269.8564517859672947
 51
273.8186018104560731
  0
ARC
  5
38282
  8
0
 10
6975.6066411100691766
 20
345.3510119183911229
 30
0.0
 40
0.0499337042800063
 50
261.5856994602060013
 51
270.425367837601982
  0
ARC
  5
38283
  8
0
 10
6975.6005940692393779
 20
345.310407477390072
 30
0.0
 40
0.0088815642756358
 50
249.3012150304176942
 51
261.8457063360933716
  0
ARC
  5
38284
  8
0
 10
6975.5976362571618665
 20
345.3026167813060852
 30
0.0
 40
0.0005484518201936
 50
213.0010931168737045
 51
250.6833892852386896
  0
ARC
  5
38285
  8
0
 10
6975.597305806059012
 20
345.3023522271760157
 30
0.0
 40
0.0001339435588038
 50
120.7018675976838011
 51
194.7768181346453957
  0
ARC
  5
38286
  8
0
 10
6975.5977719855582109
 20
345.3016701292162907
 30
0.0
 40
0.0009598944694843
 50
104.4488781909534936
 51
123.8418227838018026
  0
ARC
  5
38287
  8
0
 10
6975.6346880311066343
 20
345.3585319941674925
 30
0.0
 40
0.0079887293576476
 50
126.0049339796369026
 51
183.1073007527220113
  0
ARC
  5
38288
  8
0
 10
6975.6357800642363145
 20
345.3587884618381167
 30
0.0
 40
0.0090951905296246
 50
184.3477563420188119
 51
228.3863366220303988
  0
ARC
  5
38289
  8
0
 10
6975.6365558614561451
 20
345.3594562501813243
 30
0.0
 40
0.0101105880217837
 50
227.6125784578420905
 51
269.9065837367364793
  0
ARC
  5
3828A
  8
0
 10
6975.6366067958324493
 20
345.3597737638907006
 30
0.0
 40
0.0104283062262813
 50
269.6295808180740892
 51
310.1457309400462918
  0
ARC
  5
3828B
  8
0
 10
6975.6378506943046887
 20
345.358334561505103
 30
0.0
 40
0.008526217070622
 50
309.9915607955704218
 51
2.3370235296814998
  0
ARC
  5
3828C
  8
0
 10
6975.6378469883238722
 20
345.3581307414738717
 30
0.0
 40
0.0085406559783217
 50
3.7023471565343571
 51
53.4819722869982996
  0
ARC
  5
3828D
  8
0
 10
6975.6366063304012641
 20
345.3300372029053733
 30
0.0
 40
0.0104126813355631
 50
47.8359068317624434
 51
90.3684139386644887
  0
ARC
  5
3828E
  8
0
 10
6975.6379321356544096
 20
345.3315012050928203
 30
0.0
 40
0.0084375707123716
 50
351.8618189218979069
 51
47.8359068317602478
  0
ARC
  5
3828F
  8
0
 10
6975.6376596607988176
 20
345.3317646330102093
 30
0.0
 40
0.0087474154016247
 50
305.0185064175926186
 51
350.4062255549990255
  0
ARC
  5
38290
  8
0
 10
6975.6366432636741592
 20
345.333055902827482
 30
0.0
 40
0.0103885749514263
 50
277.7171945193770739
 51
305.5226740153934202
  0
ARC
  5
38291
  8
0
 10
6975.6366185316592237
 20
345.3321003946152814
 30
0.0
 40
0.0094462781117249
 50
244.4994291126695884
 51
266.8671661818380016
  0
ARC
  5
38292
  8
0
 10
6975.6366185316592237
 20
345.3321003946152814
 30
0.0
 40
0.0094462781117249
 50
273.1328338181619984
 51
278.6441368833935144
  0
ARC
  5
38293
  8
0
 10
6975.6375081193873484
 20
345.3335008736868872
 30
0.0
 40
0.0110951118664085
 50
201.6767770197257903
 51
243.4666105119337942
  0
ARC
  5
38294
  8
0
 10
6975.6340979597089245
 20
345.3321454071580092
 30
0.0
 40
0.007425441779664
 50
151.9682320764360952
 51
201.6767770197257903
  0
ARC
  5
38295
  8
0
 10
6975.6349525631922006
 20
345.3316903984458008
 30
0.0
 40
0.0083936256682842
 50
111.9188430899388038
 51
151.9682320764360952
  0
ARC
  5
38296
  8
0
 10
6975.6368605006027792
 20
345.32694876165408
 30
0.0
 40
0.0135047258071471
 50
91.3625426300058479
 51
111.9188430899388038
  0
ARC
  5
38297
  8
0
 10
6975.6357085292083866
 20
345.3040074784839248
 30
0.0
 40
0.0136935283379641
 50
91.8700003674893964
 51
121.9999666138861016
  0
ARC
  5
38298
  8
0
 10
6975.6366408919875539
 20
345.3008606111260974
 30
0.0
 40
0.0168895107589337
 50
66.0695804288579183
 51
94.6840255983135535
  0
ARC
  5
38299
  8
0
 10
6975.6413945134208916
 20
345.3113562086941783
 30
0.0
 40
0.0053686475705733
 50
26.6128954654919703
 51
67.0055512133603628
  0
ARC
  5
3829A
  8
0
 10
6975.6433376005907121
 20
345.3128160068990269
 30
0.0
 40
0.0030090585928589
 50
304.4398897377647017
 51
18.3064417813064004
  0
ARC
  5
3829B
  8
0
 10
6975.6371217375708511
 20
345.3218902603323954
 30
0.0
 40
0.0140081050019648
 50
267.6172158405410073
 51
304.4173163771620239
  0
ARC
  5
3829C
  8
0
 10
6975.6359863140851303
 20
345.3220849411231939
 30
0.0
 40
0.0142014460224431
 50
236.5218952895720008
 51
272.2317669319742777
  0
ARC
  5
3829D
  8
0
 10
6975.6301544461712183
 20
345.3130701664615003
 30
0.0
 40
0.0034669816520192
 50
184.2184779969952046
 51
234.7306205037282041
  0
ARC
  5
3829E
  8
0
 10
6975.6303756031593366
 20
345.3124649698846156
 30
0.0
 40
0.0036953738296941
 50
121.3674229406141052
 51
174.5626122491428873
  0
ARC
  5
3829F
  8
0
 10
6975.6294607275931412
 20
345.2889725865269952
 30
0.0
 40
0.0110514380962286
 50
91.7640116720177161
 51
102.5463270263254003
  0
ARC
  5
382A0
  8
0
 10
6975.6332877894410558
 20
345.214726715569725
 30
0.0
 40
0.0853938143605408
 50
90.2050624356932218
 51
92.7971715645086732
  0
ARC
  5
382A1
  8
0
 10
6975.6347607706611598
 20
345.217832040124506
 30
0.0
 40
0.0823071624153886
 50
88.7617776718231681
 51
91.2382223281768177
  0
ARC
  5
382A2
  8
0
 10
6975.6372652335430757
 20
345.2268323055732822
 30
0.0
 40
0.0732912718682145
 50
85.3004195788820994
 51
90.5674509173352646
  0
ARC
  5
382A3
  8
0
 10
6975.6419722777482093
 20
345.28218098745009
 30
0.0
 40
0.0177437087641405
 50
77.5227127959115876
 51
85.8055652008768845
  0
ARC
  5
382A4
  8
0
 10
6975.6453563521954493
 20
345.2976177479695821
 30
0.0
 40
0.0019406474762104
 50
62.2914671993160525
 51
76.6073252434654108
  0
ARC
  5
382A5
  8
0
 10
6975.6461240398330119
 20
345.2990794484913977
 30
0.0
 40
0.0002896136407758
 50
31.1808170791515309
 51
62.2914671993727822
  0
ARC
  5
382A6
  8
0
 10
6975.6462694531019224
 20
345.2991853854729811
 30
0.0
 40
0.0001114211977828
 50
308.7461300319741895
 51
23.263950827826779
  0
ARC
  5
382A7
  8
0
 10
6975.6456482760841027
 20
345.3000127593464867
 30
0.0
 40
0.0011459743429865
 50
283.2586594137198972
 51
307.078151710239581
  0
ARC
  5
382A8
  8
0
 10
6975.6413823083421448
 20
345.3193741710588256
 30
0.0
 40
0.0209716698992461
 50
272.9150165034366182
 51
282.4711612902780189
  0
ARC
  5
382A9
  8
0
 10
6975.6367536278230546
 20
345.3837558863539812
 30
0.0
 40
0.0855161035613774
 50
269.8564517859672947
 51
273.8186018104560731
  0
ARC
  5
382AA
  8
0
 10
6975.6361686690688657
 20
345.3481723793768765
 30
0.0
 40
0.0499337042800063
 50
261.5856994602060013
 51
270.425367837601982
  0
ARC
  5
382AB
  8
0
 10
6975.6301216282390669
 20
345.3075679383758825
 30
0.0
 40
0.0088815642756358
 50
249.3012150304176942
 51
261.8457063360933716
  0
ARC
  5
382AC
  8
0
 10
6975.6271638161597366
 20
345.2997772422917819
 30
0.0
 40
0.0005484518201936
 50
213.0010931168737045
 51
250.6833892852386896
  0
ARC
  5
382AD
  8
0
 10
6975.626833365058701
 20
345.2995126881618262
 30
0.0
 40
0.0001339435588038
 50
120.7018675976838011
 51
194.7768181346453957
  0
ARC
  5
382AE
  8
0
 10
6975.6272995445588094
 20
345.2988305902021011
 30
0.0
 40
0.0009598944694843
 50
104.4488781909534936
 51
123.8418227838018026
  0
ARC
  5
382AF
  8
0
 10
6975.6294607275922317
 20
345.2861330475412842
 30
0.0
 40
0.0110514380962286
 50
91.7640116720177161
 51
102.5463270263254003
  0
ARC
  5
382B0
  8
0
 10
6975.6332877894392368
 20
345.2118871765839003
 30
0.0
 40
0.0853938143605408
 50
90.2050624356932218
 51
92.7971715645086732
  0
ARC
  5
382B1
  8
0
 10
6975.6347607706611598
 20
345.2149925011386813
 30
0.0
 40
0.0823071624153886
 50
88.7617776718231681
 51
91.2382223281768177
  0
ARC
  5
382B2
  8
0
 10
6975.6372652335430757
 20
345.223992766587628
 30
0.0
 40
0.0732912718682145
 50
85.3004195788820994
 51
90.5674509173352646
  0
ARC
  5
382B3
  8
0
 10
6975.6419722777482093
 20
345.279341448464379
 30
0.0
 40
0.0177437087641405
 50
77.5227127959115876
 51
85.8055652008768845
  0
ARC
  5
382B4
  8
0
 10
6975.6453563521954493
 20
345.2947782089838142
 30
0.0
 40
0.0019406474762104
 50
62.2914671993160525
 51
76.6073252434654108
  0
ARC
  5
382B5
  8
0
 10
6975.6461240398330119
 20
345.296239909505573
 30
0.0
 40
0.0002896136407758
 50
31.1808170791515309
 51
62.2914671993727822
  0
ARC
  5
382B6
  8
0
 10
6975.6462694531019224
 20
345.2963458464872133
 30
0.0
 40
0.0001114211977828
 50
308.7461300319741895
 51
23.263950827826779
  0
ARC
  5
382B7
  8
0
 10
6975.6456482760841027
 20
345.2971732203607189
 30
0.0
 40
0.0011459743429865
 50
283.2586594137198972
 51
307.078151710239581
  0
ARC
  5
382B8
  8
0
 10
6975.6413823083421448
 20
345.3165346320731146
 30
0.0
 40
0.0209716698992461
 50
272.9150165034366182
 51
282.4711612902780189
  0
ARC
  5
382B9
  8
0
 10
6975.6367536278230546
 20
345.380916347368327
 30
0.0
 40
0.0855161035613774
 50
269.8564517859672947
 51
273.8186018104560731
  0
ARC
  5
382BA
  8
0
 10
6975.6361686690688657
 20
345.3453328403911087
 30
0.0
 40
0.0499337042800063
 50
261.5856994602060013
 51
270.425367837601982
  0
ARC
  5
382BB
  8
0
 10
6975.6301216282390669
 20
345.3047283993901146
 30
0.0
 40
0.0088815642756358
 50
249.3012150304176942
 51
261.8457063360933716
  0
ARC
  5
382BC
  8
0
 10
6975.6271638161597366
 20
345.2969377033061278
 30
0.0
 40
0.0005484518201936
 50
213.0010931168737045
 51
250.6833892852386896
  0
ARC
  5
382BD
  8
0
 10
6975.626833365058701
 20
345.2966731491760015
 30
0.0
 40
0.0001339435588038
 50
120.7018675976838011
 51
194.7768181346453957
  0
ARC
  5
382BE
  8
0
 10
6975.6272995445588094
 20
345.2959910512162764
 30
0.0
 40
0.0009598944694843
 50
104.4488781909534936
 51
123.8418227838018026
  0
ARC
  5
382BF
  8
0
 10
6975.6294607275922317
 20
345.2918121255412984
 30
0.0
 40
0.0110514380962286
 50
91.7640116720177161
 51
102.5463270263254003
  0
ARC
  5
382C0
  8
0
 10
6975.6332877894392368
 20
345.2175662545840282
 30
0.0
 40
0.0853938143605408
 50
90.2050624356932218
 51
92.7971715645086732
  0
ARC
  5
382C1
  8
0
 10
6975.636581114661567
 20
345.3151824423785001
 30
0.0
 40
0.0122229916137248
 50
266.1710967219767099
 51
269.8043523399464902
  0
ARC
  5
382C2
  8
0
 10
6975.6367828352886136
 20
345.0857504821528892
 30
0.0
 40
0.2172422889351832
 50
90.4271641420743606
 51
91.0024453057437057
  0
ARC
  5
382C3
  8
0
 10
6975.6372652335430757
 20
345.2296718445875854
 30
0.0
 40
0.0732912718682145
 50
85.3004195788820994
 51
90.5674509173352646
  0
ARC
  5
382C4
  8
0
 10
6975.6419722777482093
 20
345.2850205264642796
 30
0.0
 40
0.0177437087641405
 50
77.5227127959115876
 51
85.8055652008768845
  0
ARC
  5
382C5
  8
0
 10
6975.6453563521954493
 20
345.3004572869837716
 30
0.0
 40
0.0019406474762104
 50
62.2914671993160525
 51
76.6073252434654108
  0
ARC
  5
382C6
  8
0
 10
6975.6461240398330119
 20
345.3019189875055872
 30
0.0
 40
0.0002896136407758
 50
31.1808170791515309
 51
62.2914671993727822
  0
ARC
  5
382C7
  8
0
 10
6975.6462694531019224
 20
345.3020249244872275
 30
0.0
 40
0.0001114211977828
 50
308.7461300319741895
 51
23.263950827826779
  0
ARC
  5
382C8
  8
0
 10
6975.6456482760841027
 20
345.3028522983606763
 30
0.0
 40
0.0011459743429865
 50
283.2586594137198972
 51
307.078151710239581
  0
ARC
  5
382C9
  8
0
 10
6975.6413823083421448
 20
345.3222137100730151
 30
0.0
 40
0.0209716698992461
 50
272.9150165034366182
 51
282.4711612902780189
  0
ARC
  5
382CA
  8
0
 10
6975.6367536278230546
 20
345.3865954253682276
 30
0.0
 40
0.0855161035613774
 50
269.8564517859672947
 51
273.8186018104560731
  0
ARC
  5
382CB
  8
0
 10
6975.6361686690688657
 20
345.3510119183911229
 30
0.0
 40
0.0499337042800063
 50
261.5856994602060013
 51
270.425367837601982
  0
ARC
  5
382CC
  8
0
 10
6975.6301216282390669
 20
345.310407477390072
 30
0.0
 40
0.0088815642756358
 50
249.3012150304176942
 51
261.8457063360933716
  0
ARC
  5
382CD
  8
0
 10
6975.6271638161597366
 20
345.3026167813060852
 30
0.0
 40
0.0005484518201936
 50
213.0010931168737045
 51
250.6833892852386896
  0
ARC
  5
382CE
  8
0
 10
6975.626833365058701
 20
345.3023522271760157
 30
0.0
 40
0.0001339435588038
 50
120.7018675976838011
 51
194.7768181346453957
  0
ARC
  5
382CF
  8
0
 10
6975.6272995445588094
 20
345.3016701292162907
 30
0.0
 40
0.0009598944694843
 50
104.4488781909534936
 51
123.8418227838018026
  0
LINE
  5
382D0
  8
0
 10
6976.2114452933255961
 20
345.3038851076087781
 30
0.0
 11
6976.2114452933255961
 21
345.3800190473572229
 31
0.0
  0
ARC
  5
382D1
  8
0
 10
6976.1657244603620711
 20
345.3137768146866051
 30
0.0
 40
0.0465605786803755
 50
10.8982619376646994
 51
56.2999131372675805
  0
ARC
  5
382D2
  8
0
 10
6976.1170679688320888
 20
345.2452344334025156
 30
0.0
 40
0.1306044542435777
 50
55.2252693295997474
 51
77.5162421604534018
  0
ARC
  5
382D3
  8
0
 10
6976.0907010194150644
 20
345.1419365864396127
 30
0.0
 40
0.2371841959857452
 50
76.6914068331933123
 51
86.901927234548026
  0
ARC
  5
382D4
  8
0
 10
6976.1752526497830331
 20
345.3076161110370208
 30
0.0
 40
0.0363844449335685
 50
322.663137722659485
 51
354.114320655029303
  0
ARC
  5
382D5
  8
0
 10
6976.1530567817626434
 20
345.3245474096902967
 30
0.0
 40
0.0643008456916488
 50
300.8869440019864214
 51
322.663137722659485
  0
ARC
  5
382D6
  8
0
 10
6976.1131104377582233
 20
345.3913274154529063
 30
0.0
 40
0.1421165225757705
 50
289.6022595807323796
 51
300.8869440019864214
  0
ARC
  5
382D7
  8
0
 10
6976.0982349936612081
 20
345.4429527555975028
 30
0.0
 40
0.1957683430812947
 50
275.644524926011627
 51
288.634527108092982
  0
ARC
  5
382D8
  8
0
 10
6976.0905525878679327
 20
345.5130167036857074
 30
0.0
 40
0.2662492500023049
 50
271.6980461864511085
 51
275.8067673221328278
  0
LINE
  5
382D9
  8
0
 10
6976.2409728524262391
 20
345.3436600551477227
 30
0.0
 11
6976.2409728524262391
 21
345.3186586411034114
 31
0.0
  0
ARC
  5
382DA
  8
0
 10
6976.1949780769982681
 20
345.3381294532263723
 30
0.0
 40
0.0463260933415753
 50
6.8565622735140312
 51
45.3632246802151471
  0
ARC
  5
382DB
  8
0
 10
6976.1519439528201474
 20
345.2945462138104062
 30
0.0
 40
0.10757504926467
 50
45.3632246802151471
 51
61.0425925287465674
  0
ARC
  5
382DC
  8
0
 10
6976.1171307729709952
 20
345.2227042223630065
 30
0.0
 40
0.1873403350624255
 50
62.3645834797540601
 51
80.0198544685679423
  0
ARC
  5
382DD
  8
0
 10
6976.0913738143672163
 20
345.0878358497902241
 30
0.0
 40
0.3246378416317794
 50
79.6680024839892837
 51
86.4015392301287193
  0
LINE
  5
382DE
  8
0
 10
6976.2173508051264434
 20
345.3634785457094836
 30
0.0
 11
6976.2173508051264434
 21
345.3401780803376937
 31
0.0
  0
ARC
  5
382DF
  8
0
 10
6976.1777984115606159
 20
345.3586815028863839
 30
0.0
 40
0.0398422320715515
 50
6.9152434348895531
 51
48.8280041573164567
  0
ARC
  5
382E0
  8
0
 10
6976.1834141184799591
 20
345.3426414669469864
 30
0.0
 40
0.0340259749906183
 50
325.4687305848207188
 51
355.8483116651788123
  0
ARC
  5
382E1
  8
0
 10
6976.1923101546972248
 20
345.325191929293112
 30
0.0
 40
0.0490993075797563
 50
310.8300615764367762
 51
352.3533878312824186
  0
ARC
  5
382E2
  8
0
 10
6976.1530604454956119
 20
345.3666131556432788
 30
0.0
 40
0.1061351756567732
 50
295.3392544393857975
 51
312.2426606603452797
  0
ARC
  5
382E3
  8
0
 10
6976.1213374070430291
 20
345.4308531800376727
 30
0.0
 40
0.1777752751877326
 50
282.9838184683201803
 51
295.7188177971048049
  0
LINE
  5
382E4
  8
0
 10
6976.2409728524262391
 20
345.3436600551477227
 30
0.0
 11
6976.2173508051264434
 21
345.3634785457094836
 31
0.0
  0
LINE
  5
382E5
  8
0
 10
6976.2409728524262391
 20
345.3186586411034114
 30
0.0
 11
6976.2173508051264434
 21
345.3401780803376937
 31
0.0
  0
LINE
  5
382E6
  8
0
 10
6976.1838862382255684
 20
345.3222654901867941
 30
0.0
 11
6976.1838862382255684
 21
345.3046753218325193
 31
0.0
  0
ARC
  5
382E7
  8
0
 10
6976.1516695734080713
 20
345.3162962703028143
 30
0.0
 40
0.0327649977573207
 50
10.4969291323271197
 51
46.1427526360287175
  0
ARC
  5
382E8
  8
0
 10
6976.128593548374738
 20
345.2922808922820082
 30
0.0
 40
0.0660702723059474
 50
46.1427526360287175
 51
65.4946663420117829
  0
ARC
  5
382E9
  8
0
 10
6976.1013018333796936
 20
345.2324094597524891
 30
0.0
 40
0.1318686472139096
 50
65.4946663420117829
 51
77.3519514940172144
  0
ARC
  5
382EA
  8
0
 10
6976.092056465386122
 20
345.1871851980620818
 30
0.0
 40
0.1780220356561823
 50
77.6356154514904944
 51
87.1993921919203956
  0
ARC
  5
382EB
  8
0
 10
6976.1560810620421762
 20
345.3071380219669777
 30
0.0
 40
0.0279140236179457
 50
320.1241122889026087
 51
354.9385292375869199
  0
ARC
  5
382EC
  8
0
 10
6976.1354603981199034
 20
345.3243648335317175
 30
0.0
 40
0.0547836126968121
 50
299.5696332271701863
 51
320.1241122889026087
  0
ARC
  5
382ED
  8
0
 10
6976.1090998278250481
 20
345.3708251461720806
 30
0.0
 40
0.1082012157590474
 50
285.4870190135044936
 51
299.5696332271701863
  0
ARC
  5
382EE
  8
0
 10
6976.0888031475042226
 20
345.4495087172203966
 30
0.0
 40
0.1894530352886638
 50
274.5923223673297002
 51
285.0483851985310935
  0
ARC
  5
382EF
  8
0
 10
6976.1428695622953455
 20
345.3505254610869883
 30
0.0
 40
0.0440002835127036
 50
304.3098937281399117
 51
331.6581681520020197
  0
ARC
  5
382F0
  8
0
 10
6976.1117194060307156
 20
345.3972183912418927
 30
0.0
 40
0.100128791099357
 50
283.3479960873236223
 51
303.9726915741132984
  0
ARC
  5
382F1
  8
0
 10
6976.0929741973513956
 20
345.4669803102265178
 30
0.0
 40
0.1723469621974474
 50
272.4589282851267171
 51
284.0571996203657932
  0
ARC
  5
382F2
  8
0
 10
6976.0814068753634274
 20
345.3585461114784039
 30
0.0
 40
0.0079887293576476
 50
356.8926992472780171
 51
53.8231834351503977
  0
ARC
  5
382F3
  8
0
 10
6976.0803148422346567
 20
345.3588025791490281
 30
0.0
 40
0.0090951905296246
 50
311.6136633779696012
 51
355.6522436579812165
  0
ARC
  5
382F4
  8
0
 10
6976.0795390450139166
 20
345.3594703674922926
 30
0.0
 40
0.0101105880217837
 50
270.0934162632635207
 51
312.387421542157881
  0
ARC
  5
382F5
  8
0
 10
6976.0794881106357934
 20
345.3597878812017257
 30
0.0
 40
0.0104283062262813
 50
229.8542690599537082
 51
270.3704191819257971
  0
ARC
  5
382F6
  8
0
 10
6976.078244212165373
 20
345.3583486788160144
 30
0.0
 40
0.008526217070622
 50
177.6629764703185117
 51
230.0084392044296919
  0
ARC
  5
382F7
  8
0
 10
6976.07824791814528
 20
345.3581448587847831
 30
0.0
 40
0.0085406559783217
 50
126.6768821713914974
 51
176.2976528434656132
  0
ARC
  5
382F8
  8
0
 10
6976.0794885760669786
 20
345.3300513202162847
 30
0.0
 40
0.0104126813355631
 50
89.6315860613355255
 51
132.1640931682375992
  0
ARC
  5
382F9
  8
0
 10
6976.0781627708147425
 20
345.3315153224036749
 30
0.0
 40
0.0084375707123716
 50
132.1640931682397024
 51
188.1381810781020931
  0
ARC
  5
382FA
  8
0
 10
6976.078435245671244
 20
345.3317787503211775
 30
0.0
 40
0.0087474154016247
 50
189.593774445001003
 51
234.9814935824074098
  0
ARC
  5
382FB
  8
0
 10
6976.0794516427949929
 20
345.3330700201385071
 30
0.0
 40
0.0103885749514263
 50
234.4773259846066935
 51
262.2828054806229261
  0
ARC
  5
382FC
  8
0
 10
6976.079476374810838
 20
345.3321145119263065
 30
0.0
 40
0.0094462781117249
 50
261.3558631166063719
 51
295.5005708873304116
  0
ARC
  5
382FD
  8
0
 10
6976.0785867870836228
 20
345.3335149909977986
 30
0.0
 40
0.0110951118664085
 50
296.5333894880661774
 51
338.3232229802711117
  0
ARC
  5
382FE
  8
0
 10
6976.0819969467620467
 20
345.3321595244688069
 30
0.0
 40
0.007425441779664
 50
338.3232229802711117
 51
28.0317679235639083
  0
ARC
  5
382FF
  8
0
 10
6976.0811423432787706
 20
345.3317045157567122
 30
0.0
 40
0.0083936256682842
 50
28.0317679235639083
 51
68.0811569100611536
  0
ARC
  5
38300
  8
0
 10
6976.0792344058672825
 20
345.3269628789649914
 30
0.0
 40
0.0135047258071471
 50
68.0811569100611536
 51
88.6374573699941379
  0
ARC
  5
38301
  8
0
 10
6976.0803863772616751
 20
345.3040215957947794
 30
0.0
 40
0.0136935283379641
 50
58.0000333861138202
 51
88.1299996325106463
  0
ARC
  5
38302
  8
0
 10
6976.0794540144834173
 20
345.3008747284371225
 30
0.0
 40
0.0168895107589337
 50
85.3159744016864465
 51
113.9304195711420959
  0
ARC
  5
38303
  8
0
 10
6976.0747003930482606
 20
345.3113703260052034
 30
0.0
 40
0.0053686475705733
 50
112.9944487866395946
 51
153.387104534508012
  0
ARC
  5
38304
  8
0
 10
6976.0727573058784401
 20
345.3128301242098814
 30
0.0
 40
0.0030090585928589
 50
161.693558218693596
 51
235.5601102622352983
  0
ARC
  5
38305
  8
0
 10
6976.0789731688973916
 20
345.3219043776433068
 30
0.0
 40
0.0140081050019648
 50
235.5826836228378909
 51
272.3827841594589927
  0
ARC
  5
38306
  8
0
 10
6976.0801085923840219
 20
345.3220990584341052
 30
0.0
 40
0.0142014460224431
 50
267.7682330680256086
 51
303.4781047104278855
  0
ARC
  5
38307
  8
0
 10
6976.0859404602997529
 20
345.3130842837725254
 30
0.0
 40
0.0034669816520192
 50
305.2693794962717107
 51
355.7815220030046817
  0
ARC
  5
38308
  8
0
 10
6976.0857193033089061
 20
345.312479087195527
 30
0.0
 40
0.0036953738296941
 50
5.4373877508571198
 51
58.632577059385909
  0
ARC
  5
38309
  8
0
 10
6976.0800954453870872
 20
345.2901534292677752
 30
0.0
 40
0.032529564169193
 50
66.409603838422143
 51
88.2739532482171541
  0
ARC
  5
3830A
  8
0
 10
6976.087936231076128
 20
345.3081915400056232
 30
0.0
 40
0.0128610979180456
 50
35.47664671367545
 51
66.2615223252306436
  0
ARC
  5
3830B
  8
0
 10
6976.0944952429408659
 20
345.3128660052838086
 30
0.0
 40
0.0048068281010643
 50
330.6873429324605809
 51
35.47664671367545
  0
ARC
  5
3830C
  8
0
 10
6976.0897795312212111
 20
345.3155137092455789
 30
0.0
 40
0.0102149953773752
 50
301.9800892438304913
 51
330.6873429324605809
  0
ARC
  5
3830D
  8
0
 10
6976.0833119448798243
 20
345.3258720190880808
 30
0.0
 40
0.0224266396513169
 50
282.3130961554750797
 51
301.9800892438304913
  0
ARC
  5
3830E
  8
0
 10
6976.0784964614440469
 20
345.3479335920818016
 30
0.0
 40
0.0450076467963748
 50
272.978196861542699
 51
282.3130961554750797
  0
ARC
  5
3830F
  8
0
 10
6976.086634178876011
 20
345.2889867038380203
 30
0.0
 40
0.0110514380962286
 50
77.4536729736745286
 51
88.2359883279822981
  0
ARC
  5
38310
  8
0
 10
6976.0828071170290059
 20
345.2147408328805795
 30
0.0
 40
0.0853938143605408
 50
87.2028284354913268
 51
89.794937564306764
  0
ARC
  5
38311
  8
0
 10
6976.0813341358089019
 20
345.2178461574354174
 30
0.0
 40
0.0823071624153886
 50
88.7617776718231681
 51
91.2382223281768177
  0
ARC
  5
38312
  8
0
 10
6976.0788296729269859
 20
345.2268464228843072
 30
0.0
 40
0.0732912718682145
 50
89.4325490826647354
 51
94.6995804211179149
  0
ARC
  5
38313
  8
0
 10
6976.0741226287218524
 20
345.2821951047611151
 30
0.0
 40
0.0177437087641405
 50
94.1944347991231012
 51
102.4772872040883982
  0
ARC
  5
38314
  8
0
 10
6976.0707385542737029
 20
345.2976318652804935
 30
0.0
 40
0.0019406474762104
 50
103.3926747565346034
 51
117.7085328006838978
  0
ARC
  5
38315
  8
0
 10
6976.0699708666361403
 20
345.2990935658023091
 30
0.0
 40
0.0002896136407758
 50
117.7085328006271965
 51
148.8191829208485046
  0
ARC
  5
38316
  8
0
 10
6976.0698254533681393
 20
345.2991995027838925
 30
0.0
 40
0.0001114211977828
 50
156.7360491721732103
 51
231.2538699680258105
  0
ARC
  5
38317
  8
0
 10
6976.070446630385959
 20
345.3000268766573981
 30
0.0
 40
0.0011459743429865
 50
232.9218482897605043
 51
256.7413405862802165
  0
ARC
  5
38318
  8
0
 10
6976.0747125981297359
 20
345.3193882883696801
 30
0.0
 40
0.0209716698992461
 50
257.5288387097219811
 51
267.0849834965633249
  0
ARC
  5
38319
  8
0
 10
6976.0793412786470071
 20
345.3837700036650062
 30
0.0
 40
0.0855161035613774
 50
266.1813981895439269
 51
270.1435482140327053
  0
ARC
  5
3831A
  8
0
 10
6976.0799262374002865
 20
345.3481864966877879
 30
0.0
 40
0.0499337042800063
 50
269.574632162398018
 51
278.4143005397939987
  0
ARC
  5
3831B
  8
0
 10
6976.0859732782300853
 20
345.3075820556867939
 30
0.0
 40
0.0088815642756358
 50
278.1542936639066284
 51
290.6987849695822774
  0
ARC
  5
3831C
  8
0
 10
6976.0889310903075966
 20
345.299791359602807
 30
0.0
 40
0.0005484518201936
 50
289.316610714761282
 51
326.9989068831263239
  0
ARC
  5
3831D
  8
0
 10
6976.0892615414122702
 20
345.2995268054726807
 30
0.0
 40
0.0001339435588038
 50
345.2231818653546043
 51
59.2981324023161633
  0
ARC
  5
3831E
  8
0
 10
6976.0887953619121618
 20
345.2988447075130125
 30
0.0
 40
0.0009598944694843
 50
56.1581772161981476
 51
75.5511218090464354
  0
ARC
  5
3831F
  8
0
 10
6976.086634178876011
 20
345.2861471648521956
 30
0.0
 40
0.0110514380962286
 50
77.4536729736745286
 51
88.2359883279822981
  0
ARC
  5
38320
  8
0
 10
6976.0828071170290059
 20
345.2119012938949254
 30
0.0
 40
0.0853938143605408
 50
87.2028284354913268
 51
89.794937564306764
  0
ARC
  5
38321
  8
0
 10
6976.0813341358089019
 20
345.2150066184495927
 30
0.0
 40
0.0823071624153886
 50
88.7617776718231681
 51
91.2382223281768177
  0
ARC
  5
38322
  8
0
 10
6976.0788296729269859
 20
345.2240068838984826
 30
0.0
 40
0.0732912718682145
 50
89.4325490826647354
 51
94.6995804211179149
  0
ARC
  5
38323
  8
0
 10
6976.0741226287218524
 20
345.2793555657752904
 30
0.0
 40
0.0177437087641405
 50
94.1944347991231012
 51
102.4772872040883982
  0
ARC
  5
38324
  8
0
 10
6976.0707385542737029
 20
345.2947923262947825
 30
0.0
 40
0.0019406474762104
 50
103.3926747565346034
 51
117.7085328006838978
  0
ARC
  5
38325
  8
0
 10
6976.0699708666361403
 20
345.2962540268165981
 30
0.0
 40
0.0002896136407758
 50
117.7085328006271965
 51
148.8191829208485046
  0
ARC
  5
38326
  8
0
 10
6976.0698254533681393
 20
345.2963599637981247
 30
0.0
 40
0.0001114211977828
 50
156.7360491721732103
 51
231.2538699680258105
  0
ARC
  5
38327
  8
0
 10
6976.070446630385959
 20
345.2971873376715735
 30
0.0
 40
0.0011459743429865
 50
232.9218482897605043
 51
256.7413405862802165
  0
ARC
  5
38328
  8
0
 10
6976.0747125981297359
 20
345.316548749384026
 30
0.0
 40
0.0209716698992461
 50
257.5288387097219811
 51
267.0849834965633249
  0
ARC
  5
38329
  8
0
 10
6976.0793412786470071
 20
345.3809304646791816
 30
0.0
 40
0.0855161035613774
 50
266.1813981895439269
 51
270.1435482140327053
  0
ARC
  5
3832A
  8
0
 10
6976.0799262374002865
 20
345.3453469577020201
 30
0.0
 40
0.0499337042800063
 50
269.574632162398018
 51
278.4143005397939987
  0
ARC
  5
3832B
  8
0
 10
6976.0859732782300853
 20
345.304742516701026
 30
0.0
 40
0.0088815642756358
 50
278.1542936639066284
 51
290.6987849695822774
  0
ARC
  5
3832C
  8
0
 10
6976.0889310903094156
 20
345.2969518206169823
 30
0.0
 40
0.0005484518201936
 50
289.316610714761282
 51
326.9989068831263239
  0
ARC
  5
3832D
  8
0
 10
6976.0892615414122702
 20
345.2966872664870266
 30
0.0
 40
0.0001339435588038
 50
345.2231818653546043
 51
59.2981324023161633
  0
ARC
  5
3832E
  8
0
 10
6976.0887953619121618
 20
345.2960051685271878
 30
0.0
 40
0.0009598944694843
 50
56.1581772161981476
 51
75.5511218090464354
  0
ARC
  5
3832F
  8
0
 10
6976.086634178876011
 20
345.2918262428522098
 30
0.0
 40
0.0110514380962286
 50
77.4536729736745286
 51
88.2359883279822981
  0
ARC
  5
38330
  8
0
 10
6976.0828071170290059
 20
345.2175803718948828
 30
0.0
 40
0.0853938143605408
 50
87.2028284354913268
 51
89.794937564306764
  0
ARC
  5
38331
  8
0
 10
6976.0813341358089019
 20
345.2206856964496069
 30
0.0
 40
0.0823071624153886
 50
90.6990112122438603
 51
91.2382223281768177
  0
ARC
  5
38332
  8
0
 10
6976.0813341358089019
 20
345.2206856964496069
 30
0.0
 40
0.0823071624153886
 50
88.7617776718231681
 51
90.2801530747825467
  0
ARC
  5
38333
  8
0
 10
6976.0788296729269859
 20
345.2296859618984968
 30
0.0
 40
0.0732912718682145
 50
89.4325490826647354
 51
94.6995804211179149
  0
ARC
  5
38334
  8
0
 10
6976.0741226287218524
 20
345.2850346437751909
 30
0.0
 40
0.0177437087641405
 50
94.1944347991231012
 51
102.4772872040883982
  0
ARC
  5
38335
  8
0
 10
6976.0707385542737029
 20
345.300471404294683
 30
0.0
 40
0.0019406474762104
 50
103.3926747565346034
 51
117.7085328006838978
  0
ARC
  5
38336
  8
0
 10
6976.0699708666361403
 20
345.3019331048164986
 30
0.0
 40
0.0002896136407758
 50
117.7085328006271965
 51
148.8191829208485046
  0
ARC
  5
38337
  8
0
 10
6976.0698254533681393
 20
345.3020390417980821
 30
0.0
 40
0.0001114211977828
 50
156.7360491721732103
 51
231.2538699680258105
  0
ARC
  5
38338
  8
0
 10
6976.070446630385959
 20
345.3028664156715877
 30
0.0
 40
0.0011459743429865
 50
232.9218482897605043
 51
256.7413405862802165
  0
ARC
  5
38339
  8
0
 10
6976.0747125981297359
 20
345.3222278273839265
 30
0.0
 40
0.0209716698992461
 50
257.5288387097219811
 51
267.0849834965633249
  0
ARC
  5
3833A
  8
0
 10
6976.0793412786470071
 20
345.3866095426790821
 30
0.0
 40
0.0855161035613774
 50
266.1813981895439269
 51
270.1435482140327053
  0
ARC
  5
3833B
  8
0
 10
6976.0799262374002865
 20
345.3510260357019774
 30
0.0
 40
0.0499337042800063
 50
269.574632162398018
 51
278.4143005397939987
  0
ARC
  5
3833C
  8
0
 10
6976.0859732782300853
 20
345.3104215947010971
 30
0.0
 40
0.0088815642756358
 50
278.1542936639066284
 51
290.6987849695822774
  0
ARC
  5
3833D
  8
0
 10
6976.0889310903094156
 20
345.3026308986169965
 30
0.0
 40
0.0005484518201936
 50
289.316610714761282
 51
326.9989068831263239
  0
ARC
  5
3833E
  8
0
 10
6976.0892615414122702
 20
345.3023663444869271
 30
0.0
 40
0.0001339435588038
 50
345.2231818653546043
 51
59.2981324023161633
  0
ARC
  5
3833F
  8
0
 10
6976.0887953619121618
 20
345.301684246527202
 30
0.0
 40
0.0009598944694843
 50
56.1581772161981476
 51
75.5511218090464354
  0
ARC
  5
38340
  8
0
 10
6976.0519807988421235
 20
345.3585319941674925
 30
0.0
 40
0.0079887293576476
 50
356.8926992472780171
 51
53.9950660203630406
  0
ARC
  5
38341
  8
0
 10
6976.0508887657142623
 20
345.3587884618381167
 30
0.0
 40
0.0090951905296246
 50
311.6136633779696012
 51
355.6522436579812165
  0
ARC
  5
38342
  8
0
 10
6976.0501129684926127
 20
345.3594562501813243
 30
0.0
 40
0.0101105880217837
 50
270.0934162632635207
 51
312.387421542157881
  0
ARC
  5
38343
  8
0
 10
6976.0500620341163085
 20
345.3597737638907006
 30
0.0
 40
0.0104283062262813
 50
229.8542690599537082
 51
270.3704191819257971
  0
ARC
  5
38344
  8
0
 10
6976.0488181356440691
 20
345.358334561505103
 30
0.0
 40
0.008526217070622
 50
177.6629764703185117
 51
230.0084392044296919
  0
ARC
  5
38345
  8
0
 10
6976.0488218416257951
 20
345.3581307414738717
 30
0.0
 40
0.0085406559783217
 50
126.5180277130017004
 51
176.2976528434656132
  0
ARC
  5
38346
  8
0
 10
6976.0500624995465841
 20
345.3300372029053733
 30
0.0
 40
0.0104126813355631
 50
89.6315860613355255
 51
132.1640931682375992
  0
ARC
  5
38347
  8
0
 10
6976.0487366942943481
 20
345.3315012050928203
 30
0.0
 40
0.0084375707123716
 50
132.1640931682397024
 51
188.1381810781020931
  0
ARC
  5
38348
  8
0
 10
6976.0490091691490306
 20
345.3317646330102093
 30
0.0
 40
0.0087474154016247
 50
189.593774445001003
 51
234.9814935824074098
  0
ARC
  5
38349
  8
0
 10
6976.0500255662727795
 20
345.333055902827482
 30
0.0
 40
0.0103885749514263
 50
234.4773259846066935
 51
262.2828054806229261
  0
ARC
  5
3834A
  8
0
 10
6976.0500502982886246
 20
345.3321003946152814
 30
0.0
 40
0.0094462781117249
 50
273.1328338181619984
 51
295.5005708873304116
  0
ARC
  5
3834B
  8
0
 10
6976.0500502982886246
 20
345.3321003946152814
 30
0.0
 40
0.0094462781117249
 50
261.3558631166063719
 51
266.8671661818380016
  0
ARC
  5
3834C
  8
0
 10
6976.0491607105623189
 20
345.3335008736868872
 30
0.0
 40
0.0110951118664085
 50
296.5333894880661774
 51
338.3232229802711117
  0
ARC
  5
3834D
  8
0
 10
6976.0525708702398333
 20
345.3321454071580092
 30
0.0
 40
0.007425441779664
 50
338.3232229802711117
 51
28.0317679235639083
  0
ARC
  5
3834E
  8
0
 10
6976.0517162667583762
 20
345.3316903984458008
 30
0.0
 40
0.0083936256682842
 50
28.0317679235639083
 51
68.0811569100611536
  0
ARC
  5
3834F
  8
0
 10
6976.0498083293459786
 20
345.32694876165408
 30
0.0
 40
0.0135047258071471
 50
68.0811569100611536
 51
88.6374573699941379
  0
ARC
  5
38350
  8
0
 10
6976.0509603007421902
 20
345.3040074784839248
 30
0.0
 40
0.0136935283379641
 50
58.0000333861138202
 51
88.1299996325106463
  0
ARC
  5
38351
  8
0
 10
6976.0500279379621134
 20
345.3008606111260974
 30
0.0
 40
0.0168895107589337
 50
85.3159744016864465
 51
113.9304195711420959
  0
ARC
  5
38352
  8
0
 10
6976.0452743165269567
 20
345.3113562086941783
 30
0.0
 40
0.0053686475705733
 50
112.9944487866395946
 51
153.387104534508012
  0
ARC
  5
38353
  8
0
 10
6976.0433312293571362
 20
345.3128160068990269
 30
0.0
 40
0.0030090585928589
 50
161.693558218693596
 51
235.5601102622352983
  0
ARC
  5
38354
  8
0
 10
6976.0495470923760877
 20
345.3218902603323954
 30
0.0
 40
0.0140081050019648
 50
235.5826836228378909
 51
272.3827841594589927
  0
ARC
  5
38355
  8
0
 10
6976.0506825158654465
 20
345.3220849411231939
 30
0.0
 40
0.0142014460224431
 50
267.7682330680256086
 51
303.4781047104278855
  0
ARC
  5
38356
  8
0
 10
6976.056514383778449
 20
345.3130701664615003
 30
0.0
 40
0.0034669816520192
 50
305.2693794962717107
 51
355.7815220030046817
  0
ARC
  5
38357
  8
0
 10
6976.0562932267866927
 20
345.3124649698846156
 30
0.0
 40
0.0036953738296941
 50
5.4373877508571198
 51
58.632577059385909
  0
ARC
  5
38358
  8
0
 10
6976.0572081023547071
 20
345.2889725865269952
 30
0.0
 40
0.0110514380962286
 50
77.4536729736745286
 51
88.2359883279822981
  0
ARC
  5
38359
  8
0
 10
6976.0533810405086115
 20
345.214726715569725
 30
0.0
 40
0.0853938143605408
 50
87.2028284354913268
 51
89.794937564306764
  0
ARC
  5
3835A
  8
0
 10
6976.0519080592866885
 20
345.217832040124506
 30
0.0
 40
0.0823071624153886
 50
88.7617776718231681
 51
91.2382223281768177
  0
ARC
  5
3835B
  8
0
 10
6976.0494035964065915
 20
345.2268323055732822
 30
0.0
 40
0.0732912718682145
 50
89.4325490826647354
 51
94.6995804211179149
  0
ARC
  5
3835C
  8
0
 10
6976.044696552199639
 20
345.28218098745009
 30
0.0
 40
0.0177437087641405
 50
94.1944347991231012
 51
102.4772872040883982
  0
ARC
  5
3835D
  8
0
 10
6976.0413124777533085
 20
345.2976177479695821
 30
0.0
 40
0.0019406474762104
 50
103.3926747565346034
 51
117.7085328006838978
  0
ARC
  5
3835E
  8
0
 10
6976.0405447901148364
 20
345.2990794484913977
 30
0.0
 40
0.0002896136407758
 50
117.7085328006271965
 51
148.8191829208485046
  0
ARC
  5
3835F
  8
0
 10
6976.0403993768459259
 20
345.2991853854729811
 30
0.0
 40
0.0001114211977828
 50
156.7360491721732103
 51
231.2538699680258105
  0
ARC
  5
38360
  8
0
 10
6976.0410205538637456
 20
345.3000127593464867
 30
0.0
 40
0.0011459743429865
 50
232.9218482897605043
 51
256.7413405862802165
  0
ARC
  5
38361
  8
0
 10
6976.0452865216084319
 20
345.3193741710588256
 30
0.0
 40
0.0209716698992461
 50
257.5288387097219811
 51
267.0849834965633249
  0
ARC
  5
38362
  8
0
 10
6976.0499152021247937
 20
345.3837558863539812
 30
0.0
 40
0.0855161035613774
 50
266.1813981895439269
 51
270.1435482140327053
  0
ARC
  5
38363
  8
0
 10
6976.0505001608798921
 20
345.3481723793768765
 30
0.0
 40
0.0499337042800063
 50
269.574632162398018
 51
278.4143005397939987
  0
ARC
  5
38364
  8
0
 10
6976.0565472017087814
 20
345.3075679383758825
 30
0.0
 40
0.0088815642756358
 50
278.1542936639066284
 51
290.6987849695822774
  0
ARC
  5
38365
  8
0
 10
6976.0595050137881117
 20
345.2997772422917819
 30
0.0
 40
0.0005484518201936
 50
289.316610714761282
 51
326.9989068831263239
  0
ARC
  5
38366
  8
0
 10
6976.0598354648909663
 20
345.2995126881618262
 30
0.0
 40
0.0001339435588038
 50
345.2231818653546043
 51
59.2981324023161633
  0
ARC
  5
38367
  8
0
 10
6976.0593692853908578
 20
345.2988305902021011
 30
0.0
 40
0.0009598944694843
 50
56.1581772161981476
 51
75.5511218090464354
  0
ARC
  5
38368
  8
0
 10
6976.0572081023547071
 20
345.2861330475412842
 30
0.0
 40
0.0110514380962286
 50
77.4536729736745286
 51
88.2359883279822981
  0
ARC
  5
38369
  8
0
 10
6976.0533810405086115
 20
345.2118871765839003
 30
0.0
 40
0.0853938143605408
 50
87.2028284354913268
 51
89.794937564306764
  0
ARC
  5
3836A
  8
0
 10
6976.0519080592866885
 20
345.2149925011386813
 30
0.0
 40
0.0823071624153886
 50
88.7617776718231681
 51
91.2382223281768177
  0
ARC
  5
3836B
  8
0
 10
6976.0494035964065915
 20
345.223992766587628
 30
0.0
 40
0.0732912718682145
 50
89.4325490826647354
 51
94.6995804211179149
  0
ARC
  5
3836C
  8
0
 10
6976.044696552199639
 20
345.279341448464379
 30
0.0
 40
0.0177437087641405
 50
94.1944347991231012
 51
102.4772872040883982
  0
ARC
  5
3836D
  8
0
 10
6976.0413124777533085
 20
345.2947782089838142
 30
0.0
 40
0.0019406474762104
 50
103.3926747565346034
 51
117.7085328006838978
  0
ARC
  5
3836E
  8
0
 10
6976.0405447901148364
 20
345.296239909505573
 30
0.0
 40
0.0002896136407758
 50
117.7085328006271965
 51
148.8191829208485046
  0
ARC
  5
3836F
  8
0
 10
6976.0403993768459259
 20
345.2963458464872133
 30
0.0
 40
0.0001114211977828
 50
156.7360491721732103
 51
231.2538699680258105
  0
ARC
  5
38370
  8
0
 10
6976.0410205538637456
 20
345.2971732203607189
 30
0.0
 40
0.0011459743429865
 50
232.9218482897605043
 51
256.7413405862802165
  0
ARC
  5
38371
  8
0
 10
6976.0452865216084319
 20
345.3165346320731146
 30
0.0
 40
0.0209716698992461
 50
257.5288387097219811
 51
267.0849834965633249
  0
ARC
  5
38372
  8
0
 10
6976.0499152021247937
 20
345.380916347368327
 30
0.0
 40
0.0855161035613774
 50
266.1813981895439269
 51
270.1435482140327053
  0
ARC
  5
38373
  8
0
 10
6976.0505001608798921
 20
345.3453328403911087
 30
0.0
 40
0.0499337042800063
 50
269.574632162398018
 51
278.4143005397939987
  0
ARC
  5
38374
  8
0
 10
6976.0565472017087814
 20
345.3047283993901146
 30
0.0
 40
0.0088815642756358
 50
278.1542936639066284
 51
290.6987849695822774
  0
ARC
  5
38375
  8
0
 10
6976.0595050137881117
 20
345.2969377033061278
 30
0.0
 40
0.0005484518201936
 50
289.316610714761282
 51
326.9989068831263239
  0
ARC
  5
38376
  8
0
 10
6976.0598354648909663
 20
345.2966731491760015
 30
0.0
 40
0.0001339435588038
 50
345.2231818653546043
 51
59.2981324023161633
  0
ARC
  5
38377
  8
0
 10
6976.0593692853908578
 20
345.2959910512162764
 30
0.0
 40
0.0009598944694843
 50
56.1581772161981476
 51
75.5511218090464354
  0
ARC
  5
38378
  8
0
 10
6976.0572081023547071
 20
345.2918121255412984
 30
0.0
 40
0.0110514380962286
 50
77.4536729736745286
 51
88.2359883279822981
  0
ARC
  5
38379
  8
0
 10
6976.0533810405086115
 20
345.2175662545840282
 30
0.0
 40
0.0853938143605408
 50
87.2028284354913268
 51
89.794937564306764
  0
ARC
  5
3837A
  8
0
 10
6976.0500877152862813
 20
345.3151824423785001
 30
0.0
 40
0.0122229916137248
 50
270.1956476600535098
 51
273.8289032780232901
  0
ARC
  5
3837B
  8
0
 10
6976.0498859946610537
 20
345.0857504821528892
 30
0.0
 40
0.2172422889351832
 50
88.9975546942562943
 51
89.5728358579256536
  0
ARC
  5
3837C
  8
0
 10
6976.0494035964065915
 20
345.2296718445875854
 30
0.0
 40
0.0732912718682145
 50
89.4325490826647354
 51
94.6995804211179149
  0
ARC
  5
3837D
  8
0
 10
6976.044696552199639
 20
345.2850205264642796
 30
0.0
 40
0.0177437087641405
 50
94.1944347991231012
 51
102.4772872040883982
  0
ARC
  5
3837E
  8
0
 10
6976.0413124777533085
 20
345.3004572869837716
 30
0.0
 40
0.0019406474762104
 50
103.3926747565346034
 51
117.7085328006838978
  0
ARC
  5
3837F
  8
0
 10
6976.0405447901148364
 20
345.3019189875055872
 30
0.0
 40
0.0002896136407758
 50
117.7085328006271965
 51
148.8191829208485046
  0
ARC
  5
38380
  8
0
 10
6976.0403993768459259
 20
345.3020249244872275
 30
0.0
 40
0.0001114211977828
 50
156.7360491721732103
 51
231.2538699680258105
  0
ARC
  5
38381
  8
0
 10
6976.0410205538637456
 20
345.3028522983606763
 30
0.0
 40
0.0011459743429865
 50
232.9218482897605043
 51
256.7413405862802165
  0
ARC
  5
38382
  8
0
 10
6976.0452865216084319
 20
345.3222137100730151
 30
0.0
 40
0.0209716698992461
 50
257.5288387097219811
 51
267.0849834965633249
  0
ARC
  5
38383
  8
0
 10
6976.0499152021247937
 20
345.3865954253682276
 30
0.0
 40
0.0855161035613774
 50
266.1813981895439269
 51
270.1435482140327053
  0
ARC
  5
38384
  8
0
 10
6976.0505001608798921
 20
345.3510119183911229
 30
0.0
 40
0.0499337042800063
 50
269.574632162398018
 51
278.4143005397939987
  0
ARC
  5
38385
  8
0
 10
6976.0565472017087814
 20
345.310407477390072
 30
0.0
 40
0.0088815642756358
 50
278.1542936639066284
 51
290.6987849695822774
  0
ARC
  5
38386
  8
0
 10
6976.0595050137881117
 20
345.3026167813060852
 30
0.0
 40
0.0005484518201936
 50
289.316610714761282
 51
326.9989068831263239
  0
ARC
  5
38387
  8
0
 10
6976.0598354648909663
 20
345.3023522271760157
 30
0.0
 40
0.0001339435588038
 50
345.2231818653546043
 51
59.2981324023161633
  0
ARC
  5
38388
  8
0
 10
6976.0593692853908578
 20
345.3016701292162907
 30
0.0
 40
0.0009598944694843
 50
56.1581772161981476
 51
75.5511218090464354
  0
ARC
  5
38389
  8
0
 10
6976.0224545240425869
 20
345.3585319941674925
 30
0.0
 40
0.0079887293576476
 50
356.8926992472780171
 51
53.9950660203630406
  0
ARC
  5
3838A
  8
0
 10
6976.0213624909147256
 20
345.3587884618381167
 30
0.0
 40
0.0090951905296246
 50
311.6136633779696012
 51
355.6522436579812165
  0
ARC
  5
3838B
  8
0
 10
6976.0205866936939856
 20
345.3594562501813243
 30
0.0
 40
0.0101105880217837
 50
270.0934162632635207
 51
312.387421542157881
  0
ARC
  5
3838C
  8
0
 10
6976.0205357593167719
 20
345.3597737638907006
 30
0.0
 40
0.0104283062262813
 50
229.8542690599537082
 51
270.3704191819257971
  0
ARC
  5
3838D
  8
0
 10
6976.019291860845442
 20
345.358334561505103
 30
0.0
 40
0.008526217070622
 50
177.6629764703185117
 51
230.0084392044296919
  0
ARC
  5
3838E
  8
0
 10
6976.0192955668262584
 20
345.3581307414738717
 30
0.0
 40
0.0085406559783217
 50
126.5180277130017004
 51
176.2976528434656132
  0
ARC
  5
3838F
  8
0
 10
6976.0205362247488665
 20
345.3300372029053733
 30
0.0
 40
0.0104126813355631
 50
89.6315860613355255
 51
132.1640931682375992
  0
ARC
  5
38390
  8
0
 10
6976.019210419495721
 20
345.3315012050928203
 30
0.0
 40
0.0084375707123716
 50
132.1640931682397024
 51
188.1381810781020931
  0
ARC
  5
38391
  8
0
 10
6976.019482894351313
 20
345.3317646330102093
 30
0.0
 40
0.0087474154016247
 50
189.593774445001003
 51
234.9814935824074098
  0
ARC
  5
38392
  8
0
 10
6976.0204992914759714
 20
345.333055902827482
 30
0.0
 40
0.0103885749514263
 50
234.4773259846066935
 51
262.2828054806229261
  0
ARC
  5
38393
  8
0
 10
6976.020524023492726
 20
345.3321003946152814
 30
0.0
 40
0.0094462781117249
 50
273.1328338181619984
 51
295.5005708873304116
  0
ARC
  5
38394
  8
0
 10
6976.020524023492726
 20
345.3321003946152814
 30
0.0
 40
0.0094462781117249
 50
261.3558631166063719
 51
266.8671661818380016
  0
ARC
  5
38395
  8
0
 10
6976.0196344357636917
 20
345.3335008736868872
 30
0.0
 40
0.0110951118664085
 50
296.5333894880661774
 51
338.3232229802711117
  0
ARC
  5
38396
  8
0
 10
6976.0230445954421157
 20
345.3321454071580092
 30
0.0
 40
0.007425441779664
 50
338.3232229802711117
 51
28.0317679235639083
  0
ARC
  5
38397
  8
0
 10
6976.02218999195793
 20
345.3316903984458008
 30
0.0
 40
0.0083936256682842
 50
28.0317679235639083
 51
68.0811569100611536
  0
ARC
  5
38398
  8
0
 10
6976.0202820545473514
 20
345.32694876165408
 30
0.0
 40
0.0135047258071471
 50
68.0811569100611536
 51
88.6374573699941379
  0
ARC
  5
38399
  8
0
 10
6976.021434025941744
 20
345.3040074784839248
 30
0.0
 40
0.0136935283379641
 50
58.0000333861138202
 51
88.1299996325106463
  0
ARC
  5
3839A
  8
0
 10
6976.0205016631625767
 20
345.3008606111260974
 30
0.0
 40
0.0168895107589337
 50
85.3159744016864465
 51
113.9304195711420959
  0
ARC
  5
3839B
  8
0
 10
6976.015748041729239
 20
345.3113562086941783
 30
0.0
 40
0.0053686475705733
 50
112.9944487866395946
 51
153.387104534508012
  0
ARC
  5
3839C
  8
0
 10
6976.0138049545594185
 20
345.3128160068990269
 30
0.0
 40
0.0030090585928589
 50
161.693558218693596
 51
235.5601102622352983
  0
ARC
  5
3839D
  8
0
 10
6976.02002081757837
 20
345.3218902603323954
 30
0.0
 40
0.0140081050019648
 50
235.5826836228378909
 51
272.3827841594589927
  0
ARC
  5
3839E
  8
0
 10
6976.0211562410659099
 20
345.3220849411231939
 30
0.0
 40
0.0142014460224431
 50
267.7682330680256086
 51
303.4781047104278855
  0
ARC
  5
3839F
  8
0
 10
6976.0269881089798218
 20
345.3130701664615003
 30
0.0
 40
0.0034669816520192
 50
305.2693794962717107
 51
355.7815220030046817
  0
ARC
  5
383A0
  8
0
 10
6976.0267669519898845
 20
345.3124649698846156
 30
0.0
 40
0.0036953738296941
 50
5.4373877508571198
 51
58.632577059385909
  0
ARC
  5
383A1
  8
0
 10
6976.0276818275588084
 20
345.2889725865269952
 30
0.0
 40
0.0110514380962286
 50
77.4536729736745286
 51
88.2359883279822981
  0
ARC
  5
383A2
  8
0
 10
6976.0238547657108938
 20
345.214726715569725
 30
0.0
 40
0.0853938143605408
 50
87.2028284354913268
 51
89.794937564306764
  0
ARC
  5
383A3
  8
0
 10
6976.0223817844880614
 20
345.217832040124506
 30
0.0
 40
0.0823071624153886
 50
88.7617776718231681
 51
91.2382223281768177
  0
ARC
  5
383A4
  8
0
 10
6976.0198773216079644
 20
345.2268323055732822
 30
0.0
 40
0.0732912718682145
 50
89.4325490826647354
 51
94.6995804211179149
  0
ARC
  5
383A5
  8
0
 10
6976.0151702774028308
 20
345.28218098745009
 30
0.0
 40
0.0177437087641405
 50
94.1944347991231012
 51
102.4772872040883982
  0
ARC
  5
383A6
  8
0
 10
6976.0117862029537719
 20
345.2976177479695821
 30
0.0
 40
0.0019406474762104
 50
103.3926747565346034
 51
117.7085328006838978
  0
ARC
  5
383A7
  8
0
 10
6976.0110185153171187
 20
345.2990794484913977
 30
0.0
 40
0.0002896136407758
 50
117.7085328006271965
 51
148.8191829208485046
  0
ARC
  5
383A8
  8
0
 10
6976.0108731020482082
 20
345.2991853854729811
 30
0.0
 40
0.0001114211977828
 50
156.7360491721732103
 51
231.2538699680258105
  0
ARC
  5
383A9
  8
0
 10
6976.0114942790669375
 20
345.3000127593464867
 30
0.0
 40
0.0011459743429865
 50
232.9218482897605043
 51
256.7413405862802165
  0
ARC
  5
383AA
  8
0
 10
6976.0157602468088953
 20
345.3193741710588256
 30
0.0
 40
0.0209716698992461
 50
257.5288387097219811
 51
267.0849834965633249
  0
ARC
  5
383AB
  8
0
 10
6976.0203889273270761
 20
345.3837558863539812
 30
0.0
 40
0.0855161035613774
 50
266.1813981895439269
 51
270.1435482140327053
  0
ARC
  5
383AC
  8
0
 10
6976.0209738860812649
 20
345.3481723793768765
 30
0.0
 40
0.0499337042800063
 50
269.574632162398018
 51
278.4143005397939987
  0
ARC
  5
383AD
  8
0
 10
6976.0270209269110637
 20
345.3075679383758825
 30
0.0
 40
0.0088815642756358
 50
278.1542936639066284
 51
290.6987849695822774
  0
ARC
  5
383AE
  8
0
 10
6976.0299787389885751
 20
345.2997772422917819
 30
0.0
 40
0.0005484518201936
 50
289.316610714761282
 51
326.9989068831263239
  0
ARC
  5
383AF
  8
0
 10
6976.0303091900923391
 20
345.2995126881618262
 30
0.0
 40
0.0001339435588038
 50
345.2231818653546043
 51
59.2981324023161633
  0
ARC
  5
383B0
  8
0
 10
6976.0298430105922307
 20
345.2988305902021011
 30
0.0
 40
0.0009598944694843
 50
56.1581772161981476
 51
75.5511218090464354
  0
ARC
  5
383B1
  8
0
 10
6976.0276818275588084
 20
345.2861330475412842
 30
0.0
 40
0.0110514380962286
 50
77.4536729736745286
 51
88.2359883279822981
  0
ARC
  5
383B2
  8
0
 10
6976.0238547657108938
 20
345.2118871765839003
 30
0.0
 40
0.0853938143605408
 50
87.2028284354913268
 51
89.794937564306764
  0
ARC
  5
383B3
  8
0
 10
6976.0223817844898804
 20
345.2149925011386813
 30
0.0
 40
0.0823071624153886
 50
88.7617776718231681
 51
91.2382223281768177
  0
ARC
  5
383B4
  8
0
 10
6976.0198773216088739
 20
345.223992766587628
 30
0.0
 40
0.0732912718682145
 50
89.4325490826647354
 51
94.6995804211179149
  0
ARC
  5
383B5
  8
0
 10
6976.0151702774028308
 20
345.279341448464379
 30
0.0
 40
0.0177437087641405
 50
94.1944347991231012
 51
102.4772872040883982
  0
ARC
  5
383B6
  8
0
 10
6976.0117862029537719
 20
345.2947782089838142
 30
0.0
 40
0.0019406474762104
 50
103.3926747565346034
 51
117.7085328006838978
  0
ARC
  5
383B7
  8
0
 10
6976.0110185153171187
 20
345.296239909505573
 30
0.0
 40
0.0002896136407758
 50
117.7085328006271965
 51
148.8191829208485046
  0
ARC
  5
383B8
  8
0
 10
6976.0108731020482082
 20
345.2963458464872133
 30
0.0
 40
0.0001114211977828
 50
156.7360491721732103
 51
231.2538699680258105
  0
ARC
  5
383B9
  8
0
 10
6976.0114942790669375
 20
345.2971732203607189
 30
0.0
 40
0.0011459743429865
 50
232.9218482897605043
 51
256.7413405862802165
  0
ARC
  5
383BA
  8
0
 10
6976.0157602468088953
 20
345.3165346320731146
 30
0.0
 40
0.0209716698992461
 50
257.5288387097219811
 51
267.0849834965633249
  0
ARC
  5
383BB
  8
0
 10
6976.0203889273270761
 20
345.380916347368327
 30
0.0
 40
0.0855161035613774
 50
266.1813981895439269
 51
270.1435482140327053
  0
ARC
  5
383BC
  8
0
 10
6976.0209738860812649
 20
345.3453328403911087
 30
0.0
 40
0.0499337042800063
 50
269.574632162398018
 51
278.4143005397939987
  0
ARC
  5
383BD
  8
0
 10
6976.0270209269110637
 20
345.3047283993901146
 30
0.0
 40
0.0088815642756358
 50
278.1542936639066284
 51
290.6987849695822774
  0
ARC
  5
383BE
  8
0
 10
6976.0299787389885751
 20
345.2969377033061278
 30
0.0
 40
0.0005484518201936
 50
289.316610714761282
 51
326.9989068831263239
  0
ARC
  5
383BF
  8
0
 10
6976.0303091900923391
 20
345.2966731491760015
 30
0.0
 40
0.0001339435588038
 50
345.2231818653546043
 51
59.2981324023161633
  0
ARC
  5
383C0
  8
0
 10
6976.0298430105922307
 20
345.2959910512162764
 30
0.0
 40
0.0009598944694843
 50
56.1581772161981476
 51
75.5511218090464354
  0
ARC
  5
383C1
  8
0
 10
6976.0276818275588084
 20
345.2918121255412984
 30
0.0
 40
0.0110514380962286
 50
77.4536729736745286
 51
88.2359883279822981
  0
ARC
  5
383C2
  8
0
 10
6976.0238547657108938
 20
345.2175662545840282
 30
0.0
 40
0.0853938143605408
 50
87.2028284354913268
 51
89.794937564306764
  0
ARC
  5
383C3
  8
0
 10
6976.0205614404876542
 20
345.3151824423785001
 30
0.0
 40
0.0122229916137248
 50
270.1956476600535098
 51
273.8289032780232901
  0
ARC
  5
383C4
  8
0
 10
6976.0203597198624266
 20
345.0857504821528892
 30
0.0
 40
0.2172422889351832
 50
88.9975546942562943
 51
89.5728358579256536
  0
ARC
  5
383C5
  8
0
 10
6976.0198773216088739
 20
345.2296718445875854
 30
0.0
 40
0.0732912718682145
 50
89.4325490826647354
 51
94.6995804211179149
  0
ARC
  5
383C6
  8
0
 10
6976.0151702774028308
 20
345.2850205264642796
 30
0.0
 40
0.0177437087641405
 50
94.1944347991231012
 51
102.4772872040883982
  0
ARC
  5
383C7
  8
0
 10
6976.0117862029537719
 20
345.3004572869837716
 30
0.0
 40
0.0019406474762104
 50
103.3926747565346034
 51
117.7085328006838978
  0
ARC
  5
383C8
  8
0
 10
6976.0110185153171187
 20
345.3019189875055872
 30
0.0
 40
0.0002896136407758
 50
117.7085328006271965
 51
148.8191829208485046
  0
ARC
  5
383C9
  8
0
 10
6976.0108731020482082
 20
345.3020249244872275
 30
0.0
 40
0.0001114211977828
 50
156.7360491721732103
 51
231.2538699680258105
  0
ARC
  5
383CA
  8
0
 10
6976.0114942790669375
 20
345.3028522983606763
 30
0.0
 40
0.0011459743429865
 50
232.9218482897605043
 51
256.7413405862802165
  0
ARC
  5
383CB
  8
0
 10
6976.0157602468088953
 20
345.3222137100730151
 30
0.0
 40
0.0209716698992461
 50
257.5288387097219811
 51
267.0849834965633249
  0
ARC
  5
383CC
  8
0
 10
6976.0203889273270761
 20
345.3865954253682276
 30
0.0
 40
0.0855161035613774
 50
266.1813981895439269
 51
270.1435482140327053
  0
ARC
  5
383CD
  8
0
 10
6976.0209738860812649
 20
345.3510119183911229
 30
0.0
 40
0.0499337042800063
 50
269.574632162398018
 51
278.4143005397939987
  0
ARC
  5
383CE
  8
0
 10
6976.0270209269110637
 20
345.310407477390072
 30
0.0
 40
0.0088815642756358
 50
278.1542936639066284
 51
290.6987849695822774
  0
ARC
  5
383CF
  8
0
 10
6976.0299787389885751
 20
345.3026167813060852
 30
0.0
 40
0.0005484518201936
 50
289.316610714761282
 51
326.9989068831263239
  0
ARC
  5
383D0
  8
0
 10
6976.0303091900923391
 20
345.3023522271760157
 30
0.0
 40
0.0001339435588038
 50
345.2231818653546043
 51
59.2981324023161633
  0
ARC
  5
383D1
  8
0
 10
6976.0298430105922307
 20
345.3016701292162907
 30
0.0
 40
0.0009598944694843
 50
56.1581772161981476
 51
75.5511218090464354
  0
ARC
  5
383D2
  8
0
 10
6975.9929255044007732
 20
345.3585319941674925
 30
0.0
 40
0.0079887293576476
 50
356.8926992472780171
 51
53.9950660203630406
  0
ARC
  5
383D3
  8
0
 10
6975.991833471274731
 20
345.3587884618381167
 30
0.0
 40
0.0090951905296246
 50
311.6136633779696012
 51
355.6522436579812165
  0
ARC
  5
383D4
  8
0
 10
6975.9910576740539909
 20
345.3594562501813243
 30
0.0
 40
0.0101105880217837
 50
270.0934162632635207
 51
312.387421542157881
  0
ARC
  5
383D5
  8
0
 10
6975.9910067396767772
 20
345.3597737638907006
 30
0.0
 40
0.0104283062262813
 50
229.8542690599537082
 51
270.3704191819257971
  0
ARC
  5
383D6
  8
0
 10
6975.9897628412027188
 20
345.358334561505103
 30
0.0
 40
0.008526217070622
 50
177.6629764703185117
 51
230.0084392044296919
  0
ARC
  5
383D7
  8
0
 10
6975.9897665471853543
 20
345.3581307414738717
 30
0.0
 40
0.0085406559783217
 50
126.5180277130017004
 51
176.2976528434656132
  0
ARC
  5
383D8
  8
0
 10
6975.9910072051088719
 20
345.3300372029053733
 30
0.0
 40
0.0104126813355631
 50
89.6315860613355255
 51
132.1640931682375992
  0
ARC
  5
383D9
  8
0
 10
6975.9896813998548168
 20
345.3315012050928203
 30
0.0
 40
0.0084375707123716
 50
132.1640931682397024
 51
188.1381810781020931
  0
ARC
  5
383DA
  8
0
 10
6975.9899538747085899
 20
345.3317646330102093
 30
0.0
 40
0.0087474154016247
 50
189.593774445001003
 51
234.9814935824074098
  0
ARC
  5
383DB
  8
0
 10
6975.9909702718341578
 20
345.333055902827482
 30
0.0
 40
0.0103885749514263
 50
234.4773259846066935
 51
262.2828054806229261
  0
ARC
  5
383DC
  8
0
 10
6975.9909950038509123
 20
345.3321003946152814
 30
0.0
 40
0.0094462781117249
 50
273.1328338181619984
 51
295.5005708873304116
  0
ARC
  5
383DD
  8
0
 10
6975.9909950038509123
 20
345.3321003946152814
 30
0.0
 40
0.0094462781117249
 50
261.3558631166063719
 51
266.8671661818380016
  0
ARC
  5
383DE
  8
0
 10
6975.9901054161227876
 20
345.3335008736868872
 30
0.0
 40
0.0110951118664085
 50
296.5333894880661774
 51
338.3232229802711117
  0
ARC
  5
383DF
  8
0
 10
6975.9935155758030305
 20
345.3321454071580092
 30
0.0
 40
0.007425441779664
 50
338.3232229802711117
 51
28.0317679235639083
  0
ARC
  5
383E0
  8
0
 10
6975.9926609723197544
 20
345.3316903984458008
 30
0.0
 40
0.0083936256682842
 50
28.0317679235639083
 51
68.0811569100611536
  0
ARC
  5
383E1
  8
0
 10
6975.9907530349082663
 20
345.32694876165408
 30
0.0
 40
0.0135047258071471
 50
68.0811569100611536
 51
88.6374573699941379
  0
ARC
  5
383E2
  8
0
 10
6975.9919050063026589
 20
345.3040074784839248
 30
0.0
 40
0.0136935283379641
 50
58.0000333861138202
 51
88.1299996325106463
  0
ARC
  5
383E3
  8
0
 10
6975.9909726435216726
 20
345.3008606111260974
 30
0.0
 40
0.0168895107589337
 50
85.3159744016864465
 51
113.9304195711420959
  0
ARC
  5
383E4
  8
0
 10
6975.9862190220874254
 20
345.3113562086941783
 30
0.0
 40
0.0053686475705733
 50
112.9944487866395946
 51
153.387104534508012
  0
ARC
  5
383E5
  8
0
 10
6975.9842759349176049
 20
345.3128160068990269
 30
0.0
 40
0.0030090585928589
 50
161.693558218693596
 51
235.5601102622352983
  0
ARC
  5
383E6
  8
0
 10
6975.9904917979356469
 20
345.3218902603323954
 30
0.0
 40
0.0140081050019648
 50
235.5826836228378909
 51
272.3827841594589927
  0
ARC
  5
383E7
  8
0
 10
6975.9916272214250057
 20
345.3220849411231939
 30
0.0
 40
0.0142014460224431
 50
267.7682330680256086
 51
303.4781047104278855
  0
ARC
  5
383E8
  8
0
 10
6975.9974590893389177
 20
345.3130701664615003
 30
0.0
 40
0.0034669816520192
 50
305.2693794962717107
 51
355.7815220030046817
  0
ARC
  5
383E9
  8
0
 10
6975.9972379323480709
 20
345.3124649698846156
 30
0.0
 40
0.0036953738296941
 50
5.4373877508571198
 51
58.632577059385909
  0
ARC
  5
383EA
  8
0
 10
6975.9981528079169948
 20
345.2889725865269952
 30
0.0
 40
0.0110514380962286
 50
77.4536729736745286
 51
88.2359883279822981
  0
ARC
  5
383EB
  8
0
 10
6975.9943257460708992
 20
345.214726715569725
 30
0.0
 40
0.0853938143605408
 50
87.2028284354913268
 51
89.794937564306764
  0
ARC
  5
383EC
  8
0
 10
6975.9928527648498857
 20
345.217832040124506
 30
0.0
 40
0.0823071624153886
 50
88.7617776718231681
 51
91.2382223281768177
  0
ARC
  5
383ED
  8
0
 10
6975.9903483019679697
 20
345.2268323055732822
 30
0.0
 40
0.0732912718682145
 50
89.4325490826647354
 51
94.6995804211179149
  0
ARC
  5
383EE
  8
0
 10
6975.9856412577619267
 20
345.28218098745009
 30
0.0
 40
0.0177437087641405
 50
94.1944347991231012
 51
102.4772872040883982
  0
ARC
  5
383EF
  8
0
 10
6975.9822571833137772
 20
345.2976177479695821
 30
0.0
 40
0.0019406474762104
 50
103.3926747565346034
 51
117.7085328006838978
  0
ARC
  5
383F0
  8
0
 10
6975.9814894956762146
 20
345.2990794484913977
 30
0.0
 40
0.0002896136407758
 50
117.7085328006271965
 51
148.8191829208485046
  0
ARC
  5
383F1
  8
0
 10
6975.9813440824063946
 20
345.2991853854729811
 30
0.0
 40
0.0001114211977828
 50
156.7360491721732103
 51
231.2538699680258105
  0
ARC
  5
383F2
  8
0
 10
6975.9819652594260333
 20
345.3000127593464867
 30
0.0
 40
0.0011459743429865
 50
232.9218482897605043
 51
256.7413405862802165
  0
ARC
  5
383F3
  8
0
 10
6975.9862312271689007
 20
345.3193741710588256
 30
0.0
 40
0.0209716698992461
 50
257.5288387097219811
 51
267.0849834965633249
  0
ARC
  5
383F4
  8
0
 10
6975.9908599076861719
 20
345.3837558863539812
 30
0.0
 40
0.0855161035613774
 50
266.1813981895439269
 51
270.1435482140327053
  0
ARC
  5
383F5
  8
0
 10
6975.9914448664412703
 20
345.3481723793768765
 30
0.0
 40
0.0499337042800063
 50
269.574632162398018
 51
278.4143005397939987
  0
ARC
  5
383F6
  8
0
 10
6975.9974919072701596
 20
345.3075679383758825
 30
0.0
 40
0.0088815642756358
 50
278.1542936639066284
 51
290.6987849695822774
  0
ARC
  5
383F7
  8
0
 10
6976.0004497193485804
 20
345.2997772422917819
 30
0.0
 40
0.0005484518201936
 50
289.316610714761282
 51
326.9989068831263239
  0
ARC
  5
383F8
  8
0
 10
6976.000780170451435
 20
345.2995126881618262
 30
0.0
 40
0.0001339435588038
 50
345.2231818653546043
 51
59.2981324023161633
  0
ARC
  5
383F9
  8
0
 10
6976.0003139909531455
 20
345.2988305902021011
 30
0.0
 40
0.0009598944694843
 50
56.1581772161981476
 51
75.5511218090464354
  0
ARC
  5
383FA
  8
0
 10
6975.9981528079169948
 20
345.2861330475412842
 30
0.0
 40
0.0110514380962286
 50
77.4536729736745286
 51
88.2359883279822981
  0
ARC
  5
383FB
  8
0
 10
6975.9943257460708992
 20
345.2118871765839003
 30
0.0
 40
0.0853938143605408
 50
87.2028284354913268
 51
89.794937564306764
  0
ARC
  5
383FC
  8
0
 10
6975.9928527648498857
 20
345.2149925011386813
 30
0.0
 40
0.0823071624153886
 50
88.7617776718231681
 51
91.2382223281768177
  0
ARC
  5
383FD
  8
0
 10
6975.9903483019679697
 20
345.223992766587628
 30
0.0
 40
0.0732912718682145
 50
89.4325490826647354
 51
94.6995804211179149
  0
ARC
  5
383FE
  8
0
 10
6975.9856412577619267
 20
345.279341448464379
 30
0.0
 40
0.0177437087641405
 50
94.1944347991231012
 51
102.4772872040883982
  0
ARC
  5
383FF
  8
0
 10
6975.9822571833146867
 20
345.2947782089838142
 30
0.0
 40
0.0019406474762104
 50
103.3926747565346034
 51
117.7085328006838978
  0
ARC
  5
38400
  8
0
 10
6975.9814894956762146
 20
345.296239909505573
 30
0.0
 40
0.0002896136407758
 50
117.7085328006271965
 51
148.8191829208485046
  0
ARC
  5
38401
  8
0
 10
6975.9813440824073041
 20
345.2963458464872133
 30
0.0
 40
0.0001114211977828
 50
156.7360491721732103
 51
231.2538699680258105
  0
ARC
  5
38402
  8
0
 10
6975.9819652594260333
 20
345.2971732203607189
 30
0.0
 40
0.0011459743429865
 50
232.9218482897605043
 51
256.7413405862802165
  0
ARC
  5
38403
  8
0
 10
6975.9862312271689007
 20
345.3165346320731146
 30
0.0
 40
0.0209716698992461
 50
257.5288387097219811
 51
267.0849834965633249
  0
ARC
  5
38404
  8
0
 10
6975.9908599076861719
 20
345.380916347368327
 30
0.0
 40
0.0855161035613774
 50
266.1813981895439269
 51
270.1435482140327053
  0
ARC
  5
38405
  8
0
 10
6975.9914448664412703
 20
345.3453328403911087
 30
0.0
 40
0.0499337042800063
 50
269.574632162398018
 51
278.4143005397939987
  0
ARC
  5
38406
  8
0
 10
6975.9974919072701596
 20
345.3047283993901146
 30
0.0
 40
0.0088815642756358
 50
278.1542936639066284
 51
290.6987849695822774
  0
ARC
  5
38407
  8
0
 10
6976.0004497193485804
 20
345.2969377033061278
 30
0.0
 40
0.0005484518201936
 50
289.316610714761282
 51
326.9989068831263239
  0
ARC
  5
38408
  8
0
 10
6976.000780170451435
 20
345.2966731491760015
 30
0.0
 40
0.0001339435588038
 50
345.2231818653546043
 51
59.2981324023161633
  0
ARC
  5
38409
  8
0
 10
6976.0003139909531455
 20
345.2959910512162764
 30
0.0
 40
0.0009598944694843
 50
56.1581772161981476
 51
75.5511218090464354
  0
ARC
  5
3840A
  8
0
 10
6975.9981528079169948
 20
345.2918121255412984
 30
0.0
 40
0.0110514380962286
 50
77.4536729736745286
 51
88.2359883279822981
  0
ARC
  5
3840B
  8
0
 10
6975.9943257460708992
 20
345.2175662545840282
 30
0.0
 40
0.0853938143605408
 50
87.2028284354913268
 51
89.794937564306764
  0
ARC
  5
3840C
  8
0
 10
6975.99103242084675
 20
345.3151824423785001
 30
0.0
 40
0.0122229916137248
 50
270.1956476600535098
 51
273.8289032780232901
  0
ARC
  5
3840D
  8
0
 10
6975.9908307002224319
 20
345.0857504821528892
 30
0.0
 40
0.2172422889351832
 50
88.9975546942562943
 51
89.5728358579256536
  0
ARC
  5
3840E
  8
0
 10
6975.9903483019679697
 20
345.2296718445875854
 30
0.0
 40
0.0732912718682145
 50
89.4325490826647354
 51
94.6995804211179149
  0
ARC
  5
3840F
  8
0
 10
6975.9856412577619267
 20
345.2850205264642796
 30
0.0
 40
0.0177437087641405
 50
94.1944347991231012
 51
102.4772872040883982
  0
ARC
  5
38410
  8
0
 10
6975.9822571833146867
 20
345.3004572869837716
 30
0.0
 40
0.0019406474762104
 50
103.3926747565346034
 51
117.7085328006838978
  0
ARC
  5
38411
  8
0
 10
6975.9814894956762146
 20
345.3019189875055872
 30
0.0
 40
0.0002896136407758
 50
117.7085328006271965
 51
148.8191829208485046
  0
ARC
  5
38412
  8
0
 10
6975.9813440824073041
 20
345.3020249244872275
 30
0.0
 40
0.0001114211977828
 50
156.7360491721732103
 51
231.2538699680258105
  0
ARC
  5
38413
  8
0
 10
6975.9819652594260333
 20
345.3028522983606763
 30
0.0
 40
0.0011459743429865
 50
232.9218482897605043
 51
256.7413405862802165
  0
ARC
  5
38414
  8
0
 10
6975.9862312271689007
 20
345.3222137100730151
 30
0.0
 40
0.0209716698992461
 50
257.5288387097219811
 51
267.0849834965633249
  0
ARC
  5
38415
  8
0
 10
6975.9908599076861719
 20
345.3865954253682276
 30
0.0
 40
0.0855161035613774
 50
266.1813981895439269
 51
270.1435482140327053
  0
ARC
  5
38416
  8
0
 10
6975.9914448664412703
 20
345.3510119183911229
 30
0.0
 40
0.0499337042800063
 50
269.574632162398018
 51
278.4143005397939987
  0
ARC
  5
38417
  8
0
 10
6975.9974919072701596
 20
345.310407477390072
 30
0.0
 40
0.0088815642756358
 50
278.1542936639066284
 51
290.6987849695822774
  0
ARC
  5
38418
  8
0
 10
6976.0004497193485804
 20
345.3026167813060852
 30
0.0
 40
0.0005484518201936
 50
289.316610714761282
 51
326.9989068831263239
  0
ARC
  5
38419
  8
0
 10
6976.000780170451435
 20
345.3023522271760157
 30
0.0
 40
0.0001339435588038
 50
345.2231818653546043
 51
59.2981324023161633
  0
ARC
  5
3841A
  8
0
 10
6976.0003139909531455
 20
345.3016701292162907
 30
0.0
 40
0.0009598944694843
 50
56.1581772161981476
 51
75.5511218090464354
  0
ARC
  5
3841B
  8
0
 10
6975.9633994058767712
 20
345.3585319941674925
 30
0.0
 40
0.0079887293576476
 50
356.8926992472780171
 51
53.9950660203630406
  0
ARC
  5
3841C
  8
0
 10
6975.9623073727498195
 20
345.3587884618381167
 30
0.0
 40
0.0090951905296246
 50
311.6136633779696012
 51
355.6522436579812165
  0
ARC
  5
3841D
  8
0
 10
6975.9615315755281699
 20
345.3594562501813243
 30
0.0
 40
0.0101105880217837
 50
270.0934162632635207
 51
312.387421542157881
  0
ARC
  5
3841E
  8
0
 10
6975.9614806411500467
 20
345.3597737638907006
 30
0.0
 40
0.0104283062262813
 50
229.8542690599537082
 51
270.3704191819257971
  0
ARC
  5
3841F
  8
0
 10
6975.9602367426778073
 20
345.358334561505103
 30
0.0
 40
0.008526217070622
 50
177.6629764703185117
 51
230.0084392044296919
  0
ARC
  5
38420
  8
0
 10
6975.9602404486604428
 20
345.3581307414738717
 30
0.0
 40
0.0085406559783217
 50
126.5180277130017004
 51
176.2976528434656132
  0
ARC
  5
38421
  8
0
 10
6975.9614811065812319
 20
345.3300372029053733
 30
0.0
 40
0.0104126813355631
 50
89.6315860613355255
 51
132.1640931682375992
  0
ARC
  5
38422
  8
0
 10
6975.9601553013289958
 20
345.3315012050928203
 30
0.0
 40
0.0084375707123716
 50
132.1640931682397024
 51
188.1381810781020931
  0
ARC
  5
38423
  8
0
 10
6975.9604277761845879
 20
345.3317646330102093
 30
0.0
 40
0.0087474154016247
 50
189.593774445001003
 51
234.9814935824074098
  0
ARC
  5
38424
  8
0
 10
6975.9614441733092463
 20
345.333055902827482
 30
0.0
 40
0.0103885749514263
 50
234.4773259846066935
 51
262.2828054806229261
  0
ARC
  5
38425
  8
0
 10
6975.9614689053250913
 20
345.3321003946152814
 30
0.0
 40
0.0094462781117249
 50
273.1328338181619984
 51
295.5005708873304116
  0
ARC
  5
38426
  8
0
 10
6975.9614689053250913
 20
345.3321003946152814
 30
0.0
 40
0.0094462781117249
 50
261.3558631166063719
 51
266.8671661818380016
  0
ARC
  5
38427
  8
0
 10
6975.9605793175978761
 20
345.3335008736868872
 30
0.0
 40
0.0110951118664085
 50
296.5333894880661774
 51
338.3232229802711117
  0
ARC
  5
38428
  8
0
 10
6975.9639894772763
 20
345.3321454071580092
 30
0.0
 40
0.007425441779664
 50
338.3232229802711117
 51
28.0317679235639083
  0
ARC
  5
38429
  8
0
 10
6975.9631348737930239
 20
345.3316903984458008
 30
0.0
 40
0.0083936256682842
 50
28.0317679235639083
 51
68.0811569100611536
  0
ARC
  5
3842A
  8
0
 10
6975.9612269363806263
 20
345.32694876165408
 30
0.0
 40
0.0135047258071471
 50
68.0811569100611536
 51
88.6374573699941379
  0
ARC
  5
3842B
  8
0
 10
6975.9623789077768379
 20
345.3040074784839248
 30
0.0
 40
0.0136935283379641
 50
58.0000333861138202
 51
88.1299996325106463
  0
ARC
  5
3842C
  8
0
 10
6975.9614465449967611
 20
345.3008606111260974
 30
0.0
 40
0.0168895107589337
 50
85.3159744016864465
 51
113.9304195711420959
  0
ARC
  5
3842D
  8
0
 10
6975.9566929235616044
 20
345.3113562086941783
 30
0.0
 40
0.0053686475705733
 50
112.9944487866395946
 51
153.387104534508012
  0
ARC
  5
3842E
  8
0
 10
6975.9547498363926934
 20
345.3128160068990269
 30
0.0
 40
0.0030090585928589
 50
161.693558218693596
 51
235.5601102622352983
  0
ARC
  5
3842F
  8
0
 10
6975.9609656994107354
 20
345.3218902603323954
 30
0.0
 40
0.0140081050019648
 50
235.5826836228378909
 51
272.3827841594589927
  0
ARC
  5
38430
  8
0
 10
6975.9621011228991847
 20
345.3220849411231939
 30
0.0
 40
0.0142014460224431
 50
267.7682330680256086
 51
303.4781047104278855
  0
ARC
  5
38431
  8
0
 10
6975.9679329908140062
 20
345.3130701664615003
 30
0.0
 40
0.0034669816520192
 50
305.2693794962717107
 51
355.7815220030046817
  0
ARC
  5
38432
  8
0
 10
6975.9677118338231594
 20
345.3124649698846156
 30
0.0
 40
0.0036953738296941
 50
5.4373877508571198
 51
58.632577059385909
  0
ARC
  5
38433
  8
0
 10
6975.9686267093911738
 20
345.2889725865269952
 30
0.0
 40
0.0110514380962286
 50
77.4536729736745286
 51
88.2359883279822981
  0
ARC
  5
38434
  8
0
 10
6975.9647996475441687
 20
345.214726715569725
 30
0.0
 40
0.0853938143605408
 50
87.2028284354913268
 51
89.794937564306764
  0
ARC
  5
38435
  8
0
 10
6975.9633266663231552
 20
345.217832040124506
 30
0.0
 40
0.0823071624153886
 50
88.7617776718231681
 51
91.2382223281768177
  0
ARC
  5
38436
  8
0
 10
6975.9608222034430582
 20
345.2268323055732822
 30
0.0
 40
0.0732912718682145
 50
89.4325490826647354
 51
94.6995804211179149
  0
ARC
  5
38437
  8
0
 10
6975.9561151592361057
 20
345.28218098745009
 30
0.0
 40
0.0177437087641405
 50
94.1944347991231012
 51
102.4772872040883982
  0
ARC
  5
38438
  8
0
 10
6975.9527310847879562
 20
345.2976177479695821
 30
0.0
 40
0.0019406474762104
 50
103.3926747565346034
 51
117.7085328006838978
  0
ARC
  5
38439
  8
0
 10
6975.9519633971485746
 20
345.2990794484913977
 30
0.0
 40
0.0002896136407758
 50
117.7085328006271965
 51
148.8191829208485046
  0
ARC
  5
3843A
  8
0
 10
6975.9518179838796641
 20
345.2991853854729811
 30
0.0
 40
0.0001114211977828
 50
156.7360491721732103
 51
231.2538699680258105
  0
ARC
  5
3843B
  8
0
 10
6975.9524391609002123
 20
345.3000127593464867
 30
0.0
 40
0.0011459743429865
 50
232.9218482897605043
 51
256.7413405862802165
  0
ARC
  5
3843C
  8
0
 10
6975.9567051286439892
 20
345.3193741710588256
 30
0.0
 40
0.0209716698992461
 50
257.5288387097219811
 51
267.0849834965633249
  0
ARC
  5
3843D
  8
0
 10
6975.9613338091612604
 20
345.3837558863539812
 30
0.0
 40
0.0855161035613774
 50
266.1813981895439269
 51
270.1435482140327053
  0
ARC
  5
3843E
  8
0
 10
6975.9619187679136303
 20
345.3481723793768765
 30
0.0
 40
0.0499337042800063
 50
269.574632162398018
 51
278.4143005397939987
  0
ARC
  5
3843F
  8
0
 10
6975.9679658087452481
 20
345.3075679383758825
 30
0.0
 40
0.0088815642756358
 50
278.1542936639066284
 51
290.6987849695822774
  0
ARC
  5
38440
  8
0
 10
6975.9709236208218499
 20
345.2997772422917819
 30
0.0
 40
0.0005484518201936
 50
289.316610714761282
 51
326.9989068831263239
  0
ARC
  5
38441
  8
0
 10
6975.971254071925614
 20
345.2995126881618262
 30
0.0
 40
0.0001339435588038
 50
345.2231818653546043
 51
59.2981324023161633
  0
ARC
  5
38442
  8
0
 10
6975.9707878924264151
 20
345.2988305902021011
 30
0.0
 40
0.0009598944694843
 50
56.1581772161981476
 51
75.5511218090464354
  0
ARC
  5
38443
  8
0
 10
6975.9686267093911738
 20
345.2861330475412842
 30
0.0
 40
0.0110514380962286
 50
77.4536729736745286
 51
88.2359883279822981
  0
ARC
  5
38444
  8
0
 10
6975.9647996475441687
 20
345.2118871765839003
 30
0.0
 40
0.0853938143605408
 50
87.2028284354913268
 51
89.794937564306764
  0
ARC
  5
38445
  8
0
 10
6975.9633266663231552
 20
345.2149925011386813
 30
0.0
 40
0.0823071624153886
 50
88.7617776718231681
 51
91.2382223281768177
  0
ARC
  5
38446
  8
0
 10
6975.9608222034430582
 20
345.223992766587628
 30
0.0
 40
0.0732912718682145
 50
89.4325490826647354
 51
94.6995804211179149
  0
ARC
  5
38447
  8
0
 10
6975.9561151592361057
 20
345.279341448464379
 30
0.0
 40
0.0177437087641405
 50
94.1944347991231012
 51
102.4772872040883982
  0
ARC
  5
38448
  8
0
 10
6975.9527310847879562
 20
345.2947782089838142
 30
0.0
 40
0.0019406474762104
 50
103.3926747565346034
 51
117.7085328006838978
  0
ARC
  5
38449
  8
0
 10
6975.9519633971503936
 20
345.296239909505573
 30
0.0
 40
0.0002896136407758
 50
117.7085328006271965
 51
148.8191829208485046
  0
ARC
  5
3844A
  8
0
 10
6975.9518179838823926
 20
345.2963458464872133
 30
0.0
 40
0.0001114211977828
 50
156.7360491721732103
 51
231.2538699680258105
  0
ARC
  5
3844B
  8
0
 10
6975.9524391609002123
 20
345.2971732203607189
 30
0.0
 40
0.0011459743429865
 50
232.9218482897605043
 51
256.7413405862802165
  0
ARC
  5
3844C
  8
0
 10
6975.9567051286439892
 20
345.3165346320731146
 30
0.0
 40
0.0209716698992461
 50
257.5288387097219811
 51
267.0849834965633249
  0
ARC
  5
3844D
  8
0
 10
6975.9613338091612604
 20
345.380916347368327
 30
0.0
 40
0.0855161035613774
 50
266.1813981895439269
 51
270.1435482140327053
  0
ARC
  5
3844E
  8
0
 10
6975.9619187679136303
 20
345.3453328403911087
 30
0.0
 40
0.0499337042800063
 50
269.574632162398018
 51
278.4143005397939987
  0
ARC
  5
3844F
  8
0
 10
6975.9679658087452481
 20
345.3047283993901146
 30
0.0
 40
0.0088815642756358
 50
278.1542936639066284
 51
290.6987849695822774
  0
ARC
  5
38450
  8
0
 10
6975.9709236208236689
 20
345.2969377033061278
 30
0.0
 40
0.0005484518201936
 50
289.316610714761282
 51
326.9989068831263239
  0
ARC
  5
38451
  8
0
 10
6975.971254071925614
 20
345.2966731491760015
 30
0.0
 40
0.0001339435588038
 50
345.2231818653546043
 51
59.2981324023161633
  0
ARC
  5
38452
  8
0
 10
6975.9707878924264151
 20
345.2959910512162764
 30
0.0
 40
0.0009598944694843
 50
56.1581772161981476
 51
75.5511218090464354
  0
ARC
  5
38453
  8
0
 10
6975.9686267093911738
 20
345.2918121255412984
 30
0.0
 40
0.0110514380962286
 50
77.4536729736745286
 51
88.2359883279822981
  0
ARC
  5
38454
  8
0
 10
6975.9647996475441687
 20
345.2175662545840282
 30
0.0
 40
0.0853938143605408
 50
87.2028284354913268
 51
89.794937564306764
  0
ARC
  5
38455
  8
0
 10
6975.9615063223218385
 20
345.3151824423785001
 30
0.0
 40
0.0122229916137248
 50
270.1956476600535098
 51
273.8289032780232901
  0
ARC
  5
38456
  8
0
 10
6975.9613046016947919
 20
345.0857504821528892
 30
0.0
 40
0.2172422889351832
 50
88.9975546942562943
 51
89.5728358579256536
  0
ARC
  5
38457
  8
0
 10
6975.9608222034430582
 20
345.2296718445875854
 30
0.0
 40
0.0732912718682145
 50
89.4325490826647354
 51
94.6995804211179149
  0
ARC
  5
38458
  8
0
 10
6975.9561151592361057
 20
345.2850205264642796
 30
0.0
 40
0.0177437087641405
 50
94.1944347991231012
 51
102.4772872040883982
  0
ARC
  5
38459
  8
0
 10
6975.9527310847879562
 20
345.3004572869837716
 30
0.0
 40
0.0019406474762104
 50
103.3926747565346034
 51
117.7085328006838978
  0
ARC
  5
3845A
  8
0
 10
6975.9519633971503936
 20
345.3019189875055872
 30
0.0
 40
0.0002896136407758
 50
117.7085328006271965
 51
148.8191829208485046
  0
ARC
  5
3845B
  8
0
 10
6975.9518179838823926
 20
345.3020249244872275
 30
0.0
 40
0.0001114211977828
 50
156.7360491721732103
 51
231.2538699680258105
  0
ARC
  5
3845C
  8
0
 10
6975.9524391609002123
 20
345.3028522983606763
 30
0.0
 40
0.0011459743429865
 50
232.9218482897605043
 51
256.7413405862802165
  0
ARC
  5
3845D
  8
0
 10
6975.9567051286439892
 20
345.3222137100730151
 30
0.0
 40
0.0209716698992461
 50
257.5288387097219811
 51
267.0849834965633249
  0
ARC
  5
3845E
  8
0
 10
6975.9613338091612604
 20
345.3865954253682276
 30
0.0
 40
0.0855161035613774
 50
266.1813981895439269
 51
270.1435482140327053
  0
ARC
  5
3845F
  8
0
 10
6975.9619187679136303
 20
345.3510119183911229
 30
0.0
 40
0.0499337042800063
 50
269.574632162398018
 51
278.4143005397939987
  0
ARC
  5
38460
  8
0
 10
6975.9679658087452481
 20
345.310407477390072
 30
0.0
 40
0.0088815642756358
 50
278.1542936639066284
 51
290.6987849695822774
  0
ARC
  5
38461
  8
0
 10
6975.9709236208236689
 20
345.3026167813060852
 30
0.0
 40
0.0005484518201936
 50
289.316610714761282
 51
326.9989068831263239
  0
ARC
  5
38462
  8
0
 10
6975.971254071925614
 20
345.3023522271760157
 30
0.0
 40
0.0001339435588038
 50
345.2231818653546043
 51
59.2981324023161633
  0
ARC
  5
38463
  8
0
 10
6975.9707878924264151
 20
345.3016701292162907
 30
0.0
 40
0.0009598944694843
 50
56.1581772161981476
 51
75.5511218090464354
  0
ARC
  5
38464
  8
0
 10
6975.9338718468434308
 20
345.3585319941674925
 30
0.0
 40
0.0079887293576476
 50
356.8926992472780171
 51
53.9950660203630406
  0
ARC
  5
38465
  8
0
 10
6975.9327798137146601
 20
345.3587884618381167
 30
0.0
 40
0.0090951905296246
 50
311.6136633779696012
 51
355.6522436579812165
  0
ARC
  5
38466
  8
0
 10
6975.9320040164939201
 20
345.3594562501813243
 30
0.0
 40
0.0101105880217837
 50
270.0934162632635207
 51
312.387421542157881
  0
ARC
  5
38467
  8
0
 10
6975.9319530821167064
 20
345.3597737638907006
 30
0.0
 40
0.0104283062262813
 50
229.8542690599537082
 51
270.3704191819257971
  0
ARC
  5
38468
  8
0
 10
6975.9307091836453765
 20
345.358334561505103
 30
0.0
 40
0.008526217070622
 50
177.6629764703185117
 51
230.0084392044296919
  0
ARC
  5
38469
  8
0
 10
6975.9307128896271024
 20
345.3581307414738717
 30
0.0
 40
0.0085406559783217
 50
126.5180277130017004
 51
176.2976528434656132
  0
ARC
  5
3846A
  8
0
 10
6975.9319535475478915
 20
345.3300372029053733
 30
0.0
 40
0.0104126813355631
 50
89.6315860613355255
 51
132.1640931682375992
  0
ARC
  5
3846B
  8
0
 10
6975.930627742296565
 20
345.3315012050928203
 30
0.0
 40
0.0084375707123716
 50
132.1640931682397024
 51
188.1381810781020931
  0
ARC
  5
3846C
  8
0
 10
6975.930900217150338
 20
345.3317646330102093
 30
0.0
 40
0.0087474154016247
 50
189.593774445001003
 51
234.9814935824074098
  0
ARC
  5
3846D
  8
0
 10
6975.9319166142759059
 20
345.333055902827482
 30
0.0
 40
0.0103885749514263
 50
234.4773259846066935
 51
262.2828054806229261
  0
ARC
  5
3846E
  8
0
 10
6975.931941346291751
 20
345.3321003946152814
 30
0.0
 40
0.0094462781117249
 50
273.1328338181619984
 51
295.5005708873304116
  0
ARC
  5
3846F
  8
0
 10
6975.931941346291751
 20
345.3321003946152814
 30
0.0
 40
0.0094462781117249
 50
261.3558631166063719
 51
266.8671661818380016
  0
ARC
  5
38470
  8
0
 10
6975.9310517585627167
 20
345.3335008736868872
 30
0.0
 40
0.0110951118664085
 50
296.5333894880661774
 51
338.3232229802711117
  0
ARC
  5
38471
  8
0
 10
6975.9344619182420502
 20
345.3321454071580092
 30
0.0
 40
0.007425441779664
 50
338.3232229802711117
 51
28.0317679235639083
  0
ARC
  5
38472
  8
0
 10
6975.933607314758774
 20
345.3316903984458008
 30
0.0
 40
0.0083936256682842
 50
28.0317679235639083
 51
68.0811569100611536
  0
ARC
  5
38473
  8
0
 10
6975.9316993773481954
 20
345.32694876165408
 30
0.0
 40
0.0135047258071471
 50
68.0811569100611536
 51
88.6374573699941379
  0
ARC
  5
38474
  8
0
 10
6975.932851348742588
 20
345.3040074784839248
 30
0.0
 40
0.0136935283379641
 50
58.0000333861138202
 51
88.1299996325106463
  0
ARC
  5
38475
  8
0
 10
6975.9319189859616017
 20
345.3008606111260974
 30
0.0
 40
0.0168895107589337
 50
85.3159744016864465
 51
113.9304195711420959
  0
ARC
  5
38476
  8
0
 10
6975.927165364528264
 20
345.3113562086941783
 30
0.0
 40
0.0053686475705733
 50
112.9944487866395946
 51
153.387104534508012
  0
ARC
  5
38477
  8
0
 10
6975.9252222773584435
 20
345.3128160068990269
 30
0.0
 40
0.0030090585928589
 50
161.693558218693596
 51
235.5601102622352983
  0
ARC
  5
38478
  8
0
 10
6975.9314381403783045
 20
345.3218902603323954
 30
0.0
 40
0.0140081050019648
 50
235.5826836228378909
 51
272.3827841594589927
  0
ARC
  5
38479
  8
0
 10
6975.9325735638649348
 20
345.3220849411231939
 30
0.0
 40
0.0142014460224431
 50
267.7682330680256086
 51
303.4781047104278855
  0
ARC
  5
3847A
  8
0
 10
6975.9384054317797563
 20
345.3130701664615003
 30
0.0
 40
0.0034669816520192
 50
305.2693794962717107
 51
355.7815220030046817
  0
ARC
  5
3847B
  8
0
 10
6975.938184274789819
 20
345.3124649698846156
 30
0.0
 40
0.0036953738296941
 50
5.4373877508571198
 51
58.632577059385909
  0
ARC
  5
3847C
  8
0
 10
6975.9390991503578334
 20
345.2889725865269952
 30
0.0
 40
0.0110514380962286
 50
77.4536729736745286
 51
88.2359883279822981
  0
ARC
  5
3847D
  8
0
 10
6975.9352720885099188
 20
345.214726715569725
 30
0.0
 40
0.0853938143605408
 50
87.2028284354913268
 51
89.794937564306764
  0
ARC
  5
3847E
  8
0
 10
6975.9337991072898149
 20
345.217832040124506
 30
0.0
 40
0.0823071624153886
 50
88.7617776718231681
 51
91.2382223281768177
  0
ARC
  5
3847F
  8
0
 10
6975.9312946444078989
 20
345.2268323055732822
 30
0.0
 40
0.0732912718682145
 50
89.4325490826647354
 51
94.6995804211179149
  0
ARC
  5
38480
  8
0
 10
6975.9265876002027653
 20
345.28218098745009
 30
0.0
 40
0.0177437087641405
 50
94.1944347991231012
 51
102.4772872040883982
  0
ARC
  5
38481
  8
0
 10
6975.9232035257564348
 20
345.2976177479695821
 30
0.0
 40
0.0019406474762104
 50
103.3926747565346034
 51
117.7085328006838978
  0
ARC
  5
38482
  8
0
 10
6975.9224358381161437
 20
345.2990794484913977
 30
0.0
 40
0.0002896136407758
 50
117.7085328006271965
 51
148.8191829208485046
  0
ARC
  5
38483
  8
0
 10
6975.9222904248472332
 20
345.2991853854729811
 30
0.0
 40
0.0001114211977828
 50
156.7360491721732103
 51
231.2538699680258105
  0
ARC
  5
38484
  8
0
 10
6975.9229116018659624
 20
345.3000127593464867
 30
0.0
 40
0.0011459743429865
 50
232.9218482897605043
 51
256.7413405862802165
  0
ARC
  5
38485
  8
0
 10
6975.9271775696088298
 20
345.3193741710588256
 30
0.0
 40
0.0209716698992461
 50
257.5288387097219811
 51
267.0849834965633249
  0
ARC
  5
38486
  8
0
 10
6975.9318062501270106
 20
345.3837558863539812
 30
0.0
 40
0.0855161035613774
 50
266.1813981895439269
 51
270.1435482140327053
  0
ARC
  5
38487
  8
0
 10
6975.9323912088821089
 20
345.3481723793768765
 30
0.0
 40
0.0499337042800063
 50
269.574632162398018
 51
278.4143005397939987
  0
ARC
  5
38488
  8
0
 10
6975.9384382497119077
 20
345.3075679383758825
 30
0.0
 40
0.0088815642756358
 50
278.1542936639066284
 51
290.6987849695822774
  0
ARC
  5
38489
  8
0
 10
6975.941396061789419
 20
345.2997772422917819
 30
0.0
 40
0.0005484518201936
 50
289.316610714761282
 51
326.9989068831263239
  0
ARC
  5
3848A
  8
0
 10
6975.9417265128922736
 20
345.2995126881618262
 30
0.0
 40
0.0001339435588038
 50
345.2231818653546043
 51
59.2981324023161633
  0
ARC
  5
3848B
  8
0
 10
6975.9412603333921652
 20
345.2988305902021011
 30
0.0
 40
0.0009598944694843
 50
56.1581772161981476
 51
75.5511218090464354
  0
ARC
  5
3848C
  8
0
 10
6975.9390991503578334
 20
345.2861330475412842
 30
0.0
 40
0.0110514380962286
 50
77.4536729736745286
 51
88.2359883279822981
  0
ARC
  5
3848D
  8
0
 10
6975.9352720885099188
 20
345.2118871765839003
 30
0.0
 40
0.0853938143605408
 50
87.2028284354913268
 51
89.794937564306764
  0
ARC
  5
3848E
  8
0
 10
6975.9337991072898149
 20
345.2149925011386813
 30
0.0
 40
0.0823071624153886
 50
88.7617776718231681
 51
91.2382223281768177
  0
ARC
  5
3848F
  8
0
 10
6975.9312946444078989
 20
345.223992766587628
 30
0.0
 40
0.0732912718682145
 50
89.4325490826647354
 51
94.6995804211179149
  0
ARC
  5
38490
  8
0
 10
6975.9265876002027653
 20
345.279341448464379
 30
0.0
 40
0.0177437087641405
 50
94.1944347991231012
 51
102.4772872040883982
  0
ARC
  5
38491
  8
0
 10
6975.9232035257564348
 20
345.2947782089838142
 30
0.0
 40
0.0019406474762104
 50
103.3926747565346034
 51
117.7085328006838978
  0
ARC
  5
38492
  8
0
 10
6975.9224358381161437
 20
345.296239909505573
 30
0.0
 40
0.0002896136407758
 50
117.7085328006271965
 51
148.8191829208485046
  0
ARC
  5
38493
  8
0
 10
6975.9222904248472332
 20
345.2963458464872133
 30
0.0
 40
0.0001114211977828
 50
156.7360491721732103
 51
231.2538699680258105
  0
ARC
  5
38494
  8
0
 10
6975.9229116018659624
 20
345.2971732203607189
 30
0.0
 40
0.0011459743429865
 50
232.9218482897605043
 51
256.7413405862802165
  0
ARC
  5
38495
  8
0
 10
6975.9271775696088298
 20
345.3165346320731146
 30
0.0
 40
0.0209716698992461
 50
257.5288387097219811
 51
267.0849834965633249
  0
ARC
  5
38496
  8
0
 10
6975.9318062501270106
 20
345.380916347368327
 30
0.0
 40
0.0855161035613774
 50
266.1813981895439269
 51
270.1435482140327053
  0
ARC
  5
38497
  8
0
 10
6975.9323912088821089
 20
345.3453328403911087
 30
0.0
 40
0.0499337042800063
 50
269.574632162398018
 51
278.4143005397939987
  0
ARC
  5
38498
  8
0
 10
6975.9384382497119077
 20
345.3047283993901146
 30
0.0
 40
0.0088815642756358
 50
278.1542936639066284
 51
290.6987849695822774
  0
ARC
  5
38499
  8
0
 10
6975.941396061789419
 20
345.2969377033061278
 30
0.0
 40
0.0005484518201936
 50
289.316610714761282
 51
326.9989068831263239
  0
ARC
  5
3849A
  8
0
 10
6975.9417265128931831
 20
345.2966731491760015
 30
0.0
 40
0.0001339435588038
 50
345.2231818653546043
 51
59.2981324023161633
  0
ARC
  5
3849B
  8
0
 10
6975.9412603333921652
 20
345.2959910512162764
 30
0.0
 40
0.0009598944694843
 50
56.1581772161981476
 51
75.5511218090464354
  0
ARC
  5
3849C
  8
0
 10
6975.9390991503578334
 20
345.2918121255412984
 30
0.0
 40
0.0110514380962286
 50
77.4536729736745286
 51
88.2359883279822981
  0
ARC
  5
3849D
  8
0
 10
6975.9352720885099188
 20
345.2175662545840282
 30
0.0
 40
0.0853938143605408
 50
87.2028284354913268
 51
89.794937564306764
  0
ARC
  5
3849E
  8
0
 10
6975.9319787632894077
 20
345.3151824423785001
 30
0.0
 40
0.0122229916137248
 50
270.1956476600535098
 51
273.8289032780232901
  0
ARC
  5
3849F
  8
0
 10
6975.9317770426623611
 20
345.0857504821528892
 30
0.0
 40
0.2172422889351832
 50
88.9975546942562943
 51
89.5728358579256536
  0
ARC
  5
384A0
  8
0
 10
6975.9312946444078989
 20
345.2296718445875854
 30
0.0
 40
0.0732912718682145
 50
89.4325490826647354
 51
94.6995804211179149
  0
ARC
  5
384A1
  8
0
 10
6975.9265876002027653
 20
345.2850205264642796
 30
0.0
 40
0.0177437087641405
 50
94.1944347991231012
 51
102.4772872040883982
  0
ARC
  5
384A2
  8
0
 10
6975.9232035257564348
 20
345.3004572869837716
 30
0.0
 40
0.0019406474762104
 50
103.3926747565346034
 51
117.7085328006838978
  0
ARC
  5
384A3
  8
0
 10
6975.9224358381161437
 20
345.3019189875055872
 30
0.0
 40
0.0002896136407758
 50
117.7085328006271965
 51
148.8191829208485046
  0
ARC
  5
384A4
  8
0
 10
6975.9222904248472332
 20
345.3020249244872275
 30
0.0
 40
0.0001114211977828
 50
156.7360491721732103
 51
231.2538699680258105
  0
ARC
  5
384A5
  8
0
 10
6975.9229116018659624
 20
345.3028522983606763
 30
0.0
 40
0.0011459743429865
 50
232.9218482897605043
 51
256.7413405862802165
  0
ARC
  5
384A6
  8
0
 10
6975.9271775696088298
 20
345.3222137100730151
 30
0.0
 40
0.0209716698992461
 50
257.5288387097219811
 51
267.0849834965633249
  0
ARC
  5
384A7
  8
0
 10
6975.9318062501270106
 20
345.3865954253682276
 30
0.0
 40
0.0855161035613774
 50
266.1813981895439269
 51
270.1435482140327053
  0
ARC
  5
384A8
  8
0
 10
6975.9323912088821089
 20
345.3510119183911229
 30
0.0
 40
0.0499337042800063
 50
269.574632162398018
 51
278.4143005397939987
  0
ARC
  5
384A9
  8
0
 10
6975.9384382497119077
 20
345.310407477390072
 30
0.0
 40
0.0088815642756358
 50
278.1542936639066284
 51
290.6987849695822774
  0
ARC
  5
384AA
  8
0
 10
6975.941396061789419
 20
345.3026167813060852
 30
0.0
 40
0.0005484518201936
 50
289.316610714761282
 51
326.9989068831263239
  0
ARC
  5
384AB
  8
0
 10
6975.9417265128931831
 20
345.3023522271760157
 30
0.0
 40
0.0001339435588038
 50
345.2231818653546043
 51
59.2981324023161633
  0
ARC
  5
384AC
  8
0
 10
6975.9412603333921652
 20
345.3016701292162907
 30
0.0
 40
0.0009598944694843
 50
56.1581772161981476
 51
75.5511218090464354
  0
ARC
  5
384AD
  8
0
 10
6975.9043428272188976
 20
345.3585319941674925
 30
0.0
 40
0.0079887293576476
 50
356.8926992472780171
 51
53.9950660203630406
  0
ARC
  5
384AE
  8
0
 10
6975.9032507940910364
 20
345.3587884618381167
 30
0.0
 40
0.0090951905296246
 50
311.6136633779696012
 51
355.6522436579812165
  0
ARC
  5
384AF
  8
0
 10
6975.9024749968702963
 20
345.3594562501813243
 30
0.0
 40
0.0101105880217837
 50
270.0934162632635207
 51
312.387421542157881
  0
ARC
  5
384B0
  8
0
 10
6975.9024240624939921
 20
345.3597737638907006
 30
0.0
 40
0.0104283062262813
 50
229.8542690599537082
 51
270.3704191819257971
  0
ARC
  5
384B1
  8
0
 10
6975.9011801640208432
 20
345.358334561505103
 30
0.0
 40
0.008526217070622
 50
177.6629764703185117
 51
230.0084392044296919
  0
ARC
  5
384B2
  8
0
 10
6975.9011838700043882
 20
345.3581307414738717
 30
0.0
 40
0.0085406559783217
 50
126.5180277130017004
 51
176.2976528434656132
  0
ARC
  5
384B3
  8
0
 10
6975.9024245279251772
 20
345.3300372029053733
 30
0.0
 40
0.0104126813355631
 50
89.6315860613355255
 51
132.1640931682375992
  0
ARC
  5
384B4
  8
0
 10
6975.9010987226720317
 20
345.3315012050928203
 30
0.0
 40
0.0084375707123716
 50
132.1640931682397024
 51
188.1381810781020931
  0
ARC
  5
384B5
  8
0
 10
6975.9013711975267142
 20
345.3317646330102093
 30
0.0
 40
0.0087474154016247
 50
189.593774445001003
 51
234.9814935824074098
  0
ARC
  5
384B6
  8
0
 10
6975.9023875946522821
 20
345.333055902827482
 30
0.0
 40
0.0103885749514263
 50
234.4773259846066935
 51
262.2828054806229261
  0
ARC
  5
384B7
  8
0
 10
6975.9024123266672177
 20
345.3321003946152814
 30
0.0
 40
0.0094462781117249
 50
273.1328338181619984
 51
295.5005708873304116
  0
ARC
  5
384B8
  8
0
 10
6975.9024123266672177
 20
345.3321003946152814
 30
0.0
 40
0.0094462781117249
 50
261.3558631166063719
 51
266.8671661818380016
  0
ARC
  5
384B9
  8
0
 10
6975.9015227389400025
 20
345.3335008736868872
 30
0.0
 40
0.0110951118664085
 50
296.5333894880661774
 51
338.3232229802711117
  0
ARC
  5
384BA
  8
0
 10
6975.9049328986184264
 20
345.3321454071580092
 30
0.0
 40
0.007425441779664
 50
338.3232229802711117
 51
28.0317679235639083
  0
ARC
  5
384BB
  8
0
 10
6975.9040782951360598
 20
345.3316903984458008
 30
0.0
 40
0.0083936256682842
 50
28.0317679235639083
 51
68.0811569100611536
  0
ARC
  5
384BC
  8
0
 10
6975.9021703577227527
 20
345.32694876165408
 30
0.0
 40
0.0135047258071471
 50
68.0811569100611536
 51
88.6374573699941379
  0
ARC
  5
384BD
  8
0
 10
6975.9033223291198738
 20
345.3040074784839248
 30
0.0
 40
0.0136935283379641
 50
58.0000333861138202
 51
88.1299996325106463
  0
ARC
  5
384BE
  8
0
 10
6975.9023899663388875
 20
345.3008606111260974
 30
0.0
 40
0.0168895107589337
 50
85.3159744016864465
 51
113.9304195711420959
  0
ARC
  5
384BF
  8
0
 10
6975.8976363449046403
 20
345.3113562086941783
 30
0.0
 40
0.0053686475705733
 50
112.9944487866395946
 51
153.387104534508012
  0
ARC
  5
384C0
  8
0
 10
6975.8956932577348198
 20
345.3128160068990269
 30
0.0
 40
0.0030090585928589
 50
161.693558218693596
 51
235.5601102622352983
  0
ARC
  5
384C1
  8
0
 10
6975.9019091207546808
 20
345.3218902603323954
 30
0.0
 40
0.0140081050019648
 50
235.5826836228378909
 51
272.3827841594589927
  0
ARC
  5
384C2
  8
0
 10
6975.9030445442422206
 20
345.3220849411231939
 30
0.0
 40
0.0142014460224431
 50
267.7682330680256086
 51
303.4781047104278855
  0
ARC
  5
384C3
  8
0
 10
6975.9088764121552231
 20
345.3130701664615003
 30
0.0
 40
0.0034669816520192
 50
305.2693794962717107
 51
355.7815220030046817
  0
ARC
  5
384C4
  8
0
 10
6975.9086552551671048
 20
345.3124649698846156
 30
0.0
 40
0.0036953738296941
 50
5.4373877508571198
 51
58.632577059385909
  0
ARC
  5
384C5
  8
0
 10
6975.9095701307351192
 20
345.2889725865269952
 30
0.0
 40
0.0110514380962286
 50
77.4536729736745286
 51
88.2359883279822981
  0
ARC
  5
384C6
  8
0
 10
6975.9057430688872046
 20
345.214726715569725
 30
0.0
 40
0.0853938143605408
 50
87.2028284354913268
 51
89.794937564306764
  0
ARC
  5
384C7
  8
0
 10
6975.9042700876652816
 20
345.217832040124506
 30
0.0
 40
0.0823071624153886
 50
88.7617776718231681
 51
91.2382223281768177
  0
ARC
  5
384C8
  8
0
 10
6975.9017656247851846
 20
345.2268323055732822
 30
0.0
 40
0.0732912718682145
 50
89.4325490826647354
 51
94.6995804211179149
  0
ARC
  5
384C9
  8
0
 10
6975.8970585805800511
 20
345.28218098745009
 30
0.0
 40
0.0177437087641405
 50
94.1944347991231012
 51
102.4772872040883982
  0
ARC
  5
384CA
  8
0
 10
6975.8936745061309921
 20
345.2976177479695821
 30
0.0
 40
0.0019406474762104
 50
103.3926747565346034
 51
117.7085328006838978
  0
ARC
  5
384CB
  8
0
 10
6975.8929068184934295
 20
345.2990794484913977
 30
0.0
 40
0.0002896136407758
 50
117.7085328006271965
 51
148.8191829208485046
  0
ARC
  5
384CC
  8
0
 10
6975.8927614052236095
 20
345.2991853854729811
 30
0.0
 40
0.0001114211977828
 50
156.7360491721732103
 51
231.2538699680258105
  0
ARC
  5
384CD
  8
0
 10
6975.8933825822423387
 20
345.3000127593464867
 30
0.0
 40
0.0011459743429865
 50
232.9218482897605043
 51
256.7413405862802165
  0
ARC
  5
384CE
  8
0
 10
6975.897648549985206
 20
345.3193741710588256
 30
0.0
 40
0.0209716698992461
 50
257.5288387097219811
 51
267.0849834965633249
  0
ARC
  5
384CF
  8
0
 10
6975.9022772305033868
 20
345.3837558863539812
 30
0.0
 40
0.0855161035613774
 50
266.1813981895439269
 51
270.1435482140327053
  0
ARC
  5
384D0
  8
0
 10
6975.9028621892575757
 20
345.3481723793768765
 30
0.0
 40
0.0499337042800063
 50
269.574632162398018
 51
278.4143005397939987
  0
ARC
  5
384D1
  8
0
 10
6975.9089092300873745
 20
345.3075679383758825
 30
0.0
 40
0.0088815642756358
 50
278.1542936639066284
 51
290.6987849695822774
  0
ARC
  5
384D2
  8
0
 10
6975.9118670421657953
 20
345.2997772422917819
 30
0.0
 40
0.0005484518201936
 50
289.316610714761282
 51
326.9989068831263239
  0
ARC
  5
384D3
  8
0
 10
6975.9121974932677404
 20
345.2995126881618262
 30
0.0
 40
0.0001339435588038
 50
345.2231818653546043
 51
59.2981324023161633
  0
ARC
  5
384D4
  8
0
 10
6975.9117313137694509
 20
345.2988305902021011
 30
0.0
 40
0.0009598944694843
 50
56.1581772161981476
 51
75.5511218090464354
  0
ARC
  5
384D5
  8
0
 10
6975.9095701307351192
 20
345.2861330475412842
 30
0.0
 40
0.0110514380962286
 50
77.4536729736745286
 51
88.2359883279822981
  0
ARC
  5
384D6
  8
0
 10
6975.9057430688872046
 20
345.2118871765839003
 30
0.0
 40
0.0853938143605408
 50
87.2028284354913268
 51
89.794937564306764
  0
ARC
  5
384D7
  8
0
 10
6975.9042700876652816
 20
345.2149925011386813
 30
0.0
 40
0.0823071624153886
 50
88.7617776718231681
 51
91.2382223281768177
  0
ARC
  5
384D8
  8
0
 10
6975.9017656247851846
 20
345.223992766587628
 30
0.0
 40
0.0732912718682145
 50
89.4325490826647354
 51
94.6995804211179149
  0
ARC
  5
384D9
  8
0
 10
6975.8970585805800511
 20
345.279341448464379
 30
0.0
 40
0.0177437087641405
 50
94.1944347991231012
 51
102.4772872040883982
  0
ARC
  5
384DA
  8
0
 10
6975.8936745061309921
 20
345.2947782089838142
 30
0.0
 40
0.0019406474762104
 50
103.3926747565346034
 51
117.7085328006838978
  0
ARC
  5
384DB
  8
0
 10
6975.8929068184934295
 20
345.296239909505573
 30
0.0
 40
0.0002896136407758
 50
117.7085328006271965
 51
148.8191829208485046
  0
ARC
  5
384DC
  8
0
 10
6975.8927614052236095
 20
345.2963458464872133
 30
0.0
 40
0.0001114211977828
 50
156.7360491721732103
 51
231.2538699680258105
  0
ARC
  5
384DD
  8
0
 10
6975.8933825822423387
 20
345.2971732203607189
 30
0.0
 40
0.0011459743429865
 50
232.9218482897605043
 51
256.7413405862802165
  0
ARC
  5
384DE
  8
0
 10
6975.897648549985206
 20
345.3165346320731146
 30
0.0
 40
0.0209716698992461
 50
257.5288387097219811
 51
267.0849834965633249
  0
ARC
  5
384DF
  8
0
 10
6975.9022772305033868
 20
345.380916347368327
 30
0.0
 40
0.0855161035613774
 50
266.1813981895439269
 51
270.1435482140327053
  0
ARC
  5
384E0
  8
0
 10
6975.9028621892575757
 20
345.3453328403911087
 30
0.0
 40
0.0499337042800063
 50
269.574632162398018
 51
278.4143005397939987
  0
ARC
  5
384E1
  8
0
 10
6975.9089092300873745
 20
345.3047283993901146
 30
0.0
 40
0.0088815642756358
 50
278.1542936639066284
 51
290.6987849695822774
  0
ARC
  5
384E2
  8
0
 10
6975.9118670421657953
 20
345.2969377033061278
 30
0.0
 40
0.0005484518201936
 50
289.316610714761282
 51
326.9989068831263239
  0
ARC
  5
384E3
  8
0
 10
6975.9121974932677404
 20
345.2966731491760015
 30
0.0
 40
0.0001339435588038
 50
345.2231818653546043
 51
59.2981324023161633
  0
ARC
  5
384E4
  8
0
 10
6975.9117313137694509
 20
345.2959910512162764
 30
0.0
 40
0.0009598944694843
 50
56.1581772161981476
 51
75.5511218090464354
  0
ARC
  5
384E5
  8
0
 10
6975.9095701307351192
 20
345.2918121255412984
 30
0.0
 40
0.0110514380962286
 50
77.4536729736745286
 51
88.2359883279822981
  0
ARC
  5
384E6
  8
0
 10
6975.9057430688872046
 20
345.2175662545840282
 30
0.0
 40
0.0853938143605408
 50
87.2028284354913268
 51
89.794937564306764
  0
ARC
  5
384E7
  8
0
 10
6975.9024497436648744
 20
345.3151824423785001
 30
0.0
 40
0.0122229916137248
 50
270.1956476600535098
 51
273.8289032780232901
  0
ARC
  5
384E8
  8
0
 10
6975.9022480230387373
 20
345.0857504821528892
 30
0.0
 40
0.2172422889351832
 50
88.9975546942562943
 51
89.5728358579256536
  0
ARC
  5
384E9
  8
0
 10
6975.9017656247851846
 20
345.2296718445875854
 30
0.0
 40
0.0732912718682145
 50
89.4325490826647354
 51
94.6995804211179149
  0
ARC
  5
384EA
  8
0
 10
6975.8970585805800511
 20
345.2850205264642796
 30
0.0
 40
0.0177437087641405
 50
94.1944347991231012
 51
102.4772872040883982
  0
ARC
  5
384EB
  8
0
 10
6975.8936745061309921
 20
345.3004572869837716
 30
0.0
 40
0.0019406474762104
 50
103.3926747565346034
 51
117.7085328006838978
  0
ARC
  5
384EC
  8
0
 10
6975.8929068184934295
 20
345.3019189875055872
 30
0.0
 40
0.0002896136407758
 50
117.7085328006271965
 51
148.8191829208485046
  0
ARC
  5
384ED
  8
0
 10
6975.8927614052236095
 20
345.3020249244872275
 30
0.0
 40
0.0001114211977828
 50
156.7360491721732103
 51
231.2538699680258105
  0
ARC
  5
384EE
  8
0
 10
6975.8933825822423387
 20
345.3028522983606763
 30
0.0
 40
0.0011459743429865
 50
232.9218482897605043
 51
256.7413405862802165
  0
ARC
  5
384EF
  8
0
 10
6975.897648549985206
 20
345.3222137100730151
 30
0.0
 40
0.0209716698992461
 50
257.5288387097219811
 51
267.0849834965633249
  0
ARC
  5
384F0
  8
0
 10
6975.9022772305033868
 20
345.3865954253682276
 30
0.0
 40
0.0855161035613774
 50
266.1813981895439269
 51
270.1435482140327053
  0
ARC
  5
384F1
  8
0
 10
6975.9028621892575757
 20
345.3510119183911229
 30
0.0
 40
0.0499337042800063
 50
269.574632162398018
 51
278.4143005397939987
  0
ARC
  5
384F2
  8
0
 10
6975.9089092300873745
 20
345.310407477390072
 30
0.0
 40
0.0088815642756358
 50
278.1542936639066284
 51
290.6987849695822774
  0
ARC
  5
384F3
  8
0
 10
6975.9118670421657953
 20
345.3026167813060852
 30
0.0
 40
0.0005484518201936
 50
289.316610714761282
 51
326.9989068831263239
  0
ARC
  5
384F4
  8
0
 10
6975.9121974932677404
 20
345.3023522271760157
 30
0.0
 40
0.0001339435588038
 50
345.2231818653546043
 51
59.2981324023161633
  0
ARC
  5
384F5
  8
0
 10
6975.9117313137694509
 20
345.3016701292162907
 30
0.0
 40
0.0009598944694843
 50
56.1581772161981476
 51
75.5511218090464354
  0
ARC
  5
384F6
  8
0
 10
6975.8748152682019281
 20
345.3585319941674925
 30
0.0
 40
0.0079887293576476
 50
356.8926992472780171
 51
53.9950660203630406
  0
ARC
  5
384F7
  8
0
 10
6975.8737232350740669
 20
345.3587884618381167
 30
0.0
 40
0.0090951905296246
 50
311.6136633779696012
 51
355.6522436579812165
  0
ARC
  5
384F8
  8
0
 10
6975.8729474378542363
 20
345.3594562501813243
 30
0.0
 40
0.0101105880217837
 50
270.0934162632635207
 51
312.387421542157881
  0
ARC
  5
384F9
  8
0
 10
6975.8728965034779321
 20
345.3597737638907006
 30
0.0
 40
0.0104283062262813
 50
229.8542690599537082
 51
270.3704191819257971
  0
ARC
  5
384FA
  8
0
 10
6975.8716526050038738
 20
345.358334561505103
 30
0.0
 40
0.008526217070622
 50
177.6629764703185117
 51
230.0084392044296919
  0
ARC
  5
384FB
  8
0
 10
6975.8716563109846902
 20
345.3581307414738717
 30
0.0
 40
0.0085406559783217
 50
126.5180277130017004
 51
176.2976528434656132
  0
ARC
  5
384FC
  8
0
 10
6975.8728969689082078
 20
345.3300372029053733
 30
0.0
 40
0.0104126813355631
 50
89.6315860613355255
 51
132.1640931682375992
  0
ARC
  5
384FD
  8
0
 10
6975.8715711636550623
 20
345.3315012050928203
 30
0.0
 40
0.0084375707123716
 50
132.1640931682397024
 51
188.1381810781020931
  0
ARC
  5
384FE
  8
0
 10
6975.8718436385088353
 20
345.3317646330102093
 30
0.0
 40
0.0087474154016247
 50
189.593774445001003
 51
234.9814935824074098
  0
ARC
  5
384FF
  8
0
 10
6975.8728600356353127
 20
345.333055902827482
 30
0.0
 40
0.0103885749514263
 50
234.4773259846066935
 51
262.2828054806229261
  0
ARC
  5
38500
  8
0
 10
6975.8728847676502482
 20
345.3321003946152814
 30
0.0
 40
0.0094462781117249
 50
273.1328338181619984
 51
295.5005708873304116
  0
ARC
  5
38501
  8
0
 10
6975.8728847676502482
 20
345.3321003946152814
 30
0.0
 40
0.0094462781117249
 50
261.3558631166063719
 51
266.8671661818380016
  0
ARC
  5
38502
  8
0
 10
6975.871995179923033
 20
345.3335008736868872
 30
0.0
 40
0.0110951118664085
 50
296.5333894880661774
 51
338.3232229802711117
  0
ARC
  5
38503
  8
0
 10
6975.8754053396032759
 20
345.3321454071580092
 30
0.0
 40
0.007425441779664
 50
338.3232229802711117
 51
28.0317679235639083
  0
ARC
  5
38504
  8
0
 10
6975.8745507361190903
 20
345.3316903984458008
 30
0.0
 40
0.0083936256682842
 50
28.0317679235639083
 51
68.0811569100611536
  0
ARC
  5
38505
  8
0
 10
6975.8726427987066927
 20
345.32694876165408
 30
0.0
 40
0.0135047258071471
 50
68.0811569100611536
 51
88.6374573699941379
  0
ARC
  5
38506
  8
0
 10
6975.8737947701019948
 20
345.3040074784839248
 30
0.0
 40
0.0136935283379641
 50
58.0000333861138202
 51
88.1299996325106463
  0
ARC
  5
38507
  8
0
 10
6975.8728624073210085
 20
345.3008606111260974
 30
0.0
 40
0.0168895107589337
 50
85.3159744016864465
 51
113.9304195711420959
  0
ARC
  5
38508
  8
0
 10
6975.8681087858876708
 20
345.3113562086941783
 30
0.0
 40
0.0053686475705733
 50
112.9944487866395946
 51
153.387104534508012
  0
ARC
  5
38509
  8
0
 10
6975.8661656987178503
 20
345.3128160068990269
 30
0.0
 40
0.0030090585928589
 50
161.693558218693596
 51
235.5601102622352983
  0
ARC
  5
3850A
  8
0
 10
6975.8723815617368018
 20
345.3218902603323954
 30
0.0
 40
0.0140081050019648
 50
235.5826836228378909
 51
272.3827841594589927
  0
ARC
  5
3850B
  8
0
 10
6975.8735169852261606
 20
345.3220849411231939
 30
0.0
 40
0.0142014460224431
 50
267.7682330680256086
 51
303.4781047104278855
  0
ARC
  5
3850C
  8
0
 10
6975.8793488531400726
 20
345.3130701664615003
 30
0.0
 40
0.0034669816520192
 50
305.2693794962717107
 51
355.7815220030046817
  0
ARC
  5
3850D
  8
0
 10
6975.8791276961492258
 20
345.3124649698846156
 30
0.0
 40
0.0036953738296941
 50
5.4373877508571198
 51
58.632577059385909
  0
ARC
  5
3850E
  8
0
 10
6975.8800425717163307
 20
345.2889725865269952
 30
0.0
 40
0.0110514380962286
 50
77.4536729736745286
 51
88.2359883279822981
  0
ARC
  5
3850F
  8
0
 10
6975.8762155098702351
 20
345.214726715569725
 30
0.0
 40
0.0853938143605408
 50
87.2028284354913268
 51
89.794937564306764
  0
ARC
  5
38510
  8
0
 10
6975.8747425286492216
 20
345.217832040124506
 30
0.0
 40
0.0823071624153886
 50
88.7617776718231681
 51
91.2382223281768177
  0
ARC
  5
38511
  8
0
 10
6975.8722380657673057
 20
345.2268323055732822
 30
0.0
 40
0.0732912718682145
 50
89.4325490826647354
 51
94.6995804211179149
  0
ARC
  5
38512
  8
0
 10
6975.8675310215621721
 20
345.28218098745009
 30
0.0
 40
0.0177437087641405
 50
94.1944347991231012
 51
102.4772872040883982
  0
ARC
  5
38513
  8
0
 10
6975.8641469471140226
 20
345.2976177479695821
 30
0.0
 40
0.0019406474762104
 50
103.3926747565346034
 51
117.7085328006838978
  0
ARC
  5
38514
  8
0
 10
6975.863379259474641
 20
345.2990794484913977
 30
0.0
 40
0.0002896136407758
 50
117.7085328006271965
 51
148.8191829208485046
  0
ARC
  5
38515
  8
0
 10
6975.8632338462057305
 20
345.2991853854729811
 30
0.0
 40
0.0001114211977828
 50
156.7360491721732103
 51
231.2538699680258105
  0
ARC
  5
38516
  8
0
 10
6975.8638550232253692
 20
345.3000127593464867
 30
0.0
 40
0.0011459743429865
 50
232.9218482897605043
 51
256.7413405862802165
  0
ARC
  5
38517
  8
0
 10
6975.8681209909700556
 20
345.3193741710588256
 30
0.0
 40
0.0209716698992461
 50
257.5288387097219811
 51
267.0849834965633249
  0
ARC
  5
38518
  8
0
 10
6975.8727496714873269
 20
345.3837558863539812
 30
0.0
 40
0.0855161035613774
 50
266.1813981895439269
 51
270.1435482140327053
  0
ARC
  5
38519
  8
0
 10
6975.8733346302396967
 20
345.3481723793768765
 30
0.0
 40
0.0499337042800063
 50
269.574632162398018
 51
278.4143005397939987
  0
ARC
  5
3851A
  8
0
 10
6975.879381671070405
 20
345.3075679383758825
 30
0.0
 40
0.0088815642756358
 50
278.1542936639066284
 51
290.6987849695822774
  0
ARC
  5
3851B
  8
0
 10
6975.8823394831488258
 20
345.2997772422917819
 30
0.0
 40
0.0005484518201936
 50
289.316610714761282
 51
326.9989068831263239
  0
ARC
  5
3851C
  8
0
 10
6975.8826699342498614
 20
345.2995126881618262
 30
0.0
 40
0.0001339435588038
 50
345.2231818653546043
 51
59.2981324023161633
  0
ARC
  5
3851D
  8
0
 10
6975.882203754751572
 20
345.2988305902021011
 30
0.0
 40
0.0009598944694843
 50
56.1581772161981476
 51
75.5511218090464354
  0
ARC
  5
3851E
  8
0
 10
6975.8800425717163307
 20
345.2861330475412842
 30
0.0
 40
0.0110514380962286
 50
77.4536729736745286
 51
88.2359883279822981
  0
ARC
  5
3851F
  8
0
 10
6975.8762155098702351
 20
345.2118871765839003
 30
0.0
 40
0.0853938143605408
 50
87.2028284354913268
 51
89.794937564306764
  0
ARC
  5
38520
  8
0
 10
6975.8747425286501311
 20
345.2149925011386813
 30
0.0
 40
0.0823071624153886
 50
88.7617776718231681
 51
91.2382223281768177
  0
ARC
  5
38521
  8
0
 10
6975.8722380657682152
 20
345.223992766587628
 30
0.0
 40
0.0732912718682145
 50
89.4325490826647354
 51
94.6995804211179149
  0
ARC
  5
38522
  8
0
 10
6975.8675310215621721
 20
345.279341448464379
 30
0.0
 40
0.0177437087641405
 50
94.1944347991231012
 51
102.4772872040883982
  0
ARC
  5
38523
  8
0
 10
6975.8641469471140226
 20
345.2947782089838142
 30
0.0
 40
0.0019406474762104
 50
103.3926747565346034
 51
117.7085328006838978
  0
ARC
  5
38524
  8
0
 10
6975.863379259474641
 20
345.296239909505573
 30
0.0
 40
0.0002896136407758
 50
117.7085328006271965
 51
148.8191829208485046
  0
ARC
  5
38525
  8
0
 10
6975.8632338462057305
 20
345.2963458464872133
 30
0.0
 40
0.0001114211977828
 50
156.7360491721732103
 51
231.2538699680258105
  0
ARC
  5
38526
  8
0
 10
6975.8638550232253692
 20
345.2971732203607189
 30
0.0
 40
0.0011459743429865
 50
232.9218482897605043
 51
256.7413405862802165
  0
ARC
  5
38527
  8
0
 10
6975.8681209909700556
 20
345.3165346320731146
 30
0.0
 40
0.0209716698992461
 50
257.5288387097219811
 51
267.0849834965633249
  0
ARC
  5
38528
  8
0
 10
6975.8727496714873269
 20
345.380916347368327
 30
0.0
 40
0.0855161035613774
 50
266.1813981895439269
 51
270.1435482140327053
  0
ARC
  5
38529
  8
0
 10
6975.8733346302396967
 20
345.3453328403911087
 30
0.0
 40
0.0499337042800063
 50
269.574632162398018
 51
278.4143005397939987
  0
ARC
  5
3852A
  8
0
 10
6975.879381671070405
 20
345.3047283993901146
 30
0.0
 40
0.0088815642756358
 50
278.1542936639066284
 51
290.6987849695822774
  0
ARC
  5
3852B
  8
0
 10
6975.8823394831488258
 20
345.2969377033061278
 30
0.0
 40
0.0005484518201936
 50
289.316610714761282
 51
326.9989068831263239
  0
ARC
  5
3852C
  8
0
 10
6975.8826699342498614
 20
345.2966731491760015
 30
0.0
 40
0.0001339435588038
 50
345.2231818653546043
 51
59.2981324023161633
  0
ARC
  5
3852D
  8
0
 10
6975.882203754751572
 20
345.2959910512162764
 30
0.0
 40
0.0009598944694843
 50
56.1581772161981476
 51
75.5511218090464354
  0
ARC
  5
3852E
  8
0
 10
6975.8800425717163307
 20
345.2918121255412984
 30
0.0
 40
0.0110514380962286
 50
77.4536729736745286
 51
88.2359883279822981
  0
ARC
  5
3852F
  8
0
 10
6975.8762155098702351
 20
345.2175662545840282
 30
0.0
 40
0.0853938143605408
 50
87.2028284354913268
 51
89.794937564306764
  0
ARC
  5
38530
  8
0
 10
6975.8729221846479049
 20
345.3151824423785001
 30
0.0
 40
0.0122229916137248
 50
270.1956476600535098
 51
273.8289032780232901
  0
ARC
  5
38531
  8
0
 10
6975.8727204640217678
 20
345.0857504821528892
 30
0.0
 40
0.2172422889351832
 50
88.9975546942562943
 51
89.5728358579256536
  0
ARC
  5
38532
  8
0
 10
6975.8722380657682152
 20
345.2296718445875854
 30
0.0
 40
0.0732912718682145
 50
89.4325490826647354
 51
94.6995804211179149
  0
ARC
  5
38533
  8
0
 10
6975.8675310215621721
 20
345.2850205264642796
 30
0.0
 40
0.0177437087641405
 50
94.1944347991231012
 51
102.4772872040883982
  0
ARC
  5
38534
  8
0
 10
6975.8641469471140226
 20
345.3004572869837716
 30
0.0
 40
0.0019406474762104
 50
103.3926747565346034
 51
117.7085328006838978
  0
ARC
  5
38535
  8
0
 10
6975.863379259474641
 20
345.3019189875055872
 30
0.0
 40
0.0002896136407758
 50
117.7085328006271965
 51
148.8191829208485046
  0
ARC
  5
38536
  8
0
 10
6975.8632338462057305
 20
345.3020249244872275
 30
0.0
 40
0.0001114211977828
 50
156.7360491721732103
 51
231.2538699680258105
  0
ARC
  5
38537
  8
0
 10
6975.8638550232253692
 20
345.3028522983606763
 30
0.0
 40
0.0011459743429865
 50
232.9218482897605043
 51
256.7413405862802165
  0
ARC
  5
38538
  8
0
 10
6975.8681209909700556
 20
345.3222137100730151
 30
0.0
 40
0.0209716698992461
 50
257.5288387097219811
 51
267.0849834965633249
  0
ARC
  5
38539
  8
0
 10
6975.8727496714873269
 20
345.3865954253682276
 30
0.0
 40
0.0855161035613774
 50
266.1813981895439269
 51
270.1435482140327053
  0
ARC
  5
3853A
  8
0
 10
6975.8733346302396967
 20
345.3510119183911229
 30
0.0
 40
0.0499337042800063
 50
269.574632162398018
 51
278.4143005397939987
  0
ARC
  5
3853B
  8
0
 10
6975.879381671070405
 20
345.310407477390072
 30
0.0
 40
0.0088815642756358
 50
278.1542936639066284
 51
290.6987849695822774
  0
ARC
  5
3853C
  8
0
 10
6975.8823394831488258
 20
345.3026167813060852
 30
0.0
 40
0.0005484518201936
 50
289.316610714761282
 51
326.9989068831263239
  0
ARC
  5
3853D
  8
0
 10
6975.8826699342498614
 20
345.3023522271760157
 30
0.0
 40
0.0001339435588038
 50
345.2231818653546043
 51
59.2981324023161633
  0
ARC
  5
3853E
  8
0
 10
6975.882203754751572
 20
345.3016701292162907
 30
0.0
 40
0.0009598944694843
 50
56.1581772161981476
 51
75.5511218090464354
  0
ARC
  5
3853F
  8
0
 10
6975.8452877091021946
 20
345.3585319941674925
 30
0.0
 40
0.0079887293576476
 50
356.8926992472780171
 51
53.9950660203630406
  0
ARC
  5
38540
  8
0
 10
6975.8441956759743334
 20
345.3587884618381167
 30
0.0
 40
0.0090951905296246
 50
311.6136633779696012
 51
355.6522436579812165
  0
ARC
  5
38541
  8
0
 10
6975.8434198787535934
 20
345.3594562501813243
 30
0.0
 40
0.0101105880217837
 50
270.0934162632635207
 51
312.387421542157881
  0
ARC
  5
38542
  8
0
 10
6975.8433689443781986
 20
345.3597737638907006
 30
0.0
 40
0.0104283062262813
 50
229.8542690599537082
 51
270.3704191819257971
  0
ARC
  5
38543
  8
0
 10
6975.8421250459041403
 20
345.358334561505103
 30
0.0
 40
0.008526217070622
 50
177.6629764703185117
 51
230.0084392044296919
  0
ARC
  5
38544
  8
0
 10
6975.8421287518849567
 20
345.3581307414738717
 30
0.0
 40
0.0085406559783217
 50
126.5180277130017004
 51
176.2976528434656132
  0
ARC
  5
38545
  8
0
 10
6975.8433694098075648
 20
345.3300372029053733
 30
0.0
 40
0.0104126813355631
 50
89.6315860613355255
 51
132.1640931682375992
  0
ARC
  5
38546
  8
0
 10
6975.8420436045553288
 20
345.3315012050928203
 30
0.0
 40
0.0084375707123716
 50
132.1640931682397024
 51
188.1381810781020931
  0
ARC
  5
38547
  8
0
 10
6975.8423160794091018
 20
345.3317646330102093
 30
0.0
 40
0.0087474154016247
 50
189.593774445001003
 51
234.9814935824074098
  0
ARC
  5
38548
  8
0
 10
6975.8433324765355792
 20
345.333055902827482
 30
0.0
 40
0.0103885749514263
 50
234.4773259846066935
 51
262.2828054806229261
  0
ARC
  5
38549
  8
0
 10
6975.8433572085496053
 20
345.3321003946152814
 30
0.0
 40
0.0094462781117249
 50
273.1328338181619984
 51
295.5005708873304116
  0
ARC
  5
3854A
  8
0
 10
6975.8433572085496053
 20
345.3321003946152814
 30
0.0
 40
0.0094462781117249
 50
261.3558631166063719
 51
266.8671661818380016
  0
ARC
  5
3854B
  8
0
 10
6975.8424676208232995
 20
345.3335008736868872
 30
0.0
 40
0.0110951118664085
 50
296.5333894880661774
 51
338.3232229802711117
  0
ARC
  5
3854C
  8
0
 10
6975.8458777805017235
 20
345.3321454071580092
 30
0.0
 40
0.007425441779664
 50
338.3232229802711117
 51
28.0317679235639083
  0
ARC
  5
3854D
  8
0
 10
6975.8450231770193568
 20
345.3316903984458008
 30
0.0
 40
0.0083936256682842
 50
28.0317679235639083
 51
68.0811569100611536
  0
ARC
  5
3854E
  8
0
 10
6975.8431152396069592
 20
345.32694876165408
 30
0.0
 40
0.0135047258071471
 50
68.0811569100611536
 51
88.6374573699941379
  0
ARC
  5
3854F
  8
0
 10
6975.8442672110022613
 20
345.3040074784839248
 30
0.0
 40
0.0136935283379641
 50
58.0000333861138202
 51
88.1299996325106463
  0
ARC
  5
38550
  8
0
 10
6975.843334848223094
 20
345.3008606111260974
 30
0.0
 40
0.0168895107589337
 50
85.3159744016864465
 51
113.9304195711420959
  0
ARC
  5
38551
  8
0
 10
6975.8385812267879373
 20
345.3113562086941783
 30
0.0
 40
0.0053686475705733
 50
112.9944487866395946
 51
153.387104534508012
  0
ARC
  5
38552
  8
0
 10
6975.8366381396181168
 20
345.3128160068990269
 30
0.0
 40
0.0030090585928589
 50
161.693558218693596
 51
235.5601102622352983
  0
ARC
  5
38553
  8
0
 10
6975.8428540026388873
 20
345.3218902603323954
 30
0.0
 40
0.0140081050019648
 50
235.5826836228378909
 51
272.3827841594589927
  0
ARC
  5
38554
  8
0
 10
6975.8439894261236986
 20
345.3220849411231939
 30
0.0
 40
0.0142014460224431
 50
267.7682330680256086
 51
303.4781047104278855
  0
ARC
  5
38555
  8
0
 10
6975.8498212940403391
 20
345.3130701664615003
 30
0.0
 40
0.0034669816520192
 50
305.2693794962717107
 51
355.7815220030046817
  0
ARC
  5
38556
  8
0
 10
6975.8496001370504018
 20
345.3124649698846156
 30
0.0
 40
0.0036953738296941
 50
5.4373877508571198
 51
58.632577059385909
  0
ARC
  5
38557
  8
0
 10
6975.8505150126156877
 20
345.2889725865269952
 30
0.0
 40
0.0110514380962286
 50
77.4536729736745286
 51
88.2359883279822981
  0
ARC
  5
38558
  8
0
 10
6975.8466879507686826
 20
345.214726715569725
 30
0.0
 40
0.0853938143605408
 50
87.2028284354913268
 51
89.794937564306764
  0
ARC
  5
38559
  8
0
 10
6975.8452149695485787
 20
345.217832040124506
 30
0.0
 40
0.0823071624153886
 50
88.7617776718231681
 51
91.2382223281768177
  0
ARC
  5
3855A
  8
0
 10
6975.8427105066666627
 20
345.2268323055732822
 30
0.0
 40
0.0732912718682145
 50
89.4325490826647354
 51
94.6995804211179149
  0
ARC
  5
3855B
  8
0
 10
6975.8380034624624386
 20
345.28218098745009
 30
0.0
 40
0.0177437087641405
 50
94.1944347991231012
 51
102.4772872040883982
  0
ARC
  5
3855C
  8
0
 10
6975.8346193880142891
 20
345.2976177479695821
 30
0.0
 40
0.0019406474762104
 50
103.3926747565346034
 51
117.7085328006838978
  0
ARC
  5
3855D
  8
0
 10
6975.833851700375817
 20
345.2990794484913977
 30
0.0
 40
0.0002896136407758
 50
117.7085328006271965
 51
148.8191829208485046
  0
ARC
  5
3855E
  8
0
 10
6975.833706287105997
 20
345.2991853854729811
 30
0.0
 40
0.0001114211977828
 50
156.7360491721732103
 51
231.2538699680258105
  0
ARC
  5
3855F
  8
0
 10
6975.8343274641256357
 20
345.3000127593464867
 30
0.0
 40
0.0011459743429865
 50
232.9218482897605043
 51
256.7413405862802165
  0
ARC
  5
38560
  8
0
 10
6975.8385934318675936
 20
345.3193741710588256
 30
0.0
 40
0.0209716698992461
 50
257.5288387097219811
 51
267.0849834965633249
  0
ARC
  5
38561
  8
0
 10
6975.8432221123866839
 20
345.3837558863539812
 30
0.0
 40
0.0855161035613774
 50
266.1813981895439269
 51
270.1435482140327053
  0
ARC
  5
38562
  8
0
 10
6975.8438070711399632
 20
345.3481723793768765
 30
0.0
 40
0.0499337042800063
 50
269.574632162398018
 51
278.4143005397939987
  0
ARC
  5
38563
  8
0
 10
6975.849854111969762
 20
345.3075679383758825
 30
0.0
 40
0.0088815642756358
 50
278.1542936639066284
 51
290.6987849695822774
  0
ARC
  5
38564
  8
0
 10
6975.8528119240490923
 20
345.2997772422917819
 30
0.0
 40
0.0005484518201936
 50
289.316610714761282
 51
326.9989068831263239
  0
ARC
  5
38565
  8
0
 10
6975.8531423751501279
 20
345.2995126881618262
 30
0.0
 40
0.0001339435588038
 50
345.2231818653546043
 51
59.2981324023161633
  0
ARC
  5
38566
  8
0
 10
6975.8526761956518385
 20
345.2988305902021011
 30
0.0
 40
0.0009598944694843
 50
56.1581772161981476
 51
75.5511218090464354
  0
ARC
  5
38567
  8
0
 10
6975.8505150126184162
 20
345.2861330475412842
 30
0.0
 40
0.0110514380962286
 50
77.4536729736745286
 51
88.2359883279822981
  0
ARC
  5
38568
  8
0
 10
6975.8466879507695921
 20
345.2118871765839003
 30
0.0
 40
0.0853938143605408
 50
87.2028284354913268
 51
89.794937564306764
  0
ARC
  5
38569
  8
0
 10
6975.8452149695485787
 20
345.2149925011386813
 30
0.0
 40
0.0823071624153886
 50
88.7617776718231681
 51
91.2382223281768177
  0
ARC
  5
3856A
  8
0
 10
6975.8427105066666627
 20
345.223992766587628
 30
0.0
 40
0.0732912718682145
 50
89.4325490826647354
 51
94.6995804211179149
  0
ARC
  5
3856B
  8
0
 10
6975.8380034624624386
 20
345.279341448464379
 30
0.0
 40
0.0177437087641405
 50
94.1944347991231012
 51
102.4772872040883982
  0
ARC
  5
3856C
  8
0
 10
6975.8346193880142891
 20
345.2947782089838142
 30
0.0
 40
0.0019406474762104
 50
103.3926747565346034
 51
117.7085328006838978
  0
ARC
  5
3856D
  8
0
 10
6975.833851700375817
 20
345.296239909505573
 30
0.0
 40
0.0002896136407758
 50
117.7085328006271965
 51
148.8191829208485046
  0
ARC
  5
3856E
  8
0
 10
6975.833706287105997
 20
345.2963458464872133
 30
0.0
 40
0.0001114211977828
 50
156.7360491721732103
 51
231.2538699680258105
  0
ARC
  5
3856F
  8
0
 10
6975.8343274641256357
 20
345.2971732203607189
 30
0.0
 40
0.0011459743429865
 50
232.9218482897605043
 51
256.7413405862802165
  0
ARC
  5
38570
  8
0
 10
6975.8385934318675936
 20
345.3165346320731146
 30
0.0
 40
0.0209716698992461
 50
257.5288387097219811
 51
267.0849834965633249
  0
ARC
  5
38571
  8
0
 10
6975.8432221123866839
 20
345.380916347368327
 30
0.0
 40
0.0855161035613774
 50
266.1813981895439269
 51
270.1435482140327053
  0
ARC
  5
38572
  8
0
 10
6975.8438070711399632
 20
345.3453328403911087
 30
0.0
 40
0.0499337042800063
 50
269.574632162398018
 51
278.4143005397939987
  0
ARC
  5
38573
  8
0
 10
6975.849854111969762
 20
345.3047283993901146
 30
0.0
 40
0.0088815642756358
 50
278.1542936639066284
 51
290.6987849695822774
  0
ARC
  5
38574
  8
0
 10
6975.8528119240490923
 20
345.2969377033061278
 30
0.0
 40
0.0005484518201936
 50
289.316610714761282
 51
326.9989068831263239
  0
ARC
  5
38575
  8
0
 10
6975.8531423751501279
 20
345.2966731491760015
 30
0.0
 40
0.0001339435588038
 50
345.2231818653546043
 51
59.2981324023161633
  0
ARC
  5
38576
  8
0
 10
6975.8526761956518385
 20
345.2959910512162764
 30
0.0
 40
0.0009598944694843
 50
56.1581772161981476
 51
75.5511218090464354
  0
ARC
  5
38577
  8
0
 10
6975.8505150126184162
 20
345.2918121255412984
 30
0.0
 40
0.0110514380962286
 50
77.4536729736745286
 51
88.2359883279822981
  0
ARC
  5
38578
  8
0
 10
6975.8466879507695921
 20
345.2175662545840282
 30
0.0
 40
0.0853938143605408
 50
87.2028284354913268
 51
89.794937564306764
  0
ARC
  5
38579
  8
0
 10
6975.8433946255481715
 20
345.3151824423785001
 30
0.0
 40
0.0122229916137248
 50
270.1956476600535098
 51
273.8289032780232901
  0
ARC
  5
3857A
  8
0
 10
6975.8431929049211249
 20
345.0857504821528892
 30
0.0
 40
0.2172422889351832
 50
88.9975546942562943
 51
89.5728358579256536
  0
ARC
  5
3857B
  8
0
 10
6975.8427105066666627
 20
345.2296718445875854
 30
0.0
 40
0.0732912718682145
 50
89.4325490826647354
 51
94.6995804211179149
  0
ARC
  5
3857C
  8
0
 10
6975.8380034624624386
 20
345.2850205264642796
 30
0.0
 40
0.0177437087641405
 50
94.1944347991231012
 51
102.4772872040883982
  0
ARC
  5
3857D
  8
0
 10
6975.8346193880142891
 20
345.3004572869837716
 30
0.0
 40
0.0019406474762104
 50
103.3926747565346034
 51
117.7085328006838978
  0
ARC
  5
3857E
  8
0
 10
6975.833851700375817
 20
345.3019189875055872
 30
0.0
 40
0.0002896136407758
 50
117.7085328006271965
 51
148.8191829208485046
  0
ARC
  5
3857F
  8
0
 10
6975.833706287105997
 20
345.3020249244872275
 30
0.0
 40
0.0001114211977828
 50
156.7360491721732103
 51
231.2538699680258105
  0
ARC
  5
38580
  8
0
 10
6975.8343274641256357
 20
345.3028522983606763
 30
0.0
 40
0.0011459743429865
 50
232.9218482897605043
 51
256.7413405862802165
  0
ARC
  5
38581
  8
0
 10
6975.8385934318675936
 20
345.3222137100730151
 30
0.0
 40
0.0209716698992461
 50
257.5288387097219811
 51
267.0849834965633249
  0
ARC
  5
38582
  8
0
 10
6975.8432221123866839
 20
345.3865954253682276
 30
0.0
 40
0.0855161035613774
 50
266.1813981895439269
 51
270.1435482140327053
  0
ARC
  5
38583
  8
0
 10
6975.8438070711399632
 20
345.3510119183911229
 30
0.0
 40
0.0499337042800063
 50
269.574632162398018
 51
278.4143005397939987
  0
ARC
  5
38584
  8
0
 10
6975.849854111969762
 20
345.310407477390072
 30
0.0
 40
0.0088815642756358
 50
278.1542936639066284
 51
290.6987849695822774
  0
ARC
  5
38585
  8
0
 10
6975.8528119240490923
 20
345.3026167813060852
 30
0.0
 40
0.0005484518201936
 50
289.316610714761282
 51
326.9989068831263239
  0
ARC
  5
38586
  8
0
 10
6975.8531423751501279
 20
345.3023522271760157
 30
0.0
 40
0.0001339435588038
 50
345.2231818653546043
 51
59.2981324023161633
  0
ARC
  5
38587
  8
0
 10
6975.8526761956518385
 20
345.3016701292162907
 30
0.0
 40
0.0009598944694843
 50
56.1581772161981476
 51
75.5511218090464354
  0
ARC
  5
38588
  8
0
 10
6975.8157601501015961
 20
345.3585319941674925
 30
0.0
 40
0.0079887293576476
 50
356.8926992472780171
 51
53.9950660203630406
  0
ARC
  5
38589
  8
0
 10
6975.8146681169737349
 20
345.3587884618381167
 30
0.0
 40
0.0090951905296246
 50
311.6136633779696012
 51
355.6522436579812165
  0
ARC
  5
3858A
  8
0
 10
6975.8138923197529948
 20
345.3594562501813243
 30
0.0
 40
0.0101105880217837
 50
270.0934162632635207
 51
312.387421542157881
  0
ARC
  5
3858B
  8
0
 10
6975.8138413853766906
 20
345.3597737638907006
 30
0.0
 40
0.0104283062262813
 50
229.8542690599537082
 51
270.3704191819257971
  0
ARC
  5
3858C
  8
0
 10
6975.8125974869026322
 20
345.358334561505103
 30
0.0
 40
0.008526217070622
 50
177.6629764703185117
 51
230.0084392044296919
  0
ARC
  5
3858D
  8
0
 10
6975.8126011928852677
 20
345.3581307414738717
 30
0.0
 40
0.0085406559783217
 50
126.5180277130017004
 51
176.2976528434656132
  0
ARC
  5
3858E
  8
0
 10
6975.8138418508078757
 20
345.3300372029053733
 30
0.0
 40
0.0104126813355631
 50
89.6315860613355255
 51
132.1640931682375992
  0
ARC
  5
3858F
  8
0
 10
6975.8125160455547302
 20
345.3315012050928203
 30
0.0
 40
0.0084375707123716
 50
132.1640931682397024
 51
188.1381810781020931
  0
ARC
  5
38590
  8
0
 10
6975.8127885204112317
 20
345.3317646330102093
 30
0.0
 40
0.0087474154016247
 50
189.593774445001003
 51
234.9814935824074098
  0
ARC
  5
38591
  8
0
 10
6975.8138049175349806
 20
345.333055902827482
 30
0.0
 40
0.0103885749514263
 50
234.4773259846066935
 51
262.2828054806229261
  0
ARC
  5
38592
  8
0
 10
6975.8138296495517352
 20
345.3321003946152814
 30
0.0
 40
0.0094462781117249
 50
273.1328338181619984
 51
295.5005708873304116
  0
ARC
  5
38593
  8
0
 10
6975.8138296495517352
 20
345.3321003946152814
 30
0.0
 40
0.0094462781117249
 50
261.3558631166063719
 51
266.8671661818380016
  0
ARC
  5
38594
  8
0
 10
6975.8129400618254294
 20
345.3335008736868872
 30
0.0
 40
0.0110951118664085
 50
296.5333894880661774
 51
338.3232229802711117
  0
ARC
  5
38595
  8
0
 10
6975.8163502215029439
 20
345.3321454071580092
 30
0.0
 40
0.007425441779664
 50
338.3232229802711117
 51
28.0317679235639083
  0
ARC
  5
38596
  8
0
 10
6975.8154956180187583
 20
345.3316903984458008
 30
0.0
 40
0.0083936256682842
 50
28.0317679235639083
 51
68.0811569100611536
  0
ARC
  5
38597
  8
0
 10
6975.8135876806081797
 20
345.32694876165408
 30
0.0
 40
0.0135047258071471
 50
68.0811569100611536
 51
88.6374573699941379
  0
ARC
  5
38598
  8
0
 10
6975.8147396520025723
 20
345.3040074784839248
 30
0.0
 40
0.0136935283379641
 50
58.0000333861138202
 51
88.1299996325106463
  0
ARC
  5
38599
  8
0
 10
6975.813807289221586
 20
345.3008606111260974
 30
0.0
 40
0.0168895107589337
 50
85.3159744016864465
 51
113.9304195711420959
  0
ARC
  5
3859A
  8
0
 10
6975.8090536677873388
 20
345.3113562086941783
 30
0.0
 40
0.0053686475705733
 50
112.9944487866395946
 51
153.387104534508012
  0
ARC
  5
3859B
  8
0
 10
6975.8071105806184278
 20
345.3128160068990269
 30
0.0
 40
0.0030090585928589
 50
161.693558218693596
 51
235.5601102622352983
  0
ARC
  5
3859C
  8
0
 10
6975.8133264436382888
 20
345.3218902603323954
 30
0.0
 40
0.0140081050019648
 50
235.5826836228378909
 51
272.3827841594589927
  0
ARC
  5
3859D
  8
0
 10
6975.8144618671249191
 20
345.3220849411231939
 30
0.0
 40
0.0142014460224431
 50
267.7682330680256086
 51
303.4781047104278855
  0
ARC
  5
3859E
  8
0
 10
6975.8202937350397406
 20
345.3130701664615003
 30
0.0
 40
0.0034669816520192
 50
305.2693794962717107
 51
355.7815220030046817
  0
ARC
  5
3859F
  8
0
 10
6975.8200725780488938
 20
345.3124649698846156
 30
0.0
 40
0.0036953738296941
 50
5.4373877508571198
 51
58.632577059385909
  0
ARC
  5
385A0
  8
0
 10
6975.8209874536178177
 20
345.2889725865269952
 30
0.0
 40
0.0110514380962286
 50
77.4536729736745286
 51
88.2359883279822981
  0
ARC
  5
385A1
  8
0
 10
6975.8171603917699031
 20
345.214726715569725
 30
0.0
 40
0.0853938143605408
 50
87.2028284354913268
 51
89.794937564306764
  0
ARC
  5
385A2
  8
0
 10
6975.8156874105488896
 20
345.217832040124506
 30
0.0
 40
0.0823071624153886
 50
88.7617776718231681
 51
91.2382223281768177
  0
ARC
  5
385A3
  8
0
 10
6975.8131829476678831
 20
345.2268323055732822
 30
0.0
 40
0.0732912718682145
 50
89.4325490826647354
 51
94.6995804211179149
  0
ARC
  5
385A4
  8
0
 10
6975.8084759034618401
 20
345.28218098745009
 30
0.0
 40
0.0177437087641405
 50
94.1944347991231012
 51
102.4772872040883982
  0
ARC
  5
385A5
  8
0
 10
6975.8050918290146001
 20
345.2976177479695821
 30
0.0
 40
0.0019406474762104
 50
103.3926747565346034
 51
117.7085328006838978
  0
ARC
  5
385A6
  8
0
 10
6975.804324141376128
 20
345.2990794484913977
 30
0.0
 40
0.0002896136407758
 50
117.7085328006271965
 51
148.8191829208485046
  0
ARC
  5
385A7
  8
0
 10
6975.804178728106308
 20
345.2991853854729811
 30
0.0
 40
0.0001114211977828
 50
156.7360491721732103
 51
231.2538699680258105
  0
ARC
  5
385A8
  8
0
 10
6975.8047999051259467
 20
345.3000127593464867
 30
0.0
 40
0.0011459743429865
 50
232.9218482897605043
 51
256.7413405862802165
  0
ARC
  5
385A9
  8
0
 10
6975.809065872868814
 20
345.3193741710588256
 30
0.0
 40
0.0209716698992461
 50
257.5288387097219811
 51
267.0849834965633249
  0
ARC
  5
385AA
  8
0
 10
6975.8136945533869948
 20
345.3837558863539812
 30
0.0
 40
0.0855161035613774
 50
266.1813981895439269
 51
270.1435482140327053
  0
ARC
  5
385AB
  8
0
 10
6975.8142795121402742
 20
345.3481723793768765
 30
0.0
 40
0.0499337042800063
 50
269.574632162398018
 51
278.4143005397939987
  0
ARC
  5
385AC
  8
0
 10
6975.820326552970073
 20
345.3075679383758825
 30
0.0
 40
0.0088815642756358
 50
278.1542936639066284
 51
290.6987849695822774
  0
ARC
  5
385AD
  8
0
 10
6975.8232843650475843
 20
345.2997772422917819
 30
0.0
 40
0.0005484518201936
 50
289.316610714761282
 51
326.9989068831263239
  0
ARC
  5
385AE
  8
0
 10
6975.8236148161513484
 20
345.2995126881618262
 30
0.0
 40
0.0001339435588038
 50
345.2231818653546043
 51
59.2981324023161633
  0
ARC
  5
385AF
  8
0
 10
6975.8231486366530589
 20
345.2988305902021011
 30
0.0
 40
0.0009598944694843
 50
56.1581772161981476
 51
75.5511218090464354
  0
ARC
  5
385B0
  8
0
 10
6975.8209874536178177
 20
345.2861330475412842
 30
0.0
 40
0.0110514380962286
 50
77.4536729736745286
 51
88.2359883279822981
  0
ARC
  5
385B1
  8
0
 10
6975.8171603917699031
 20
345.2118871765839003
 30
0.0
 40
0.0853938143605408
 50
87.2028284354913268
 51
89.794937564306764
  0
ARC
  5
385B2
  8
0
 10
6975.8156874105488896
 20
345.2149925011386813
 30
0.0
 40
0.0823071624153886
 50
88.7617776718231681
 51
91.2382223281768177
  0
ARC
  5
385B3
  8
0
 10
6975.8131829476678831
 20
345.223992766587628
 30
0.0
 40
0.0732912718682145
 50
89.4325490826647354
 51
94.6995804211179149
  0
ARC
  5
385B4
  8
0
 10
6975.8084759034618401
 20
345.279341448464379
 30
0.0
 40
0.0177437087641405
 50
94.1944347991231012
 51
102.4772872040883982
  0
ARC
  5
385B5
  8
0
 10
6975.8050918290146001
 20
345.2947782089838142
 30
0.0
 40
0.0019406474762104
 50
103.3926747565346034
 51
117.7085328006838978
  0
ARC
  5
385B6
  8
0
 10
6975.804324141376128
 20
345.296239909505573
 30
0.0
 40
0.0002896136407758
 50
117.7085328006271965
 51
148.8191829208485046
  0
ARC
  5
385B7
  8
0
 10
6975.8041787281072175
 20
345.2963458464872133
 30
0.0
 40
0.0001114211977828
 50
156.7360491721732103
 51
231.2538699680258105
  0
ARC
  5
385B8
  8
0
 10
6975.8047999051259467
 20
345.2971732203607189
 30
0.0
 40
0.0011459743429865
 50
232.9218482897605043
 51
256.7413405862802165
  0
ARC
  5
385B9
  8
0
 10
6975.809065872868814
 20
345.3165346320731146
 30
0.0
 40
0.0209716698992461
 50
257.5288387097219811
 51
267.0849834965633249
  0
ARC
  5
385BA
  8
0
 10
6975.8136945533869948
 20
345.380916347368327
 30
0.0
 40
0.0855161035613774
 50
266.1813981895439269
 51
270.1435482140327053
  0
ARC
  5
385BB
  8
0
 10
6975.8142795121420932
 20
345.3453328403911087
 30
0.0
 40
0.0499337042800063
 50
269.574632162398018
 51
278.4143005397939987
  0
ARC
  5
385BC
  8
0
 10
6975.820326552970073
 20
345.3047283993901146
 30
0.0
 40
0.0088815642756358
 50
278.1542936639066284
 51
290.6987849695822774
  0
ARC
  5
385BD
  8
0
 10
6975.8232843650475843
 20
345.2969377033061278
 30
0.0
 40
0.0005484518201936
 50
289.316610714761282
 51
326.9989068831263239
  0
ARC
  5
385BE
  8
0
 10
6975.8236148161513484
 20
345.2966731491760015
 30
0.0
 40
0.0001339435588038
 50
345.2231818653546043
 51
59.2981324023161633
  0
ARC
  5
385BF
  8
0
 10
6975.8231486366530589
 20
345.2959910512162764
 30
0.0
 40
0.0009598944694843
 50
56.1581772161981476
 51
75.5511218090464354
  0
ARC
  5
385C0
  8
0
 10
6975.8209874536178177
 20
345.2918121255412984
 30
0.0
 40
0.0110514380962286
 50
77.4536729736745286
 51
88.2359883279822981
  0
ARC
  5
385C1
  8
0
 10
6975.8171603917699031
 20
345.2175662545840282
 30
0.0
 40
0.0853938143605408
 50
87.2028284354913268
 51
89.794937564306764
  0
ARC
  5
385C2
  8
0
 10
6975.8138670665466634
 20
345.3151824423785001
 30
0.0
 40
0.0122229916137248
 50
270.1956476600535098
 51
273.8289032780232901
  0
ARC
  5
385C3
  8
0
 10
6975.8136653459214358
 20
345.0857504821528892
 30
0.0
 40
0.2172422889351832
 50
88.9975546942562943
 51
89.5728358579256536
  0
ARC
  5
385C4
  8
0
 10
6975.8131829476678831
 20
345.2296718445875854
 30
0.0
 40
0.0732912718682145
 50
89.4325490826647354
 51
94.6995804211179149
  0
ARC
  5
385C5
  8
0
 10
6975.8084759034618401
 20
345.2850205264642796
 30
0.0
 40
0.0177437087641405
 50
94.1944347991231012
 51
102.4772872040883982
  0
ARC
  5
385C6
  8
0
 10
6975.8050918290146001
 20
345.3004572869837716
 30
0.0
 40
0.0019406474762104
 50
103.3926747565346034
 51
117.7085328006838978
  0
ARC
  5
385C7
  8
0
 10
6975.804324141376128
 20
345.3019189875055872
 30
0.0
 40
0.0002896136407758
 50
117.7085328006271965
 51
148.8191829208485046
  0
ARC
  5
385C8
  8
0
 10
6975.8041787281072175
 20
345.3020249244872275
 30
0.0
 40
0.0001114211977828
 50
156.7360491721732103
 51
231.2538699680258105
  0
ARC
  5
385C9
  8
0
 10
6975.8047999051259467
 20
345.3028522983606763
 30
0.0
 40
0.0011459743429865
 50
232.9218482897605043
 51
256.7413405862802165
  0
ARC
  5
385CA
  8
0
 10
6975.809065872868814
 20
345.3222137100730151
 30
0.0
 40
0.0209716698992461
 50
257.5288387097219811
 51
267.0849834965633249
  0
ARC
  5
385CB
  8
0
 10
6975.8136945533869948
 20
345.3865954253682276
 30
0.0
 40
0.0855161035613774
 50
266.1813981895439269
 51
270.1435482140327053
  0
ARC
  5
385CC
  8
0
 10
6975.8142795121420932
 20
345.3510119183911229
 30
0.0
 40
0.0499337042800063
 50
269.574632162398018
 51
278.4143005397939987
  0
ARC
  5
385CD
  8
0
 10
6975.820326552970073
 20
345.310407477390072
 30
0.0
 40
0.0088815642756358
 50
278.1542936639066284
 51
290.6987849695822774
  0
ARC
  5
385CE
  8
0
 10
6975.8232843650475843
 20
345.3026167813060852
 30
0.0
 40
0.0005484518201936
 50
289.316610714761282
 51
326.9989068831263239
  0
ARC
  5
385CF
  8
0
 10
6975.8236148161513484
 20
345.3023522271760157
 30
0.0
 40
0.0001339435588038
 50
345.2231818653546043
 51
59.2981324023161633
  0
ARC
  5
385D0
  8
0
 10
6975.8231486366530589
 20
345.3016701292162907
 30
0.0
 40
0.0009598944694843
 50
56.1581772161981476
 51
75.5511218090464354
  0
ARC
  5
385D1
  8
0
 10
6975.7862325910018626
 20
345.3585319941674925
 30
0.0
 40
0.0079887293576476
 50
356.8926992472780171
 51
53.9950660203630406
  0
ARC
  5
385D2
  8
0
 10
6975.7851405578740014
 20
345.3587884618381167
 30
0.0
 40
0.0090951905296246
 50
311.6136633779696012
 51
355.6522436579812165
  0
ARC
  5
385D3
  8
0
 10
6975.7843647606532613
 20
345.3594562501813243
 30
0.0
 40
0.0101105880217837
 50
270.0934162632635207
 51
312.387421542157881
  0
ARC
  5
385D4
  8
0
 10
6975.7843138262769571
 20
345.3597737638907006
 30
0.0
 40
0.0104283062262813
 50
229.8542690599537082
 51
270.3704191819257971
  0
ARC
  5
385D5
  8
0
 10
6975.7830699278038082
 20
345.358334561505103
 30
0.0
 40
0.008526217070622
 50
177.6629764703185117
 51
230.0084392044296919
  0
ARC
  5
385D6
  8
0
 10
6975.7830736337846247
 20
345.3581307414738717
 30
0.0
 40
0.0085406559783217
 50
126.5180277130017004
 51
176.2976528434656132
  0
ARC
  5
385D7
  8
0
 10
6975.7843142917081423
 20
345.3300372029053733
 30
0.0
 40
0.0104126813355631
 50
89.6315860613355255
 51
132.1640931682375992
  0
ARC
  5
385D8
  8
0
 10
6975.7829884864549967
 20
345.3315012050928203
 30
0.0
 40
0.0084375707123716
 50
132.1640931682397024
 51
188.1381810781020931
  0
ARC
  5
385D9
  8
0
 10
6975.7832609613105888
 20
345.3317646330102093
 30
0.0
 40
0.0087474154016247
 50
189.593774445001003
 51
234.9814935824074098
  0
ARC
  5
385DA
  8
0
 10
6975.7842773584352472
 20
345.333055902827482
 30
0.0
 40
0.0103885749514263
 50
234.4773259846066935
 51
262.2828054806229261
  0
ARC
  5
385DB
  8
0
 10
6975.7843020904520017
 20
345.3321003946152814
 30
0.0
 40
0.0094462781117249
 50
273.1328338181619984
 51
295.5005708873304116
  0
ARC
  5
385DC
  8
0
 10
6975.7843020904520017
 20
345.3321003946152814
 30
0.0
 40
0.0094462781117249
 50
261.3558631166063719
 51
266.8671661818380016
  0
ARC
  5
385DD
  8
0
 10
6975.7834125027229675
 20
345.3335008736868872
 30
0.0
 40
0.0110951118664085
 50
296.5333894880661774
 51
338.3232229802711117
  0
ARC
  5
385DE
  8
0
 10
6975.7868226624032104
 20
345.3321454071580092
 30
0.0
 40
0.007425441779664
 50
338.3232229802711117
 51
28.0317679235639083
  0
ARC
  5
385DF
  8
0
 10
6975.7859680589181153
 20
345.3316903984458008
 30
0.0
 40
0.0083936256682842
 50
28.0317679235639083
 51
68.0811569100611536
  0
ARC
  5
385E0
  8
0
 10
6975.7840601215084462
 20
345.32694876165408
 30
0.0
 40
0.0135047258071471
 50
68.0811569100611536
 51
88.6374573699941379
  0
ARC
  5
385E1
  8
0
 10
6975.7852120929010198
 20
345.3040074784839248
 30
0.0
 40
0.0136935283379641
 50
58.0000333861138202
 51
88.1299996325106463
  0
ARC
  5
385E2
  8
0
 10
6975.7842797301218525
 20
345.3008606111260974
 30
0.0
 40
0.0168895107589337
 50
85.3159744016864465
 51
113.9304195711420959
  0
ARC
  5
385E3
  8
0
 10
6975.7795261086876053
 20
345.3113562086941783
 30
0.0
 40
0.0053686475705733
 50
112.9944487866395946
 51
153.387104534508012
  0
ARC
  5
385E4
  8
0
 10
6975.7775830215177848
 20
345.3128160068990269
 30
0.0
 40
0.0030090585928589
 50
161.693558218693596
 51
235.5601102622352983
  0
ARC
  5
385E5
  8
0
 10
6975.7837988845376458
 20
345.3218902603323954
 30
0.0
 40
0.0140081050019648
 50
235.5826836228378909
 51
272.3827841594589927
  0
ARC
  5
385E6
  8
0
 10
6975.7849343080251856
 20
345.3220849411231939
 30
0.0
 40
0.0142014460224431
 50
267.7682330680256086
 51
303.4781047104278855
  0
ARC
  5
385E7
  8
0
 10
6975.7907661759390976
 20
345.3130701664615003
 30
0.0
 40
0.0034669816520192
 50
305.2693794962717107
 51
355.7815220030046817
  0
ARC
  5
385E8
  8
0
 10
6975.7905450189491603
 20
345.3124649698846156
 30
0.0
 40
0.0036953738296941
 50
5.4373877508571198
 51
58.632577059385909
  0
ARC
  5
385E9
  8
0
 10
6975.7914598945180842
 20
345.2889725865269952
 30
0.0
 40
0.0110514380962286
 50
77.4536729736745286
 51
88.2359883279822981
  0
ARC
  5
385EA
  8
0
 10
6975.7876328326701696
 20
345.214726715569725
 30
0.0
 40
0.0853938143605408
 50
87.2028284354913268
 51
89.794937564306764
  0
ARC
  5
385EB
  8
0
 10
6975.7861598514491561
 20
345.217832040124506
 30
0.0
 40
0.0823071624153886
 50
88.7617776718231681
 51
91.2382223281768177
  0
ARC
  5
385EC
  8
0
 10
6975.7836553885672402
 20
345.2268323055732822
 30
0.0
 40
0.0732912718682145
 50
89.4325490826647354
 51
94.6995804211179149
  0
ARC
  5
385ED
  8
0
 10
6975.7789483443621066
 20
345.28218098745009
 30
0.0
 40
0.0177437087641405
 50
94.1944347991231012
 51
102.4772872040883982
  0
ARC
  5
385EE
  8
0
 10
6975.7755642699130476
 20
345.2976177479695821
 30
0.0
 40
0.0019406474762104
 50
103.3926747565346034
 51
117.7085328006838978
  0
ARC
  5
385EF
  8
0
 10
6975.7747965822763945
 20
345.2990794484913977
 30
0.0
 40
0.0002896136407758
 50
117.7085328006271965
 51
148.8191829208485046
  0
ARC
  5
385F0
  8
0
 10
6975.7746511690065745
 20
345.2991853854729811
 30
0.0
 40
0.0001114211977828
 50
156.7360491721732103
 51
231.2538699680258105
  0
ARC
  5
385F1
  8
0
 10
6975.7752723460262132
 20
345.3000127593464867
 30
0.0
 40
0.0011459743429865
 50
232.9218482897605043
 51
256.7413405862802165
  0
ARC
  5
385F2
  8
0
 10
6975.7795383137690806
 20
345.3193741710588256
 30
0.0
 40
0.0209716698992461
 50
257.5288387097219811
 51
267.0849834965633249
  0
ARC
  5
385F3
  8
0
 10
6975.7841669942863518
 20
345.3837558863539812
 30
0.0
 40
0.0855161035613774
 50
266.1813981895439269
 51
270.1435482140327053
  0
ARC
  5
385F4
  8
0
 10
6975.7847519530396312
 20
345.3481723793768765
 30
0.0
 40
0.0499337042800063
 50
269.574632162398018
 51
278.4143005397939987
  0
ARC
  5
385F5
  8
0
 10
6975.7907989938703395
 20
345.3075679383758825
 30
0.0
 40
0.0088815642756358
 50
278.1542936639066284
 51
290.6987849695822774
  0
ARC
  5
385F6
  8
0
 10
6975.7937568059478508
 20
345.2997772422917819
 30
0.0
 40
0.0005484518201936
 50
289.316610714761282
 51
326.9989068831263239
  0
ARC
  5
385F7
  8
0
 10
6975.7940872570507054
 20
345.2995126881618262
 30
0.0
 40
0.0001339435588038
 50
345.2231818653546043
 51
59.2981324023161633
  0
ARC
  5
385F8
  8
0
 10
6975.793621077550597
 20
345.2988305902021011
 30
0.0
 40
0.0009598944694843
 50
56.1581772161981476
 51
75.5511218090464354
  0
ARC
  5
385F9
  8
0
 10
6975.7914598945180842
 20
345.2861330475412842
 30
0.0
 40
0.0110514380962286
 50
77.4536729736745286
 51
88.2359883279822981
  0
ARC
  5
385FA
  8
0
 10
6975.7876328326701696
 20
345.2118871765839003
 30
0.0
 40
0.0853938143605408
 50
87.2028284354913268
 51
89.794937564306764
  0
ARC
  5
385FB
  8
0
 10
6975.7861598514491561
 20
345.2149925011386813
 30
0.0
 40
0.0823071624153886
 50
88.7617776718231681
 51
91.2382223281768177
  0
ARC
  5
385FC
  8
0
 10
6975.7836553885681496
 20
345.223992766587628
 30
0.0
 40
0.0732912718682145
 50
89.4325490826647354
 51
94.6995804211179149
  0
ARC
  5
385FD
  8
0
 10
6975.7789483443621066
 20
345.279341448464379
 30
0.0
 40
0.0177437087641405
 50
94.1944347991231012
 51
102.4772872040883982
  0
ARC
  5
385FE
  8
0
 10
6975.7755642699130476
 20
345.2947782089838142
 30
0.0
 40
0.0019406474762104
 50
103.3926747565346034
 51
117.7085328006838978
  0
ARC
  5
385FF
  8
0
 10
6975.7747965822763945
 20
345.296239909505573
 30
0.0
 40
0.0002896136407758
 50
117.7085328006271965
 51
148.8191829208485046
  0
ARC
  5
38600
  8
0
 10
6975.7746511690065745
 20
345.2963458464872133
 30
0.0
 40
0.0001114211977828
 50
156.7360491721732103
 51
231.2538699680258105
  0
ARC
  5
38601
  8
0
 10
6975.7752723460262132
 20
345.2971732203607189
 30
0.0
 40
0.0011459743429865
 50
232.9218482897605043
 51
256.7413405862802165
  0
ARC
  5
38602
  8
0
 10
6975.7795383137690806
 20
345.3165346320731146
 30
0.0
 40
0.0209716698992461
 50
257.5288387097219811
 51
267.0849834965633249
  0
ARC
  5
38603
  8
0
 10
6975.7841669942872613
 20
345.380916347368327
 30
0.0
 40
0.0855161035613774
 50
266.1813981895439269
 51
270.1435482140327053
  0
ARC
  5
38604
  8
0
 10
6975.7847519530396312
 20
345.3453328403911087
 30
0.0
 40
0.0499337042800063
 50
269.574632162398018
 51
278.4143005397939987
  0
ARC
  5
38605
  8
0
 10
6975.7907989938703395
 20
345.3047283993901146
 30
0.0
 40
0.0088815642756358
 50
278.1542936639066284
 51
290.6987849695822774
  0
ARC
  5
38606
  8
0
 10
6975.7937568059478508
 20
345.2969377033061278
 30
0.0
 40
0.0005484518201936
 50
289.316610714761282
 51
326.9989068831263239
  0
ARC
  5
38607
  8
0
 10
6975.7940872570507054
 20
345.2966731491760015
 30
0.0
 40
0.0001339435588038
 50
345.2231818653546043
 51
59.2981324023161633
  0
ARC
  5
38608
  8
0
 10
6975.7936210775533254
 20
345.2959910512162764
 30
0.0
 40
0.0009598944694843
 50
56.1581772161981476
 51
75.5511218090464354
  0
ARC
  5
38609
  8
0
 10
6975.7914598945180842
 20
345.2918121255412984
 30
0.0
 40
0.0110514380962286
 50
77.4536729736745286
 51
88.2359883279822981
  0
ARC
  5
3860A
  8
0
 10
6975.7876328326701696
 20
345.2175662545840282
 30
0.0
 40
0.0853938143605408
 50
87.2028284354913268
 51
89.794937564306764
  0
ARC
  5
3860B
  8
0
 10
6975.7843395074469299
 20
345.3151824423785001
 30
0.0
 40
0.0122229916137248
 50
270.1956476600535098
 51
273.8289032780232901
  0
ARC
  5
3860C
  8
0
 10
6975.7841377868207928
 20
345.0857504821528892
 30
0.0
 40
0.2172422889351832
 50
88.9975546942562943
 51
89.5728358579256536
  0
ARC
  5
3860D
  8
0
 10
6975.7836553885681496
 20
345.2296718445875854
 30
0.0
 40
0.0732912718682145
 50
89.4325490826647354
 51
94.6995804211179149
  0
ARC
  5
3860E
  8
0
 10
6975.7789483443621066
 20
345.2850205264642796
 30
0.0
 40
0.0177437087641405
 50
94.1944347991231012
 51
102.4772872040883982
  0
ARC
  5
3860F
  8
0
 10
6975.7755642699130476
 20
345.3004572869837716
 30
0.0
 40
0.0019406474762104
 50
103.3926747565346034
 51
117.7085328006838978
  0
ARC
  5
38610
  8
0
 10
6975.7747965822763945
 20
345.3019189875055872
 30
0.0
 40
0.0002896136407758
 50
117.7085328006271965
 51
148.8191829208485046
  0
ARC
  5
38611
  8
0
 10
6975.7746511690065745
 20
345.3020249244872275
 30
0.0
 40
0.0001114211977828
 50
156.7360491721732103
 51
231.2538699680258105
  0
ARC
  5
38612
  8
0
 10
6975.7752723460262132
 20
345.3028522983606763
 30
0.0
 40
0.0011459743429865
 50
232.9218482897605043
 51
256.7413405862802165
  0
ARC
  5
38613
  8
0
 10
6975.7795383137690806
 20
345.3222137100730151
 30
0.0
 40
0.0209716698992461
 50
257.5288387097219811
 51
267.0849834965633249
  0
ARC
  5
38614
  8
0
 10
6975.7841669942872613
 20
345.3865954253682276
 30
0.0
 40
0.0855161035613774
 50
266.1813981895439269
 51
270.1435482140327053
  0
ARC
  5
38615
  8
0
 10
6975.7847519530396312
 20
345.3510119183911229
 30
0.0
 40
0.0499337042800063
 50
269.574632162398018
 51
278.4143005397939987
  0
ARC
  5
38616
  8
0
 10
6975.7907989938703395
 20
345.310407477390072
 30
0.0
 40
0.0088815642756358
 50
278.1542936639066284
 51
290.6987849695822774
  0
ARC
  5
38617
  8
0
 10
6975.7937568059478508
 20
345.3026167813060852
 30
0.0
 40
0.0005484518201936
 50
289.316610714761282
 51
326.9989068831263239
  0
ARC
  5
38618
  8
0
 10
6975.7940872570507054
 20
345.3023522271760157
 30
0.0
 40
0.0001339435588038
 50
345.2231818653546043
 51
59.2981324023161633
  0
ARC
  5
38619
  8
0
 10
6975.7936210775533254
 20
345.3016701292162907
 30
0.0
 40
0.0009598944694843
 50
56.1581772161981476
 51
75.5511218090464354
  0
ARC
  5
3861A
  8
0
 10
6975.7567050320021735
 20
345.3585319941674925
 30
0.0
 40
0.0079887293576476
 50
356.8926992472780171
 51
53.9950660203630406
  0
ARC
  5
3861B
  8
0
 10
6975.7556129988743123
 20
345.3587884618381167
 30
0.0
 40
0.0090951905296246
 50
311.6136633779696012
 51
355.6522436579812165
  0
ARC
  5
3861C
  8
0
 10
6975.7548372016535723
 20
345.3594562501813243
 30
0.0
 40
0.0101105880217837
 50
270.0934162632635207
 51
312.387421542157881
  0
ARC
  5
3861D
  8
0
 10
6975.7547862672781775
 20
345.3597737638907006
 30
0.0
 40
0.0104283062262813
 50
229.8542690599537082
 51
270.3704191819257971
  0
ARC
  5
3861E
  8
0
 10
6975.7535423688041192
 20
345.358334561505103
 30
0.0
 40
0.008526217070622
 50
177.6629764703185117
 51
230.0084392044296919
  0
ARC
  5
3861F
  8
0
 10
6975.7535460747858451
 20
345.3581307414738717
 30
0.0
 40
0.0085406559783217
 50
126.5180277130017004
 51
176.2976528434656132
  0
ARC
  5
38620
  8
0
 10
6975.7547867327093627
 20
345.3300372029053733
 30
0.0
 40
0.0104126813355631
 50
89.6315860613355255
 51
132.1640931682375992
  0
ARC
  5
38621
  8
0
 10
6975.7534609274562172
 20
345.3315012050928203
 30
0.0
 40
0.0084375707123716
 50
132.1640931682397024
 51
188.1381810781020931
  0
ARC
  5
38622
  8
0
 10
6975.7537334023099902
 20
345.3317646330102093
 30
0.0
 40
0.0087474154016247
 50
189.593774445001003
 51
234.9814935824074098
  0
ARC
  5
38623
  8
0
 10
6975.7547497994346486
 20
345.333055902827482
 30
0.0
 40
0.0103885749514263
 50
234.4773259846066935
 51
262.2828054806229261
  0
ARC
  5
38624
  8
0
 10
6975.7547745314514032
 20
345.3321003946152814
 30
0.0
 40
0.0094462781117249
 50
273.1328338181619984
 51
295.5005708873304116
  0
ARC
  5
38625
  8
0
 10
6975.7547745314514032
 20
345.3321003946152814
 30
0.0
 40
0.0094462781117249
 50
261.3558631166063719
 51
266.8671661818380016
  0
ARC
  5
38626
  8
0
 10
6975.7538849437241879
 20
345.3335008736868872
 30
0.0
 40
0.0110951118664085
 50
296.5333894880661774
 51
338.3232229802711117
  0
ARC
  5
38627
  8
0
 10
6975.7572951034017024
 20
345.3321454071580092
 30
0.0
 40
0.007425441779664
 50
338.3232229802711117
 51
28.0317679235639083
  0
ARC
  5
38628
  8
0
 10
6975.7564404999184262
 20
345.3316903984458008
 30
0.0
 40
0.0083936256682842
 50
28.0317679235639083
 51
68.0811569100611536
  0
ARC
  5
38629
  8
0
 10
6975.7545325625078476
 20
345.32694876165408
 30
0.0
 40
0.0135047258071471
 50
68.0811569100611536
 51
88.6374573699941379
  0
ARC
  5
3862A
  8
0
 10
6975.7556845339022402
 20
345.3040074784839248
 30
0.0
 40
0.0136935283379641
 50
58.0000333861138202
 51
88.1299996325106463
  0
ARC
  5
3862B
  8
0
 10
6975.7547521711221634
 20
345.3008606111260974
 30
0.0
 40
0.0168895107589337
 50
85.3159744016864465
 51
113.9304195711420959
  0
ARC
  5
3862C
  8
0
 10
6975.7499985496870067
 20
345.3113562086941783
 30
0.0
 40
0.0053686475705733
 50
112.9944487866395946
 51
153.387104534508012
  0
ARC
  5
3862D
  8
0
 10
6975.7480554625190052
 20
345.3128160068990269
 30
0.0
 40
0.0030090585928589
 50
161.693558218693596
 51
235.5601102622352983
  0
ARC
  5
3862E
  8
0
 10
6975.7542713255379567
 20
345.3218902603323954
 30
0.0
 40
0.0140081050019648
 50
235.5826836228378909
 51
272.3827841594589927
  0
ARC
  5
3862F
  8
0
 10
6975.755406749024587
 20
345.3220849411231939
 30
0.0
 40
0.0142014460224431
 50
267.7682330680256086
 51
303.4781047104278855
  0
ARC
  5
38630
  8
0
 10
6975.7612386169394085
 20
345.3130701664615003
 30
0.0
 40
0.0034669816520192
 50
305.2693794962717107
 51
355.7815220030046817
  0
ARC
  5
38631
  8
0
 10
6975.7610174599485617
 20
345.3124649698846156
 30
0.0
 40
0.0036953738296941
 50
5.4373877508571198
 51
58.632577059385909
  0
ARC
  5
38632
  8
0
 10
6975.7619323355165761
 20
345.2889725865269952
 30
0.0
 40
0.0110514380962286
 50
77.4536729736745286
 51
88.2359883279822981
  0
ARC
  5
38633
  8
0
 10
6975.7581052736686615
 20
345.214726715569725
 30
0.0
 40
0.0853938143605408
 50
87.2028284354913268
 51
89.794937564306764
  0
ARC
  5
38634
  8
0
 10
6975.7566322924485576
 20
345.217832040124506
 30
0.0
 40
0.0823071624153886
 50
88.7617776718231681
 51
91.2382223281768177
  0
ARC
  5
38635
  8
0
 10
6975.7541278295666416
 20
345.2268323055732822
 30
0.0
 40
0.0732912718682145
 50
89.4325490826647354
 51
94.6995804211179149
  0
ARC
  5
38636
  8
0
 10
6975.7494207853605985
 20
345.28218098745009
 30
0.0
 40
0.0177437087641405
 50
94.1944347991231012
 51
102.4772872040883982
  0
ARC
  5
38637
  8
0
 10
6975.7460367109151775
 20
345.2976177479695821
 30
0.0
 40
0.0019406474762104
 50
103.3926747565346034
 51
117.7085328006838978
  0
ARC
  5
38638
  8
0
 10
6975.7452690232748864
 20
345.2990794484913977
 30
0.0
 40
0.0002896136407758
 50
117.7085328006271965
 51
148.8191829208485046
  0
ARC
  5
38639
  8
0
 10
6975.7451236100068854
 20
345.2991853854729811
 30
0.0
 40
0.0001114211977828
 50
156.7360491721732103
 51
231.2538699680258105
  0
ARC
  5
3863A
  8
0
 10
6975.7457447870247051
 20
345.3000127593464867
 30
0.0
 40
0.0011459743429865
 50
232.9218482897605043
 51
256.7413405862802165
  0
ARC
  5
3863B
  8
0
 10
6975.7500107547693915
 20
345.3193741710588256
 30
0.0
 40
0.0209716698992461
 50
257.5288387097219811
 51
267.0849834965633249
  0
ARC
  5
3863C
  8
0
 10
6975.7546394352866628
 20
345.3837558863539812
 30
0.0
 40
0.0855161035613774
 50
266.1813981895439269
 51
270.1435482140327053
  0
ARC
  5
3863D
  8
0
 10
6975.7552243940408516
 20
345.3481723793768765
 30
0.0
 40
0.0499337042800063
 50
269.574632162398018
 51
278.4143005397939987
  0
ARC
  5
3863E
  8
0
 10
6975.7612714348706504
 20
345.3075679383758825
 30
0.0
 40
0.0088815642756358
 50
278.1542936639066284
 51
290.6987849695822774
  0
ARC
  5
3863F
  8
0
 10
6975.7642292469499807
 20
345.2997772422917819
 30
0.0
 40
0.0005484518201936
 50
289.316610714761282
 51
326.9989068831263239
  0
ARC
  5
38640
  8
0
 10
6975.7645596980510163
 20
345.2995126881618262
 30
0.0
 40
0.0001339435588038
 50
345.2231818653546043
 51
59.2981324023161633
  0
ARC
  5
38641
  8
0
 10
6975.7640935185518174
 20
345.2988305902021011
 30
0.0
 40
0.0009598944694843
 50
56.1581772161981476
 51
75.5511218090464354
  0
ARC
  5
38642
  8
0
 10
6975.7619323355165761
 20
345.2861330475412842
 30
0.0
 40
0.0110514380962286
 50
77.4536729736745286
 51
88.2359883279822981
  0
ARC
  5
38643
  8
0
 10
6975.75810527367139
 20
345.2118871765839003
 30
0.0
 40
0.0853938143605408
 50
87.2028284354913268
 51
89.794937564306764
  0
ARC
  5
38644
  8
0
 10
6975.7566322924485576
 20
345.2149925011386813
 30
0.0
 40
0.0823071624153886
 50
88.7617776718231681
 51
91.2382223281768177
  0
ARC
  5
38645
  8
0
 10
6975.7541278295666416
 20
345.223992766587628
 30
0.0
 40
0.0732912718682145
 50
89.4325490826647354
 51
94.6995804211179149
  0
ARC
  5
38646
  8
0
 10
6975.7494207853624175
 20
345.279341448464379
 30
0.0
 40
0.0177437087641405
 50
94.1944347991231012
 51
102.4772872040883982
  0
ARC
  5
38647
  8
0
 10
6975.7460367109151775
 20
345.2947782089838142
 30
0.0
 40
0.0019406474762104
 50
103.3926747565346034
 51
117.7085328006838978
  0
ARC
  5
38648
  8
0
 10
6975.7452690232748864
 20
345.296239909505573
 30
0.0
 40
0.0002896136407758
 50
117.7085328006271965
 51
148.8191829208485046
  0
ARC
  5
38649
  8
0
 10
6975.7451236100068854
 20
345.2963458464872133
 30
0.0
 40
0.0001114211977828
 50
156.7360491721732103
 51
231.2538699680258105
  0
ARC
  5
3864A
  8
0
 10
6975.7457447870247051
 20
345.2971732203607189
 30
0.0
 40
0.0011459743429865
 50
232.9218482897605043
 51
256.7413405862802165
  0
ARC
  5
3864B
  8
0
 10
6975.7500107547693915
 20
345.3165346320731146
 30
0.0
 40
0.0209716698992461
 50
257.5288387097219811
 51
267.0849834965633249
  0
ARC
  5
3864C
  8
0
 10
6975.7546394352866628
 20
345.380916347368327
 30
0.0
 40
0.0855161035613774
 50
266.1813981895439269
 51
270.1435482140327053
  0
ARC
  5
3864D
  8
0
 10
6975.7552243940408516
 20
345.3453328403911087
 30
0.0
 40
0.0499337042800063
 50
269.574632162398018
 51
278.4143005397939987
  0
ARC
  5
3864E
  8
0
 10
6975.7612714348706504
 20
345.3047283993901146
 30
0.0
 40
0.0088815642756358
 50
278.1542936639066284
 51
290.6987849695822774
  0
ARC
  5
3864F
  8
0
 10
6975.7642292469499807
 20
345.2969377033061278
 30
0.0
 40
0.0005484518201936
 50
289.316610714761282
 51
326.9989068831263239
  0
ARC
  5
38650
  8
0
 10
6975.7645596980510163
 20
345.2966731491760015
 30
0.0
 40
0.0001339435588038
 50
345.2231818653546043
 51
59.2981324023161633
  0
ARC
  5
38651
  8
0
 10
6975.7640935185518174
 20
345.2959910512162764
 30
0.0
 40
0.0009598944694843
 50
56.1581772161981476
 51
75.5511218090464354
  0
ARC
  5
38652
  8
0
 10
6975.7619323355165761
 20
345.2918121255412984
 30
0.0
 40
0.0110514380962286
 50
77.4536729736745286
 51
88.2359883279822981
  0
ARC
  5
38653
  8
0
 10
6975.75810527367139
 20
345.2175662545840282
 30
0.0
 40
0.0853938143605408
 50
87.2028284354913268
 51
89.794937564306764
  0
ARC
  5
38654
  8
0
 10
6975.7548119484481504
 20
345.3151824423785001
 30
0.0
 40
0.0122229916137248
 50
270.1956476600535098
 51
273.8289032780232901
  0
ARC
  5
38655
  8
0
 10
6975.7546102278211038
 20
345.0857504821528892
 30
0.0
 40
0.2172422889351832
 50
88.9975546942562943
 51
89.5728358579256536
  0
ARC
  5
38656
  8
0
 10
6975.7541278295666416
 20
345.2296718445875854
 30
0.0
 40
0.0732912718682145
 50
89.4325490826647354
 51
94.6995804211179149
  0
ARC
  5
38657
  8
0
 10
6975.7494207853624175
 20
345.2850205264642796
 30
0.0
 40
0.0177437087641405
 50
94.1944347991231012
 51
102.4772872040883982
  0
ARC
  5
38658
  8
0
 10
6975.7460367109151775
 20
345.3004572869837716
 30
0.0
 40
0.0019406474762104
 50
103.3926747565346034
 51
117.7085328006838978
  0
ARC
  5
38659
  8
0
 10
6975.7452690232748864
 20
345.3019189875055872
 30
0.0
 40
0.0002896136407758
 50
117.7085328006271965
 51
148.8191829208485046
  0
ARC
  5
3865A
  8
0
 10
6975.7451236100068854
 20
345.3020249244872275
 30
0.0
 40
0.0001114211977828
 50
156.7360491721732103
 51
231.2538699680258105
  0
ARC
  5
3865B
  8
0
 10
6975.7457447870247051
 20
345.3028522983606763
 30
0.0
 40
0.0011459743429865
 50
232.9218482897605043
 51
256.7413405862802165
  0
ARC
  5
3865C
  8
0
 10
6975.7500107547693915
 20
345.3222137100730151
 30
0.0
 40
0.0209716698992461
 50
257.5288387097219811
 51
267.0849834965633249
  0
ARC
  5
3865D
  8
0
 10
6975.7546394352866628
 20
345.3865954253682276
 30
0.0
 40
0.0855161035613774
 50
266.1813981895439269
 51
270.1435482140327053
  0
ARC
  5
3865E
  8
0
 10
6975.7552243940408516
 20
345.3510119183911229
 30
0.0
 40
0.0499337042800063
 50
269.574632162398018
 51
278.4143005397939987
  0
ARC
  5
3865F
  8
0
 10
6975.7612714348706504
 20
345.310407477390072
 30
0.0
 40
0.0088815642756358
 50
278.1542936639066284
 51
290.6987849695822774
  0
ARC
  5
38660
  8
0
 10
6975.7642292469499807
 20
345.3026167813060852
 30
0.0
 40
0.0005484518201936
 50
289.316610714761282
 51
326.9989068831263239
  0
ARC
  5
38661
  8
0
 10
6975.7645596980510163
 20
345.3023522271760157
 30
0.0
 40
0.0001339435588038
 50
345.2231818653546043
 51
59.2981324023161633
  0
ARC
  5
38662
  8
0
 10
6975.7640935185518174
 20
345.3016701292162907
 30
0.0
 40
0.0009598944694843
 50
56.1581772161981476
 51
75.5511218090464354
  0
ARC
  5
38663
  8
0
 10
6975.7271789334427012
 20
345.3585319941674925
 30
0.0
 40
0.0079887293576476
 50
356.8926992472780171
 51
53.9950660203630406
  0
ARC
  5
38664
  8
0
 10
6975.72608690031484
 20
345.3587884618381167
 30
0.0
 40
0.0090951905296246
 50
311.6136633779696012
 51
355.6522436579812165
  0
ARC
  5
38665
  8
0
 10
6975.7253111030950095
 20
345.3594562501813243
 30
0.0
 40
0.0101105880217837
 50
270.0934162632635207
 51
312.387421542157881
  0
ARC
  5
38666
  8
0
 10
6975.7252601687187052
 20
345.3597737638907006
 30
0.0
 40
0.0104283062262813
 50
229.8542690599537082
 51
270.3704191819257971
  0
ARC
  5
38667
  8
0
 10
6975.7240162702446469
 20
345.358334561505103
 30
0.0
 40
0.008526217070622
 50
177.6629764703185117
 51
230.0084392044296919
  0
ARC
  5
38668
  8
0
 10
6975.7240199762263728
 20
345.3581307414738717
 30
0.0
 40
0.0085406559783217
 50
126.5180277130017004
 51
176.2976528434656132
  0
ARC
  5
38669
  8
0
 10
6975.7252606341489809
 20
345.3300372029053733
 30
0.0
 40
0.0104126813355631
 50
89.6315860613355255
 51
132.1640931682375992
  0
ARC
  5
3866A
  8
0
 10
6975.7239348288958354
 20
345.3315012050928203
 30
0.0
 40
0.0084375707123716
 50
132.1640931682397024
 51
188.1381810781020931
  0
ARC
  5
3866B
  8
0
 10
6975.7242073037496084
 20
345.3317646330102093
 30
0.0
 40
0.0087474154016247
 50
189.593774445001003
 51
234.9814935824074098
  0
ARC
  5
3866C
  8
0
 10
6975.7252237008760858
 20
345.333055902827482
 30
0.0
 40
0.0103885749514263
 50
234.4773259846066935
 51
262.2828054806229261
  0
ARC
  5
3866D
  8
0
 10
6975.7252484328910214
 20
345.3321003946152814
 30
0.0
 40
0.0094462781117249
 50
273.1328338181619984
 51
295.5005708873304116
  0
ARC
  5
3866E
  8
0
 10
6975.7252484328910214
 20
345.3321003946152814
 30
0.0
 40
0.0094462781117249
 50
261.3558631166063719
 51
266.8671661818380016
  0
ARC
  5
3866F
  8
0
 10
6975.7243588451638061
 20
345.3335008736868872
 30
0.0
 40
0.0110951118664085
 50
296.5333894880661774
 51
338.3232229802711117
  0
ARC
  5
38670
  8
0
 10
6975.7277690048422301
 20
345.3321454071580092
 30
0.0
 40
0.007425441779664
 50
338.3232229802711117
 51
28.0317679235639083
  0
ARC
  5
38671
  8
0
 10
6975.7269144013589539
 20
345.3316903984458008
 30
0.0
 40
0.0083936256682842
 50
28.0317679235639083
 51
68.0811569100611536
  0
ARC
  5
38672
  8
0
 10
6975.7250064639483753
 20
345.32694876165408
 30
0.0
 40
0.0135047258071471
 50
68.0811569100611536
 51
88.6374573699941379
  0
ARC
  5
38673
  8
0
 10
6975.7261584353418584
 20
345.3040074784839248
 30
0.0
 40
0.0136935283379641
 50
58.0000333861138202
 51
88.1299996325106463
  0
ARC
  5
38674
  8
0
 10
6975.7252260725617816
 20
345.3008606111260974
 30
0.0
 40
0.0168895107589337
 50
85.3159744016864465
 51
113.9304195711420959
  0
ARC
  5
38675
  8
0
 10
6975.7204724511284439
 20
345.3113562086941783
 30
0.0
 40
0.0053686475705733
 50
112.9944487866395946
 51
153.387104534508012
  0
ARC
  5
38676
  8
0
 10
6975.7185293639586234
 20
345.3128160068990269
 30
0.0
 40
0.0030090585928589
 50
161.693558218693596
 51
235.5601102622352983
  0
ARC
  5
38677
  8
0
 10
6975.7247452269775749
 20
345.3218902603323954
 30
0.0
 40
0.0140081050019648
 50
235.5826836228378909
 51
272.3827841594589927
  0
ARC
  5
38678
  8
0
 10
6975.7258806504651147
 20
345.3220849411231939
 30
0.0
 40
0.0142014460224431
 50
267.7682330680256086
 51
303.4781047104278855
  0
ARC
  5
38679
  8
0
 10
6975.7317125183799362
 20
345.3130701664615003
 30
0.0
 40
0.0034669816520192
 50
305.2693794962717107
 51
355.7815220030046817
  0
ARC
  5
3867A
  8
0
 10
6975.7314913613899989
 20
345.3124649698846156
 30
0.0
 40
0.0036953738296941
 50
5.4373877508571198
 51
58.632577059385909
  0
ARC
  5
3867B
  8
0
 10
6975.7324062369571038
 20
345.2889725865269952
 30
0.0
 40
0.0110514380962286
 50
77.4536729736745286
 51
88.2359883279822981
  0
ARC
  5
3867C
  8
0
 10
6975.7285791751110082
 20
345.214726715569725
 30
0.0
 40
0.0853938143605408
 50
87.2028284354913268
 51
89.794937564306764
  0
ARC
  5
3867D
  8
0
 10
6975.7271061938899948
 20
345.217832040124506
 30
0.0
 40
0.0823071624153886
 50
88.7617776718231681
 51
91.2382223281768177
  0
ARC
  5
3867E
  8
0
 10
6975.7246017310080788
 20
345.2268323055732822
 30
0.0
 40
0.0732912718682145
 50
89.4325490826647354
 51
94.6995804211179149
  0
ARC
  5
3867F
  8
0
 10
6975.7198946868029452
 20
345.28218098745009
 30
0.0
 40
0.0177437087641405
 50
94.1944347991231012
 51
102.4772872040883982
  0
ARC
  5
38680
  8
0
 10
6975.7165106123547957
 20
345.2976177479695821
 30
0.0
 40
0.0019406474762104
 50
103.3926747565346034
 51
117.7085328006838978
  0
ARC
  5
38681
  8
0
 10
6975.7157429247163236
 20
345.2990794484913977
 30
0.0
 40
0.0002896136407758
 50
117.7085328006271965
 51
148.8191829208485046
  0
ARC
  5
38682
  8
0
 10
6975.7155975114474131
 20
345.2991853854729811
 30
0.0
 40
0.0001114211977828
 50
156.7360491721732103
 51
231.2538699680258105
  0
ARC
  5
38683
  8
0
 10
6975.7162186884652328
 20
345.3000127593464867
 30
0.0
 40
0.0011459743429865
 50
232.9218482897605043
 51
256.7413405862802165
  0
ARC
  5
38684
  8
0
 10
6975.7204846562090097
 20
345.3193741710588256
 30
0.0
 40
0.0209716698992461
 50
257.5288387097219811
 51
267.0849834965633249
  0
ARC
  5
38685
  8
0
 10
6975.7251133367281
 20
345.3837558863539812
 30
0.0
 40
0.0855161035613774
 50
266.1813981895439269
 51
270.1435482140327053
  0
ARC
  5
38686
  8
0
 10
6975.7256982954813793
 20
345.3481723793768765
 30
0.0
 40
0.0499337042800063
 50
269.574632162398018
 51
278.4143005397939987
  0
ARC
  5
38687
  8
0
 10
6975.7317453363111781
 20
345.3075679383758825
 30
0.0
 40
0.0088815642756358
 50
278.1542936639066284
 51
290.6987849695822774
  0
ARC
  5
38688
  8
0
 10
6975.7347031483895989
 20
345.2997772422917819
 30
0.0
 40
0.0005484518201936
 50
289.316610714761282
 51
326.9989068831263239
  0
ARC
  5
38689
  8
0
 10
6975.7350335994906345
 20
345.2995126881618262
 30
0.0
 40
0.0001339435588038
 50
345.2231818653546043
 51
59.2981324023161633
  0
ARC
  5
3868A
  8
0
 10
6975.7345674199923451
 20
345.2988305902021011
 30
0.0
 40
0.0009598944694843
 50
56.1581772161981476
 51
75.5511218090464354
  0
ARC
  5
3868B
  8
0
 10
6975.7324062369571038
 20
345.2861330475412842
 30
0.0
 40
0.0110514380962286
 50
77.4536729736745286
 51
88.2359883279822981
  0
ARC
  5
3868C
  8
0
 10
6975.7285791751110082
 20
345.2118871765839003
 30
0.0
 40
0.0853938143605408
 50
87.2028284354913268
 51
89.794937564306764
  0
ARC
  5
3868D
  8
0
 10
6975.7271061938899948
 20
345.2149925011386813
 30
0.0
 40
0.0823071624153886
 50
88.7617776718231681
 51
91.2382223281768177
  0
ARC
  5
3868E
  8
0
 10
6975.7246017310080788
 20
345.223992766587628
 30
0.0
 40
0.0732912718682145
 50
89.4325490826647354
 51
94.6995804211179149
  0
ARC
  5
3868F
  8
0
 10
6975.7198946868029452
 20
345.279341448464379
 30
0.0
 40
0.0177437087641405
 50
94.1944347991231012
 51
102.4772872040883982
  0
ARC
  5
38690
  8
0
 10
6975.7165106123547957
 20
345.2947782089838142
 30
0.0
 40
0.0019406474762104
 50
103.3926747565346034
 51
117.7085328006838978
  0
ARC
  5
38691
  8
0
 10
6975.7157429247163236
 20
345.296239909505573
 30
0.0
 40
0.0002896136407758
 50
117.7085328006271965
 51
148.8191829208485046
  0
ARC
  5
38692
  8
0
 10
6975.7155975114474131
 20
345.2963458464872133
 30
0.0
 40
0.0001114211977828
 50
156.7360491721732103
 51
231.2538699680258105
  0
ARC
  5
38693
  8
0
 10
6975.7162186884652328
 20
345.2971732203607189
 30
0.0
 40
0.0011459743429865
 50
232.9218482897605043
 51
256.7413405862802165
  0
ARC
  5
38694
  8
0
 10
6975.7204846562108287
 20
345.3165346320731146
 30
0.0
 40
0.0209716698992461
 50
257.5288387097219811
 51
267.0849834965633249
  0
ARC
  5
38695
  8
0
 10
6975.7251133367281
 20
345.380916347368327
 30
0.0
 40
0.0855161035613774
 50
266.1813981895439269
 51
270.1435482140327053
  0
ARC
  5
38696
  8
0
 10
6975.7256982954813793
 20
345.3453328403911087
 30
0.0
 40
0.0499337042800063
 50
269.574632162398018
 51
278.4143005397939987
  0
ARC
  5
38697
  8
0
 10
6975.7317453363111781
 20
345.3047283993901146
 30
0.0
 40
0.0088815642756358
 50
278.1542936639066284
 51
290.6987849695822774
  0
ARC
  5
38698
  8
0
 10
6975.7347031483895989
 20
345.2969377033061278
 30
0.0
 40
0.0005484518201936
 50
289.316610714761282
 51
326.9989068831263239
  0
ARC
  5
38699
  8
0
 10
6975.7350335994906345
 20
345.2966731491760015
 30
0.0
 40
0.0001339435588038
 50
345.2231818653546043
 51
59.2981324023161633
  0
ARC
  5
3869A
  8
0
 10
6975.7345674199923451
 20
345.2959910512162764
 30
0.0
 40
0.0009598944694843
 50
56.1581772161981476
 51
75.5511218090464354
  0
ARC
  5
3869B
  8
0
 10
6975.7324062369571038
 20
345.2918121255412984
 30
0.0
 40
0.0110514380962286
 50
77.4536729736745286
 51
88.2359883279822981
  0
ARC
  5
3869C
  8
0
 10
6975.7285791751110082
 20
345.2175662545840282
 30
0.0
 40
0.0853938143605408
 50
87.2028284354913268
 51
89.794937564306764
  0
ARC
  5
3869D
  8
0
 10
6975.7252858498886781
 20
345.3151824423785001
 30
0.0
 40
0.0122229916137248
 50
270.1956476600535098
 51
273.8289032780232901
  0
ARC
  5
3869E
  8
0
 10
6975.7250841292616315
 20
345.0857504821528892
 30
0.0
 40
0.2172422889351832
 50
88.9975546942562943
 51
89.5728358579256536
  0
ARC
  5
3869F
  8
0
 10
6975.7246017310080788
 20
345.2296718445875854
 30
0.0
 40
0.0732912718682145
 50
89.4325490826647354
 51
94.6995804211179149
  0
ARC
  5
386A0
  8
0
 10
6975.7198946868029452
 20
345.2850205264642796
 30
0.0
 40
0.0177437087641405
 50
94.1944347991231012
 51
102.4772872040883982
  0
ARC
  5
386A1
  8
0
 10
6975.7165106123547957
 20
345.3004572869837716
 30
0.0
 40
0.0019406474762104
 50
103.3926747565346034
 51
117.7085328006838978
  0
ARC
  5
386A2
  8
0
 10
6975.7157429247163236
 20
345.3019189875055872
 30
0.0
 40
0.0002896136407758
 50
117.7085328006271965
 51
148.8191829208485046
  0
ARC
  5
386A3
  8
0
 10
6975.7155975114474131
 20
345.3020249244872275
 30
0.0
 40
0.0001114211977828
 50
156.7360491721732103
 51
231.2538699680258105
  0
ARC
  5
386A4
  8
0
 10
6975.7162186884652328
 20
345.3028522983606763
 30
0.0
 40
0.0011459743429865
 50
232.9218482897605043
 51
256.7413405862802165
  0
ARC
  5
386A5
  8
0
 10
6975.7204846562108287
 20
345.3222137100730151
 30
0.0
 40
0.0209716698992461
 50
257.5288387097219811
 51
267.0849834965633249
  0
ARC
  5
386A6
  8
0
 10
6975.7251133367281
 20
345.3865954253682276
 30
0.0
 40
0.0855161035613774
 50
266.1813981895439269
 51
270.1435482140327053
  0
ARC
  5
386A7
  8
0
 10
6975.7256982954813793
 20
345.3510119183911229
 30
0.0
 40
0.0499337042800063
 50
269.574632162398018
 51
278.4143005397939987
  0
ARC
  5
386A8
  8
0
 10
6975.7317453363111781
 20
345.310407477390072
 30
0.0
 40
0.0088815642756358
 50
278.1542936639066284
 51
290.6987849695822774
  0
ARC
  5
386A9
  8
0
 10
6975.7347031483895989
 20
345.3026167813060852
 30
0.0
 40
0.0005484518201936
 50
289.316610714761282
 51
326.9989068831263239
  0
ARC
  5
386AA
  8
0
 10
6975.7350335994906345
 20
345.3023522271760157
 30
0.0
 40
0.0001339435588038
 50
345.2231818653546043
 51
59.2981324023161633
  0
ARC
  5
386AB
  8
0
 10
6975.7345674199923451
 20
345.3016701292162907
 30
0.0
 40
0.0009598944694843
 50
56.1581772161981476
 51
75.5511218090464354
  0
ARC
  5
386AC
  8
0
 10
6975.6976513744430122
 20
345.3585319941674925
 30
0.0
 40
0.0079887293576476
 50
356.8926992472780171
 51
53.9950660203630406
  0
ARC
  5
386AD
  8
0
 10
6975.696559341315151
 20
345.3587884618381167
 30
0.0
 40
0.0090951905296246
 50
311.6136633779696012
 51
355.6522436579812165
  0
ARC
  5
386AE
  8
0
 10
6975.6957835440944109
 20
345.3594562501813243
 30
0.0
 40
0.0101105880217837
 50
270.0934162632635207
 51
312.387421542157881
  0
ARC
  5
386AF
  8
0
 10
6975.6957326097181067
 20
345.3597737638907006
 30
0.0
 40
0.0104283062262813
 50
229.8542690599537082
 51
270.3704191819257971
  0
ARC
  5
386B0
  8
0
 10
6975.6944887112449578
 20
345.358334561505103
 30
0.0
 40
0.008526217070622
 50
177.6629764703185117
 51
230.0084392044296919
  0
ARC
  5
386B1
  8
0
 10
6975.6944924172266838
 20
345.3581307414738717
 30
0.0
 40
0.0085406559783217
 50
126.5180277130017004
 51
176.2976528434656132
  0
ARC
  5
386B2
  8
0
 10
6975.6957330751492918
 20
345.3300372029053733
 30
0.0
 40
0.0104126813355631
 50
89.6315860613355255
 51
132.1640931682375992
  0
ARC
  5
386B3
  8
0
 10
6975.6944072698952368
 20
345.3315012050928203
 30
0.0
 40
0.0084375707123716
 50
132.1640931682397024
 51
188.1381810781020931
  0
ARC
  5
386B4
  8
0
 10
6975.6946797447508288
 20
345.3317646330102093
 30
0.0
 40
0.0087474154016247
 50
189.593774445001003
 51
234.9814935824074098
  0
ARC
  5
386B5
  8
0
 10
6975.6956961418745777
 20
345.333055902827482
 30
0.0
 40
0.0103885749514263
 50
234.4773259846066935
 51
262.2828054806229261
  0
ARC
  5
386B6
  8
0
 10
6975.6957208738913323
 20
345.3321003946152814
 30
0.0
 40
0.0094462781117249
 50
273.1328338181619984
 51
295.5005708873304116
  0
ARC
  5
386B7
  8
0
 10
6975.6957208738913323
 20
345.3321003946152814
 30
0.0
 40
0.0094462781117249
 50
261.3558631166063719
 51
266.8671661818380016
  0
ARC
  5
386B8
  8
0
 10
6975.694831286164117
 20
345.3335008736868872
 30
0.0
 40
0.0110951118664085
 50
296.5333894880661774
 51
338.3232229802711117
  0
ARC
  5
386B9
  8
0
 10
6975.6982414458416315
 20
345.3321454071580092
 30
0.0
 40
0.007425441779664
 50
338.3232229802711117
 51
28.0317679235639083
  0
ARC
  5
386BA
  8
0
 10
6975.6973868423601743
 20
345.3316903984458008
 30
0.0
 40
0.0083936256682842
 50
28.0317679235639083
 51
68.0811569100611536
  0
ARC
  5
386BB
  8
0
 10
6975.6954789049468673
 20
345.32694876165408
 30
0.0
 40
0.0135047258071471
 50
68.0811569100611536
 51
88.6374573699941379
  0
ARC
  5
386BC
  8
0
 10
6975.6966308763439883
 20
345.3040074784839248
 30
0.0
 40
0.0136935283379641
 50
58.0000333861138202
 51
88.1299996325106463
  0
ARC
  5
386BD
  8
0
 10
6975.6956985135630021
 20
345.3008606111260974
 30
0.0
 40
0.0168895107589337
 50
85.3159744016864465
 51
113.9304195711420959
  0
ARC
  5
386BE
  8
0
 10
6975.6909448921287549
 20
345.3113562086941783
 30
0.0
 40
0.0053686475705733
 50
112.9944487866395946
 51
153.387104534508012
  0
ARC
  5
386BF
  8
0
 10
6975.6890018049580249
 20
345.3128160068990269
 30
0.0
 40
0.0030090585928589
 50
161.693558218693596
 51
235.5601102622352983
  0
ARC
  5
386C0
  8
0
 10
6975.6952176679769764
 20
345.3218902603323954
 30
0.0
 40
0.0140081050019648
 50
235.5826836228378909
 51
272.3827841594589927
  0
ARC
  5
386C1
  8
0
 10
6975.6963530914663352
 20
345.3220849411231939
 30
0.0
 40
0.0142014460224431
 50
267.7682330680256086
 51
303.4781047104278855
  0
ARC
  5
386C2
  8
0
 10
6975.7021849593802472
 20
345.3130701664615003
 30
0.0
 40
0.0034669816520192
 50
305.2693794962717107
 51
355.7815220030046817
  0
ARC
  5
386C3
  8
0
 10
6975.7019638023894004
 20
345.3124649698846156
 30
0.0
 40
0.0036953738296941
 50
5.4373877508571198
 51
58.632577059385909
  0
ARC
  5
386C4
  8
0
 10
6975.7028786779574148
 20
345.2889725865269952
 30
0.0
 40
0.0110514380962286
 50
77.4536729736745286
 51
88.2359883279822981
  0
ARC
  5
386C5
  8
0
 10
6975.6990516161113192
 20
345.214726715569725
 30
0.0
 40
0.0853938143605408
 50
87.2028284354913268
 51
89.794937564306764
  0
ARC
  5
386C6
  8
0
 10
6975.6975786348893962
 20
345.217832040124506
 30
0.0
 40
0.0823071624153886
 50
88.7617776718231681
 51
91.2382223281768177
  0
ARC
  5
386C7
  8
0
 10
6975.6950741720083897
 20
345.2268323055732822
 30
0.0
 40
0.0732912718682145
 50
89.4325490826647354
 51
94.6995804211179149
  0
ARC
  5
386C8
  8
0
 10
6975.6903671278023467
 20
345.28218098745009
 30
0.0
 40
0.0177437087641405
 50
94.1944347991231012
 51
102.4772872040883982
  0
ARC
  5
386C9
  8
0
 10
6975.6869830533541972
 20
345.2976177479695821
 30
0.0
 40
0.0019406474762104
 50
103.3926747565346034
 51
117.7085328006838978
  0
ARC
  5
386CA
  8
0
 10
6975.6862153657157251
 20
345.2990794484913977
 30
0.0
 40
0.0002896136407758
 50
117.7085328006271965
 51
148.8191829208485046
  0
ARC
  5
386CB
  8
0
 10
6975.6860699524477241
 20
345.2991853854729811
 30
0.0
 40
0.0001114211977828
 50
156.7360491721732103
 51
231.2538699680258105
  0
ARC
  5
386CC
  8
0
 10
6975.6866911294673628
 20
345.3000127593464867
 30
0.0
 40
0.0011459743429865
 50
232.9218482897605043
 51
256.7413405862802165
  0
ARC
  5
386CD
  8
0
 10
6975.6909570972102301
 20
345.3193741710588256
 30
0.0
 40
0.0209716698992461
 50
257.5288387097219811
 51
267.0849834965633249
  0
ARC
  5
386CE
  8
0
 10
6975.6955857777265919
 20
345.3837558863539812
 30
0.0
 40
0.0855161035613774
 50
266.1813981895439269
 51
270.1435482140327053
  0
ARC
  5
386CF
  8
0
 10
6975.6961707364807808
 20
345.3481723793768765
 30
0.0
 40
0.0499337042800063
 50
269.574632162398018
 51
278.4143005397939987
  0
ARC
  5
386D0
  8
0
 10
6975.7022177773096701
 20
345.3075679383758825
 30
0.0
 40
0.0088815642756358
 50
278.1542936639066284
 51
290.6987849695822774
  0
ARC
  5
386D1
  8
0
 10
6975.7051755893890004
 20
345.2997772422917819
 30
0.0
 40
0.0005484518201936
 50
289.316610714761282
 51
326.9989068831263239
  0
ARC
  5
386D2
  8
0
 10
6975.7055060404918549
 20
345.2995126881618262
 30
0.0
 40
0.0001339435588038
 50
345.2231818653546043
 51
59.2981324023161633
  0
ARC
  5
386D3
  8
0
 10
6975.7050398609935655
 20
345.2988305902021011
 30
0.0
 40
0.0009598944694843
 50
56.1581772161981476
 51
75.5511218090464354
  0
ARC
  5
386D4
  8
0
 10
6975.7028786779574148
 20
345.2861330475412842
 30
0.0
 40
0.0110514380962286
 50
77.4536729736745286
 51
88.2359883279822981
  0
ARC
  5
386D5
  8
0
 10
6975.6990516161113192
 20
345.2118871765839003
 30
0.0
 40
0.0853938143605408
 50
87.2028284354913268
 51
89.794937564306764
  0
ARC
  5
386D6
  8
0
 10
6975.6975786348893962
 20
345.2149925011386813
 30
0.0
 40
0.0823071624153886
 50
88.7617776718231681
 51
91.2382223281768177
  0
ARC
  5
386D7
  8
0
 10
6975.6950741720083897
 20
345.223992766587628
 30
0.0
 40
0.0732912718682145
 50
89.4325490826647354
 51
94.6995804211179149
  0
ARC
  5
386D8
  8
0
 10
6975.6903671278023467
 20
345.279341448464379
 30
0.0
 40
0.0177437087641405
 50
94.1944347991231012
 51
102.4772872040883982
  0
ARC
  5
386D9
  8
0
 10
6975.6869830533541972
 20
345.2947782089838142
 30
0.0
 40
0.0019406474762104
 50
103.3926747565346034
 51
117.7085328006838978
  0
ARC
  5
386DA
  8
0
 10
6975.6862153657157251
 20
345.296239909505573
 30
0.0
 40
0.0002896136407758
 50
117.7085328006271965
 51
148.8191829208485046
  0
ARC
  5
386DB
  8
0
 10
6975.6860699524477241
 20
345.2963458464872133
 30
0.0
 40
0.0001114211977828
 50
156.7360491721732103
 51
231.2538699680258105
  0
ARC
  5
386DC
  8
0
 10
6975.6866911294673628
 20
345.2971732203607189
 30
0.0
 40
0.0011459743429865
 50
232.9218482897605043
 51
256.7413405862802165
  0
ARC
  5
386DD
  8
0
 10
6975.6909570972102301
 20
345.3165346320731146
 30
0.0
 40
0.0209716698992461
 50
257.5288387097219811
 51
267.0849834965633249
  0
ARC
  5
386DE
  8
0
 10
6975.6955857777265919
 20
345.380916347368327
 30
0.0
 40
0.0855161035613774
 50
266.1813981895439269
 51
270.1435482140327053
  0
ARC
  5
386DF
  8
0
 10
6975.6961707364816903
 20
345.3453328403911087
 30
0.0
 40
0.0499337042800063
 50
269.574632162398018
 51
278.4143005397939987
  0
ARC
  5
386E0
  8
0
 10
6975.7022177773123985
 20
345.3047283993901146
 30
0.0
 40
0.0088815642756358
 50
278.1542936639066284
 51
290.6987849695822774
  0
ARC
  5
386E1
  8
0
 10
6975.7051755893890004
 20
345.2969377033061278
 30
0.0
 40
0.0005484518201936
 50
289.316610714761282
 51
326.9989068831263239
  0
ARC
  5
386E2
  8
0
 10
6975.7055060404918549
 20
345.2966731491760015
 30
0.0
 40
0.0001339435588038
 50
345.2231818653546043
 51
59.2981324023161633
  0
ARC
  5
386E3
  8
0
 10
6975.7050398609935655
 20
345.2959910512162764
 30
0.0
 40
0.0009598944694843
 50
56.1581772161981476
 51
75.5511218090464354
  0
ARC
  5
386E4
  8
0
 10
6975.7028786779574148
 20
345.2918121255412984
 30
0.0
 40
0.0110514380962286
 50
77.4536729736745286
 51
88.2359883279822981
  0
ARC
  5
386E5
  8
0
 10
6975.6990516161113192
 20
345.2175662545840282
 30
0.0
 40
0.0853938143605408
 50
87.2028284354913268
 51
89.794937564306764
  0
ARC
  5
386E6
  8
0
 10
6975.6957582908880795
 20
345.3151824423785001
 30
0.0
 40
0.0122229916137248
 50
270.1956476600535098
 51
273.8289032780232901
  0
ARC
  5
386E7
  8
0
 10
6975.6955565702619424
 20
345.0857504821528892
 30
0.0
 40
0.2172422889351832
 50
88.9975546942562943
 51
89.5728358579256536
  0
ARC
  5
386E8
  8
0
 10
6975.6950741720083897
 20
345.2296718445875854
 30
0.0
 40
0.0732912718682145
 50
89.4325490826647354
 51
94.6995804211179149
  0
ARC
  5
386E9
  8
0
 10
6975.6903671278023467
 20
345.2850205264642796
 30
0.0
 40
0.0177437087641405
 50
94.1944347991231012
 51
102.4772872040883982
  0
ARC
  5
386EA
  8
0
 10
6975.6869830533541972
 20
345.3004572869837716
 30
0.0
 40
0.0019406474762104
 50
103.3926747565346034
 51
117.7085328006838978
  0
ARC
  5
386EB
  8
0
 10
6975.6862153657157251
 20
345.3019189875055872
 30
0.0
 40
0.0002896136407758
 50
117.7085328006271965
 51
148.8191829208485046
  0
ARC
  5
386EC
  8
0
 10
6975.6860699524477241
 20
345.3020249244872275
 30
0.0
 40
0.0001114211977828
 50
156.7360491721732103
 51
231.2538699680258105
  0
ARC
  5
386ED
  8
0
 10
6975.6866911294673628
 20
345.3028522983606763
 30
0.0
 40
0.0011459743429865
 50
232.9218482897605043
 51
256.7413405862802165
  0
ARC
  5
386EE
  8
0
 10
6975.6909570972102301
 20
345.3222137100730151
 30
0.0
 40
0.0209716698992461
 50
257.5288387097219811
 51
267.0849834965633249
  0
ARC
  5
386EF
  8
0
 10
6975.6955857777265919
 20
345.3865954253682276
 30
0.0
 40
0.0855161035613774
 50
266.1813981895439269
 51
270.1435482140327053
  0
ARC
  5
386F0
  8
0
 10
6975.6961707364816903
 20
345.3510119183911229
 30
0.0
 40
0.0499337042800063
 50
269.574632162398018
 51
278.4143005397939987
  0
ARC
  5
386F1
  8
0
 10
6975.7022177773123985
 20
345.310407477390072
 30
0.0
 40
0.0088815642756358
 50
278.1542936639066284
 51
290.6987849695822774
  0
ARC
  5
386F2
  8
0
 10
6975.7051755893890004
 20
345.3026167813060852
 30
0.0
 40
0.0005484518201936
 50
289.316610714761282
 51
326.9989068831263239
  0
ARC
  5
386F3
  8
0
 10
6975.7055060404918549
 20
345.3023522271760157
 30
0.0
 40
0.0001339435588038
 50
345.2231818653546043
 51
59.2981324023161633
  0
ARC
  5
386F4
  8
0
 10
6975.7050398609935655
 20
345.3016701292162907
 30
0.0
 40
0.0009598944694843
 50
56.1581772161981476
 51
75.5511218090464354
  0
ARC
  5
386F5
  8
0
 10
6975.6642168418948131
 20
345.3585319941674925
 30
0.0
 40
0.0079887293576476
 50
126.0049339796388068
 51
183.1073007527220113
  0
ARC
  5
386F6
  8
0
 10
6975.6653088750217648
 20
345.3587884618381167
 30
0.0
 40
0.0090951905296246
 50
184.3477563420188119
 51
228.3863366220303988
  0
ARC
  5
386F7
  8
0
 10
6975.6660846722443239
 20
345.3594562501813243
 30
0.0
 40
0.0101105880217837
 50
227.6125784578420905
 51
269.9065837367364793
  0
ARC
  5
386F8
  8
0
 10
6975.6661356066197186
 20
345.3597737638907006
 30
0.0
 40
0.0104283062262813
 50
269.6295808180740892
 51
310.1457309400462918
  0
ARC
  5
386F9
  8
0
 10
6975.667379505093777
 20
345.358334561505103
 30
0.0
 40
0.008526217070622
 50
309.9915607955704218
 51
2.3370235296814998
  0
ARC
  5
386FA
  8
0
 10
6975.667375799112051
 20
345.3581307414738717
 30
0.0
 40
0.0085406559783217
 50
3.7023471565343571
 51
53.4819722869944201
  0
ARC
  5
386FB
  8
0
 10
6975.6661351411894429
 20
345.3300372029053733
 30
0.0
 40
0.0104126813355631
 50
47.8359068317624434
 51
90.3684139386644887
  0
ARC
  5
386FC
  8
0
 10
6975.6674609464425885
 20
345.3315012050928203
 30
0.0
 40
0.0084375707123716
 50
351.8618189218979069
 51
47.8359068317602478
  0
ARC
  5
386FD
  8
0
 10
6975.6671884715869965
 20
345.3317646330102093
 30
0.0
 40
0.0087474154016247
 50
305.0185064175926186
 51
350.4062255549990255
  0
ARC
  5
386FE
  8
0
 10
6975.6661720744632476
 20
345.333055902827482
 30
0.0
 40
0.0103885749514263
 50
277.7171945193770739
 51
305.5226740153934202
  0
ARC
  5
386FF
  8
0
 10
6975.6661473424474025
 20
345.3321003946152814
 30
0.0
 40
0.0094462781117249
 50
244.4994291126695884
 51
266.8671661818380016
  0
ARC
  5
38700
  8
0
 10
6975.6661473424474025
 20
345.3321003946152814
 30
0.0
 40
0.0094462781117249
 50
273.1328338181619984
 51
278.6441368833935144
  0
ARC
  5
38701
  8
0
 10
6975.6670369301737082
 20
345.3335008736868872
 30
0.0
 40
0.0110951118664085
 50
201.6767770197257903
 51
243.4666105119337942
  0
ARC
  5
38702
  8
0
 10
6975.6636267704952843
 20
345.3321454071580092
 30
0.0
 40
0.007425441779664
 50
151.9682320764360952
 51
201.6767770197257903
  0
ARC
  5
38703
  8
0
 10
6975.6644813739776509
 20
345.3316903984458008
 30
0.0
 40
0.0083936256682842
 50
111.9188430899388038
 51
151.9682320764360952
  0
ARC
  5
38704
  8
0
 10
6975.666389311389139
 20
345.32694876165408
 30
0.0
 40
0.0135047258071471
 50
91.3625426300058479
 51
111.9188430899388038
  0
ARC
  5
38705
  8
0
 10
6975.6652373399938369
 20
345.3040074784839248
 30
0.0
 40
0.0136935283379641
 50
91.8700003674893964
 51
121.9999666138861016
  0
ARC
  5
38706
  8
0
 10
6975.6661697027748232
 20
345.3008606111260974
 30
0.0
 40
0.0168895107589337
 50
66.0695804288579183
 51
94.6840255983135535
  0
ARC
  5
38707
  8
0
 10
6975.6709233242099799
 20
345.3113562086941783
 30
0.0
 40
0.0053686475705733
 50
26.6128954654919703
 51
67.0055512133603628
  0
ARC
  5
38708
  8
0
 10
6975.6728664113788909
 20
345.3128160068990269
 30
0.0
 40
0.0030090585928589
 50
304.4398897377647017
 51
18.3064417813064004
  0
ARC
  5
38709
  8
0
 10
6975.6666505483608489
 20
345.3218902603323954
 30
0.0
 40
0.0140081050019648
 50
267.6172158405410073
 51
304.4173163771620239
  0
ARC
  5
3870A
  8
0
 10
6975.6655151248723996
 20
345.3220849411231939
 30
0.0
 40
0.0142014460224431
 50
236.5218952895720008
 51
272.2317669319742777
  0
ARC
  5
3870B
  8
0
 10
6975.6596832569566686
 20
345.3130701664615003
 30
0.0
 40
0.0034669816520192
 50
184.2184779969952046
 51
234.7306205037282041
  0
ARC
  5
3870C
  8
0
 10
6975.6599044139493344
 20
345.3124649698846156
 30
0.0
 40
0.0036953738296941
 50
121.3674229406141052
 51
174.5626122491428873
  0
ARC
  5
3870D
  8
0
 10
6975.65898953838132
 20
345.2889725865269952
 30
0.0
 40
0.0110514380962286
 50
91.7640116720177161
 51
102.5463270263254003
  0
ARC
  5
3870E
  8
0
 10
6975.6628166002274156
 20
345.214726715569725
 30
0.0
 40
0.0853938143605408
 50
90.2050624356932218
 51
92.7971715645086732
  0
ARC
  5
3870F
  8
0
 10
6975.6642895814484291
 20
345.217832040124506
 30
0.0
 40
0.0823071624153886
 50
88.7617776718231681
 51
91.2382223281768177
  0
ARC
  5
38710
  8
0
 10
6975.6667940443294356
 20
345.2268323055732822
 30
0.0
 40
0.0732912718682145
 50
85.3004195788820994
 51
90.5674509173352646
  0
ARC
  5
38711
  8
0
 10
6975.6715010885363881
 20
345.28218098745009
 30
0.0
 40
0.0177437087641405
 50
77.5227127959115876
 51
85.8055652008768845
  0
ARC
  5
38712
  8
0
 10
6975.6748851629818091
 20
345.2976177479695821
 30
0.0
 40
0.0019406474762104
 50
62.2914671993160525
 51
76.6073252434654108
  0
ARC
  5
38713
  8
0
 10
6975.6756528506221002
 20
345.2990794484913977
 30
0.0
 40
0.0002896136407758
 50
31.1808170791515309
 51
62.2914671993727822
  0
ARC
  5
38714
  8
0
 10
6975.6757982638901012
 20
345.2991853854729811
 30
0.0
 40
0.0001114211977828
 50
308.7461300319741895
 51
23.263950827826779
  0
ARC
  5
38715
  8
0
 10
6975.6751770868722815
 20
345.3000127593464867
 30
0.0
 40
0.0011459743429865
 50
283.2586594137198972
 51
307.078151710239581
  0
ARC
  5
38716
  8
0
 10
6975.6709111191275952
 20
345.3193741710588256
 30
0.0
 40
0.0209716698992461
 50
272.9150165034366182
 51
282.4711612902780189
  0
ARC
  5
38717
  8
0
 10
6975.6662824386112334
 20
345.3837558863539812
 30
0.0
 40
0.0855161035613774
 50
269.8564517859672947
 51
273.8186018104560731
  0
ARC
  5
38718
  8
0
 10
6975.665697479857954
 20
345.3481723793768765
 30
0.0
 40
0.0499337042800063
 50
261.5856994602060013
 51
270.425367837601982
  0
ARC
  5
38719
  8
0
 10
6975.6596504390272457
 20
345.3075679383758825
 30
0.0
 40
0.0088815642756358
 50
249.3012150304176942
 51
261.8457063360933716
  0
ARC
  5
3871A
  8
0
 10
6975.6566926269479154
 20
345.2997772422917819
 30
0.0
 40
0.0005484518201936
 50
213.0010931168737045
 51
250.6833892852386896
  0
ARC
  5
3871B
  8
0
 10
6975.6563621758459703
 20
345.2995126881618262
 30
0.0
 40
0.0001339435588038
 50
120.7018675976838011
 51
194.7768181346453957
  0
ARC
  5
3871C
  8
0
 10
6975.6568283553451693
 20
345.2988305902021011
 30
0.0
 40
0.0009598944694843
 50
104.4488781909534936
 51
123.8418227838018026
  0
ARC
  5
3871D
  8
0
 10
6975.65898953838132
 20
345.2861330475412842
 30
0.0
 40
0.0110514380962286
 50
91.7640116720177161
 51
102.5463270263254003
  0
ARC
  5
3871E
  8
0
 10
6975.6628166002274156
 20
345.2118871765839003
 30
0.0
 40
0.0853938143605408
 50
90.2050624356932218
 51
92.7971715645086732
  0
ARC
  5
3871F
  8
0
 10
6975.6642895814484291
 20
345.2149925011386813
 30
0.0
 40
0.0823071624153886
 50
88.7617776718231681
 51
91.2382223281768177
  0
ARC
  5
38720
  8
0
 10
6975.6667940443294356
 20
345.223992766587628
 30
0.0
 40
0.0732912718682145
 50
85.3004195788820994
 51
90.5674509173352646
  0
ARC
  5
38721
  8
0
 10
6975.6715010885363881
 20
345.279341448464379
 30
0.0
 40
0.0177437087641405
 50
77.5227127959115876
 51
85.8055652008768845
  0
ARC
  5
38722
  8
0
 10
6975.6748851629818091
 20
345.2947782089838142
 30
0.0
 40
0.0019406474762104
 50
62.2914671993160525
 51
76.6073252434654108
  0
ARC
  5
38723
  8
0
 10
6975.6756528506221002
 20
345.296239909505573
 30
0.0
 40
0.0002896136407758
 50
31.1808170791515309
 51
62.2914671993727822
  0
ARC
  5
38724
  8
0
 10
6975.6757982638901012
 20
345.2963458464872133
 30
0.0
 40
0.0001114211977828
 50
308.7461300319741895
 51
23.263950827826779
  0
ARC
  5
38725
  8
0
 10
6975.6751770868722815
 20
345.2971732203607189
 30
0.0
 40
0.0011459743429865
 50
283.2586594137198972
 51
307.078151710239581
  0
ARC
  5
38726
  8
0
 10
6975.6709111191275952
 20
345.3165346320731146
 30
0.0
 40
0.0209716698992461
 50
272.9150165034366182
 51
282.4711612902780189
  0
ARC
  5
38727
  8
0
 10
6975.6662824386112334
 20
345.380916347368327
 30
0.0
 40
0.0855161035613774
 50
269.8564517859672947
 51
273.8186018104560731
  0
ARC
  5
38728
  8
0
 10
6975.665697479856135
 20
345.3453328403911087
 30
0.0
 40
0.0499337042800063
 50
261.5856994602060013
 51
270.425367837601982
  0
ARC
  5
38729
  8
0
 10
6975.6596504390272457
 20
345.3047283993901146
 30
0.0
 40
0.0088815642756358
 50
249.3012150304176942
 51
261.8457063360933716
  0
ARC
  5
3872A
  8
0
 10
6975.6566926269479154
 20
345.2969377033061278
 30
0.0
 40
0.0005484518201936
 50
213.0010931168737045
 51
250.6833892852386896
  0
ARC
  5
3872B
  8
0
 10
6975.6563621758459703
 20
345.2966731491760015
 30
0.0
 40
0.0001339435588038
 50
120.7018675976838011
 51
194.7768181346453957
  0
ARC
  5
3872C
  8
0
 10
6975.6568283553451693
 20
345.2959910512162764
 30
0.0
 40
0.0009598944694843
 50
104.4488781909534936
 51
123.8418227838018026
  0
ARC
  5
3872D
  8
0
 10
6975.65898953838132
 20
345.2918121255412984
 30
0.0
 40
0.0110514380962286
 50
91.7640116720177161
 51
102.5463270263254003
  0
ARC
  5
3872E
  8
0
 10
6975.6628166002274156
 20
345.2175662545840282
 30
0.0
 40
0.0853938143605408
 50
90.2050624356932218
 51
92.7971715645086732
  0
ARC
  5
3872F
  8
0
 10
6975.6661099254497458
 20
345.3151824423785001
 30
0.0
 40
0.0122229916137248
 50
266.1710967219767099
 51
269.8043523399464902
  0
ARC
  5
38730
  8
0
 10
6975.6663116460758829
 20
345.0857504821528892
 30
0.0
 40
0.2172422889351832
 50
90.4271641420743606
 51
91.0024453057437057
  0
ARC
  5
38731
  8
0
 10
6975.6667940443294356
 20
345.2296718445875854
 30
0.0
 40
0.0732912718682145
 50
85.3004195788820994
 51
90.5674509173352646
  0
ARC
  5
38732
  8
0
 10
6975.6715010885363881
 20
345.2850205264642796
 30
0.0
 40
0.0177437087641405
 50
77.5227127959115876
 51
85.8055652008768845
  0
ARC
  5
38733
  8
0
 10
6975.6748851629818091
 20
345.3004572869837716
 30
0.0
 40
0.0019406474762104
 50
62.2914671993160525
 51
76.6073252434654108
  0
ARC
  5
38734
  8
0
 10
6975.6756528506221002
 20
345.3019189875055872
 30
0.0
 40
0.0002896136407758
 50
31.1808170791515309
 51
62.2914671993727822
  0
ARC
  5
38735
  8
0
 10
6975.6757982638901012
 20
345.3020249244872275
 30
0.0
 40
0.0001114211977828
 50
308.7461300319741895
 51
23.263950827826779
  0
ARC
  5
38736
  8
0
 10
6975.6751770868722815
 20
345.3028522983606763
 30
0.0
 40
0.0011459743429865
 50
283.2586594137198972
 51
307.078151710239581
  0
ARC
  5
38737
  8
0
 10
6975.6709111191275952
 20
345.3222137100730151
 30
0.0
 40
0.0209716698992461
 50
272.9150165034366182
 51
282.4711612902780189
  0
ARC
  5
38738
  8
0
 10
6975.6662824386112334
 20
345.3865954253682276
 30
0.0
 40
0.0855161035613774
 50
269.8564517859672947
 51
273.8186018104560731
  0
ARC
  5
38739
  8
0
 10
6975.665697479856135
 20
345.3510119183911229
 30
0.0
 40
0.0499337042800063
 50
261.5856994602060013
 51
270.425367837601982
  0
ARC
  5
3873A
  8
0
 10
6975.6596504390272457
 20
345.310407477390072
 30
0.0
 40
0.0088815642756358
 50
249.3012150304176942
 51
261.8457063360933716
  0
ARC
  5
3873B
  8
0
 10
6975.6566926269479154
 20
345.3026167813060852
 30
0.0
 40
0.0005484518201936
 50
213.0010931168737045
 51
250.6833892852386896
  0
ARC
  5
3873C
  8
0
 10
6975.6563621758459703
 20
345.3023522271760157
 30
0.0
 40
0.0001339435588038
 50
120.7018675976838011
 51
194.7768181346453957
  0
ARC
  5
3873D
  8
0
 10
6975.6568283553451693
 20
345.3016701292162907
 30
0.0
 40
0.0009598944694843
 50
104.4488781909534936
 51
123.8418227838018026
  0
LINE
  5
3873E
  8
0
 10
6976.2145803756002351
 20
345.4971291659945791
 30
0.0
 11
6975.1177590299503208
 21
345.4971291659945791
 31
0.0
  0
LINE
  5
3873F
  8
0
 10
6975.1195124313499036
 20
345.1575622367946039
 30
0.0
 11
6976.2128269742006523
 21
345.1575622367946039
 31
0.0
  0
LINE
  5
38740
  8
0
 10
6974.8787681279745811
 20
348.6638021442946069
 30
0.0
 11
6974.8787681279745811
 21
346.8606610114616728
 31
0.0
  0
LINE
  5
38741
  8
0
 10
6974.8787681279745811
 20
346.7876604119945796
 30
0.0
 11
6974.8787681279745811
 21
307.8134084434946089
 31
0.0
  0
ARC
  5
38742
  8
0
 10
6974.8887681279747994
 20
346.2025573456709253
 30
0.0
 40
0.01
 50
135.0000000000046043
 51
180.0
  0
ARC
  5
38743
  8
0
 10
6974.8887681279747994
 20
346.7876604119945796
 30
0.0
 40
0.01
 50
90.0
 51
180.0
  0
LINE
  5
38744
  8
0
 10
6976.2882169468748543
 20
348.8291564749945906
 30
0.0
 11
6975.0441224586747921
 21
348.8291564749945906
 31
0.0
  0
LINE
  5
38745
  8
0
 10
6975.0441224586747921
 20
348.8291564749945906
 30
0.0
 11
6974.8787681279745811
 21
348.6638021442946069
 31
0.0
  0
LINE
  5
38746
  8
0
 10
6974.8787681279745811
 20
348.6638021442946069
 30
0.0
 11
6976.4535712775750653
 21
348.6638021442946069
 31
0.0
  0
LINE
  5
38747
  8
0
 10
6974.8842959920229987
 20
345.3815779869672724
 30
0.0
 11
6975.1132868939957916
 21
345.4960734379052951
 31
0.0
  0
LINE
  5
38748
  8
0
 10
6974.8842959920229987
 20
345.2739901165214178
 30
0.0
 11
6975.1150402953962839
 21
345.1586179648837742
 31
0.0
  0
ARC
  5
38749
  8
0
 10
6975.1195124313499036
 20
345.1675622367947085
 30
0.0
 40
0.01
 50
243.4349488328730047
 51
269.9999999999478746
  0
ARC
  5
3874A
  8
0
 10
6975.1177590299503208
 20
345.4871291659945882
 30
0.0
 40
0.01
 50
90.0000000000521254
 51
116.5650511671298943
  0
ARC
  5
3874B
  8
0
 10
6974.8887681279747994
 20
345.3726337150565087
 30
0.0
 40
0.01
 50
116.5650511671314007
 51
180.0000000000194973
  0
ARC
  5
3874C
  8
0
 10
6974.8887681279747994
 20
345.2829343884321247
 30
0.0
 40
0.01
 50
180.0
 51
243.434948832871612
  0
LINE
  5
3874D
  8
0
 10
6976.4535712775750653
 20
346.8606610114616728
 30
0.0
 11
6974.8787681279745811
 21
346.8606610114616728
 31
0.0
  0
LINE
  5
3874E
  8
0
 10
6976.443571277574847
 20
346.7976604119946273
 30
0.0
 11
6974.8887681279747994
 21
346.7976604119946273
 31
0.0
  0
ARC
  5
3874F
  8
0
 10
6978.7647210520935914
 20
345.6559993869332743
 30
0.0
 40
3.9370075458748239
 50
162.182621805485212
 51
163.0575816563577121
  0
ARC
  5
38750
  8
0
 10
6975.0362484435399892
 20
346.7918117958582229
 30
0.0
 40
0.0393700792790928
 50
163.05758165636081
 51
171.4568128396591931
  0
LINE
  5
38751
  8
0
 10
6976.219869987763559
 20
346.4433297032945802
 30
0.0
 11
6975.1195404855989182
 21
346.4433297032945802
 31
0.0
  0
LINE
  5
38752
  8
0
 10
6974.8816970601637877
 20
346.209628413482676
 30
0.0
 11
6975.1124694177869969
 21
346.4404007711065105
 31
0.0
  0
ARC
  5
38753
  8
0
 10
6975.1195404855989182
 20
346.4333297032945893
 30
0.0
 40
0.01
 50
90.0
 51
134.9999999999492957
  0
LINE
  5
38754
  8
0
 10
6975.1124694177869969
 20
348.6638021442946069
 30
0.0
 11
6975.1124694177869969
 21
346.8606610114616728
 31
0.0
  0
LINE
  5
38755
  8
0
 10
6975.1124694177869969
 20
346.7876604119945796
 30
0.0
 11
6975.1124694177869969
 21
345.4956646998004999
 31
0.0
  0
LINE
  5
38756
  8
0
 10
6975.1124694177869969
 20
345.1599034036880767
 30
0.0
 11
6975.1124694177869969
 21
307.8120965733169214
 31
0.0
  0
ARC
  5
38757
  8
0
 10
6975.1224694177881247
 20
346.7876604119945796
 30
0.0
 40
0.01
 50
90.0
 51
180.0000000000391083
  0
LINE
  5
38758
  8
0
 10
6978.0283744447751815
 20
307.4275816717945986
 30
0.0
 11
6973.303964960776284
 21
307.4275816717945986
 31
0.0
  0
LINE
  5
38759
  8
0
 10
6973.303964960776284
 20
307.5676114929453888
 30
0.0
 11
6973.303964960776284
 21
307.4275816717945986
 31
0.0
  0
LINE
  5
3875A
  8
0
 10
6973.5462573601516851
 20
307.8120965733169214
 30
0.0
 11
6973.303964960776284
 21
307.5676114929453888
 31
0.0
  0
LINE
  5
3875B
  8
0
 10
6977.7860820453988708
 20
307.8120965733169214
 30
0.0
 11
6973.5462573601516851
 21
307.8120965733169214
 31
0.0
  0
LINE
  5
3875C
  8
0
 10
6976.4535712775750653
 20
348.6638021442946069
 30
0.0
 11
6976.4535712775750653
 21
346.8606610114616728
 31
0.0
  0
LINE
  5
3875D
  8
0
 10
6976.4535712775750653
 20
346.7876604119945796
 30
0.0
 11
6976.4535712775750653
 21
307.8134084434946089
 31
0.0
  0
ARC
  5
3875E
  8
0
 10
6976.443571277574847
 20
346.2025573456709253
 30
0.0
 40
0.01
 50
0.0
 51
44.9999999999953886
  0
ARC
  5
3875F
  8
0
 10
6976.443571277574847
 20
346.7876604119945796
 30
0.0
 40
0.01
 50
0.0
 51
90.0
  0
LINE
  5
38760
  8
0
 10
6976.2882169468748543
 20
348.8291564749945906
 30
0.0
 11
6976.4535712775750653
 21
348.6638021442946069
 31
0.0
  0
LINE
  5
38761
  8
0
 10
6976.4480434135275573
 20
345.3815779869672724
 30
0.0
 11
6976.2190525115520359
 21
345.4960734379052951
 31
0.0
  0
LINE
  5
38762
  8
0
 10
6976.4480434135275573
 20
345.2739901165214178
 30
0.0
 11
6976.2172991101533626
 21
345.1586179648837742
 31
0.0
  0
ARC
  5
38763
  8
0
 10
6976.2128269742006523
 20
345.1675622367947085
 30
0.0
 40
0.01
 50
270.0000000000521254
 51
296.5650511671270237
  0
ARC
  5
38764
  8
0
 10
6976.2145803756002351
 20
345.4871291659945882
 30
0.0
 40
0.01
 50
63.4349488328700701
 51
89.9999999999478888
  0
ARC
  5
38765
  8
0
 10
6976.443571277574847
 20
345.3726337150565087
 30
0.0
 40
0.01
 50
359.9999999999805027
 51
63.4349488328686206
  0
ARC
  5
38766
  8
0
 10
6976.443571277574847
 20
345.2829343884321247
 30
0.0
 40
0.01
 50
296.5650511671285017
 51
0.0
  0
ARC
  5
38767
  8
0
 10
6972.5676183534569645
 20
345.6559993869332743
 30
0.0
 40
3.9370075458748239
 50
16.9424183436422595
 51
17.8173781945147987
  0
ARC
  5
38768
  8
0
 10
6976.2960909620123857
 20
346.7918117958582229
 30
0.0
 40
0.0393700792790928
 50
8.5431871603407323
 51
16.9424183436391509
  0
LINE
  5
38769
  8
0
 10
6976.4506423453867683
 20
346.209628413482676
 30
0.0
 11
6976.219869987763559
 21
346.4404007711065105
 31
0.0
  0
ARC
  5
3876A
  8
0
 10
6976.2127989199507283
 20
346.4333297032945893
 30
0.0
 40
0.01
 50
45.0000000000506688
 51
90.0
  0
LINE
  5
3876B
  8
0
 10
6976.219869987763559
 20
348.6638021442946069
 30
0.0
 11
6976.219869987763559
 21
346.8606610114616728
 31
0.0
  0
LINE
  5
3876C
  8
0
 10
6976.219869987763559
 20
346.7876604119945796
 30
0.0
 11
6976.219869987763559
 21
345.4956646998004999
 31
0.0
  0
LINE
  5
3876D
  8
0
 10
6976.219869987763559
 20
345.1599034036880767
 30
0.0
 11
6976.219869987763559
 21
307.8120965733169214
 31
0.0
  0
ARC
  5
3876E
  8
0
 10
6976.2098699877642503
 20
346.7876604119945796
 30
0.0
 40
0.01
 50
359.9999999999575948
 51
90.0
  0
LINE
  5
3876F
  8
0
 10
6978.0283744447751815
 20
307.5676114929453888
 30
0.0
 11
6978.0283744447751815
 21
307.4275816717945986
 31
0.0
  0
LINE
  5
38770
  8
0
 10
6977.7860820453988708
 20
307.8120965733169214
 30
0.0
 11
6978.0283744447751815
 21
307.5676114929453888
 31
0.0
  0
LINE
  5
38771
  8
0
 10
6973.303964960776284
 20
307.5676114929453888
 30
0.0
 11
6978.0283744447751815
 21
307.5676114929453888
 31
0.0
  0
LINE
  5
38772
  8
0
 10
6975.1124694177869969
 20
348.6638021442946069
 30
0.0
 11
6975.1842636713899992
 21
348.8291564749945906
 31
0.0
  0
LINE
  5
38773
  8
0
 10
6976.219869987763559
 20
348.6638021442946069
 30
0.0
 11
6976.1480757341596473
 21
348.8291564749945906
 31
0.0
  0
LINE
  5
3889A
  8
0
 10
6973.6390585223016387
 20
307.8120965733169214
 30
0.0
 11
6973.5381651802381384
 21
307.5676114929453888
 31
0.0
  0
LINE
  5
3889B
  8
0
 10
6973.5381651802381384
 20
307.5676114929453888
 30
0.0
 11
6973.5381651802381384
 21
307.4275816717945986
 31
0.0
  0
LINE
  5
3889C
  8
0
 10
6977.6932808832498267
 20
307.8120965733169214
 30
0.0
 11
6977.794174225313327
 21
307.5676114929453888
 31
0.0
  0
LINE
  5
3889D
  8
0
 10
6977.794174225313327
 20
307.5676114929453888
 30
0.0
 11
6977.794174225313327
 21
307.4275816717945986
 31
0.0
  0
ENDSEC
  0
EOF
