  0
SECTION
  2
HEADER
  9
$ACADVER
  1
AC1009
  9
$INSBASE
 10
7170.9891183572681257
 20
113.2437591853864944
 30
0.0
  9
$EXTMIN
 10
7168.626913615266858
 20
105.6741432155274936
 30
0.0
  9
$EXTMAX
 10
7173.3513230992666649
 20
115.6059639097864959
 30
0.0
  9
$LIMMIN
 10
0.0
 20
0.0
  9
$LIMMAX
 10
11.6929133858000007
 20
8.2677165353999982
  9
$ORTHOMODE
 70
     0
  9
$REGENMODE
 70
     1
  9
$FILLMODE
 70
     1
  9
$QTEXTMODE
 70
     0
  9
$MIRRTEXT
 70
     0
  9
$DRAGMODE
 70
     2
  9
$LTSCALE
 40
0.6431102362
  9
$OSMODE
 70
  4095
  9
$ATTMODE
 70
     1
  9
$TEXTSIZE
 40
0.2
  9
$TRACEWID
 40
0.05
  9
$TEXTSTYLE
  7
STANDARD
  9
$CLAYER
  8
0
  9
$CELTYPE
  6
BYLAYER
  9
$CECOLOR
 62
   256
  9
$DIMSCALE
 40
1.0
  9
$DIMASZ
 40
0.1875
  9
$DIMEXO
 40
0.0625
  9
$DIMDLI
 40
0.4443307087
  9
$DIMRND
 40
0.0
  9
$DIMDLE
 40
0.0
  9
$DIMEXE
 40
0.125
  9
$DIMTP
 40
0.01
  9
$DIMTM
 40
0.01
  9
$DIMTXT
 40
2.0
  9
$DIMCEN
 40
0.1052362205
  9
$DIMTSZ
 40
0.0
  9
$DIMTOL
 70
     1
  9
$DIMLIM
 70
     0
  9
$DIMTIH
 70
     1
  9
$DIMTOH
 70
     1
  9
$DIMSE1
 70
     0
  9
$DIMSE2
 70
     0
  9
$DIMTAD
 70
     0
  9
$DIMZIN
 70
     0
  9
$DIMBLK
  1

  9
$DIMASO
 70
     1
  9
$DIMSHO
 70
     1
  9
$DIMPOST
  1
\X
  9
$DIMAPOST
  1

  9
$DIMALT
 70
     1
  9
$DIMALTD
 70
     2
  9
$DIMALTF
 40
25.3999999999999986
  9
$DIMLFAC
 40
1.0
  9
$DIMTOFL
 70
     0
  9
$DIMTVP
 40
0.0
  9
$DIMTIX
 70
     0
  9
$DIMSOXD
 70
     0
  9
$DIMSAH
 70
     0
  9
$DIMBLK1
  1

  9
$DIMBLK2
  1

  9
$DIMSTYLE
  2
STANDARD
  9
$DIMCLRD
 70
     0
  9
$DIMCLRE
 70
     0
  9
$DIMCLRT
 70
     0
  9
$DIMTFAC
 40
1.0
  9
$DIMGAP
 40
0.09
  9
$LUNITS
 70
     2
  9
$LUPREC
 70
     4
  9
$SKETCHINC
 40
0.1
  9
$FILLETRAD
 40
0.0
  9
$AUNITS
 70
     0
  9
$AUPREC
 70
     0
  9
$MENU
  1
.
  9
$ELEVATION
 40
0.0
  9
$PELEVATION
 40
0.0
  9
$THICKNESS
 40
0.0
  9
$LIMCHECK
 70
     0
  9
$BLIPMODE
 70
     0
  9
$CHAMFERA
 40
0.0
  9
$CHAMFERB
 40
0.0
  9
$SKPOLY
 70
     0
  9
$TDCREATE
 40
2458060.468368056230247
  9
$TDUPDATE
 40
2460544.8145601851865649
  9
$TDINDWG
 40
0.9464653935
  9
$TDUSRTIMER
 40
0.9464653935
  9
$USRTIMER
 70
     1
  9
$ANGBASE
 50
0.0
  9
$ANGDIR
 70
     0
  9
$PDMODE
 70
     0
  9
$PDSIZE
 40
0.3125
  9
$PLINEWID
 40
0.0
  9
$COORDS
 70
     0
  9
$SPLFRAME
 70
     0
  9
$SPLINETYPE
 70
     6
  9
$SPLINESEGS
 70
     8
  9
$ATTDIA
 70
     1
  9
$ATTREQ
 70
     1
  9
$HANDLING
 70
     1
  9
$HANDSEED
  5
33A78
  9
$SURFTAB1
 70
     6
  9
$SURFTAB2
 70
     6
  9
$SURFTYPE
 70
     6
  9
$SURFU
 70
     6
  9
$SURFV
 70
     6
  9
$UCSNAME
  2

  9
$UCSORG
 10
0.0
 20
0.0
 30
0.0
  9
$UCSXDIR
 10
1.0
 20
0.0
 30
0.0
  9
$UCSYDIR
 10
0.0
 20
1.0
 30
0.0
  9
$PUCSNAME
  2

  9
$PUCSORG
 10
0.0
 20
0.0
 30
0.0
  9
$PUCSXDIR
 10
1.0
 20
0.0
 30
0.0
  9
$PUCSYDIR
 10
0.0
 20
1.0
 30
0.0
  9
$USERI1
 70
     0
  9
$USERI2
 70
     0
  9
$USERI3
 70
     0
  9
$USERI4
 70
     0
  9
$USERI5
 70
     0
  9
$USERR1
 40
0.0
  9
$USERR2
 40
0.0
  9
$USERR3
 40
0.0
  9
$USERR4
 40
0.0
  9
$USERR5
 40
0.0
  9
$WORLDVIEW
 70
     1
  9
$SHADEDGE
 70
     3
  9
$SHADEDIF
 70
    70
  9
$TILEMODE
 70
     1
  9
$MAXACTVP
 70
    64
  9
$PLIMCHECK
 70
     0
  9
$PEXTMIN
 10
1.0000000000000000E+20
 20
1.0000000000000000E+20
 30
1.0000000000000000E+20
  9
$PEXTMAX
 10
-1.0000000000000000E+20
 20
-1.0000000000000000E+20
 30
-1.0000000000000000E+20
  9
$PLIMMIN
 10
0.0
 20
0.0
  9
$PLIMMAX
 10
12.0
 20
9.0
  9
$UNITMODE
 70
     0
  9
$VISRETAIN
 70
     1
  9
$PLINEGEN
 70
     0
  9
$PSLTSCALE
 70
     1
  0
ENDSEC
  0
SECTION
  2
TABLES
  0
TABLE
  2
VPORT
 70
     1
  0
VPORT
  2
*ACTIVE
 70
     0
 10
0.0
 20
0.0
 11
1.0
 21
1.0
 12
3259.6237619119551709
 22
-21.9395515398820606
 13
0.0
 23
0.0
 14
1.0
 24
1.0
 15
0.0
 25
0.0
 16
0.0
 26
0.0
 36
60.4960186965801583
 17
3911.3653564453120453
 27
132.5796051025390057
 37
0.0
 40
10.0021759766268801
 41
2.2423167848699759
 42
50.0
 43
0.0
 44
0.0
 50
0.0
 51
0.0
 71
     0
 72
   100
 73
     1
 74
     1
 75
     0
 76
     0
 77
     0
 78
     0
  0
ENDTAB
  0
TABLE
  2
LTYPE
 70
     2
  0
LTYPE
  2
CONTINUOUS
 70
     0
  3
Solid line
 72
    65
 73
     0
 40
0.0
  0
LTYPE
  2
PHANTOM2
 70
     0
  3
___ _ _ ___ _ _ ___ _ _ ___ _ _
 72
    65
 73
     6
 40
1.25
 49
0.625
 49
-0.125
 49
0.125
 49
-0.125
 49
0.125
 49
-0.125
  0
ENDTAB
  0
TABLE
  2
LAYER
 70
     2
  0
LAYER
  2
0
 70
     0
 62
   255
  6
CONTINUOUS
  0
LAYER
  2
DEFPOINTS
 70
     0
 62
     7
  6
CONTINUOUS
  0
ENDTAB
  0
TABLE
  2
STYLE
 70
     1
  0
STYLE
  2
STANDARD
 70
     0
 40
0.0
 41
0.8
 50
0.0
 71
     0
 42
0.2
  3
txt
  4

  0
ENDTAB
  0
TABLE
  2
VIEW
 70
     0
  0
ENDTAB
  0
TABLE
  2
UCS
 70
     0
  0
ENDTAB
  0
TABLE
  2
APPID
 70
    11
  0
APPID
  2
ACAD
 70
     0
  0
APPID
  2
ACAD_MLEADERVER
 70
     0
  0
APPID
  2
ACAD_EXEMPT_FROM_CAD_STANDARDS
 70
     0
  0
APPID
  2
ACAD_NAV_VCDISPLAY
 70
     0
  0
APPID
  2
ACAECLAYERSTANDARD
 70
     0
  0
APPID
  2
ACCMTRANSPARENCY
 70
     0
  0
APPID
  2
ACAD_DSTYLE_DIMJAG
 70
     0
  0
APPID
  2
ACAD_DSTYLE_DIMTALN
 70
     0
  0
APPID
  2
ACDBATTR
 70
     0
  0
APPID
  2
ACADANNOTATIVE
 70
     0
  0
APPID
  2
DCO15
 70
     0
  0
ENDTAB
  0
TABLE
  2
DIMSTYLE
 70
     1
  0
DIMSTYLE
  2
STANDARD
 70
     0
  3

  4

  5

  6

  7

 40
1.0
 41
0.1875
 42
0.0625
 43
0.38
 44
0.125
 45
0.0
 46
0.0
 47
0.01
 48
0.01
140
0.15625
141
0.09
142
0.0
143
25.3999999999999986
144
1.0
145
0.0
146
1.0
147
0.09
 71
     1
 72
     0
 73
     1
 74
     1
 75
     0
 76
     0
 77
     0
 78
     4
170
     0
171
     2
172
     0
173
     0
174
     0
175
     0
176
     0
177
     0
178
     0
  0
ENDTAB
  0
ENDSEC
  0
SECTION
  2
BLOCKS
  0
BLOCK
  8
0
  2
$MODEL_SPACE
 70
     0
 10
0.0
 20
0.0
 30
0.0
  3
$MODEL_SPACE
  1

  0
ENDBLK
  5
21
  8
0
  0
BLOCK
 67
     1
  8
0
  2
$PAPER_SPACE
 70
     0
 10
0.0
 20
0.0
 30
0.0
  3
$PAPER_SPACE
  1

  0
ENDBLK
  5
1D
 67
     1
  8
0
  0
BLOCK
  8
0
  2
_FILLED
 70
     0
 10
0.0
 20
0.0
 30
0.0
  3
_FILLED
  1

  0
SOLID
  5
257AF
  8
0
  6
BYBLOCK
 62
     0
 10
0.0
 20
0.0
 30
0.0
 11
-1.0
 21
0.1666666667
 31
0.0
 12
-1.0
 22
-0.1666666667
 32
0.0
 13
-1.0
 23
-0.1666666667
 33
0.0
  0
ENDBLK
  5
257B0
  8
0
  6
BYBLOCK
 62
     0
  0
ENDSEC
  0
SECTION
  2
ENTITIES
  0
ATTDEF
  5
256E4
  8
DEFPOINTS
 10
7170.9783665898839899
 20
113.247759045573801
 30
0.0
 40
0.001
  1
P33170-GTM
  3

  2
MODELNUMBER
 70
     0
1001
ACDBATTR
1070
     0
1070
     1
  0
ATTDEF
  5
256E5
  8
DEFPOINTS
 10
7170.9782407802258604
 20
113.2460922051946994
 30
0.0
 40
0.001
  1
BEZEL
  3

  2
TRADENAME
 70
     0
1001
ACDBATTR
1070
     0
1070
     1
  0
ATTDEF
  5
256E6
  8
DEFPOINTS
 10
7170.9783665898839899
 20
113.2444257122404991
 30
0.0
 40
0.001
  1
BATHROOM SINK FAUCET
  3

  2
PRODUCT
 70
     0
1001
ACDBATTR
1070
     0
1070
     1
  0
LINE
  5
3364E
  8
0
 10
7168.863132307316846
 20
115.6059639097864959
 30
0.0
 11
7173.1151044072175864
 21
115.6059639097864959
 31
0.0
  0
LINE
  5
3364F
  8
0
 10
7170.4424181463846253
 20
105.6741432155274936
 30
0.0
 11
7171.5358185681488976
 21
105.6741432155274936
 31
0.0
  0
LINE
  5
33650
  8
0
 10
7170.2017167824678836
 20
105.8839364574379971
 30
0.0
 11
7170.2017167824678836
 21
113.7945323361364984
 31
0.0
  0
LINE
  5
33651
  8
0
 10
7170.4354180722802994
 20
105.6769767009761978
 30
0.0
 11
7170.4354180722802994
 21
112.4592847449233943
 31
0.0
  0
LINE
  5
33652
  8
0
 10
7168.626913615266858
 20
111.1177731530364952
 30
0.0
 11
7168.626913615266858
 21
115.3697452177364937
 31
0.0
  0
LINE
  5
33653
  8
0
 10
7168.863132307316846
 20
110.8815544609864929
 30
0.0
 11
7170.2017167824678836
 21
110.8815544609864929
 31
0.0
  0
LINE
  5
33654
  8
0
 10
7171.7765199320683678
 20
110.8815544609864929
 30
0.0
 11
7173.1151044072175864
 21
110.8815544609864929
 31
0.0
  0
LINE
  5
33655
  8
0
 10
7168.863132307316846
 20
115.6059639097864959
 30
0.0
 11
7168.626913615266858
 21
115.3697452177364937
 31
0.0
  0
LINE
  5
33656
  8
0
 10
7168.863132307316846
 20
110.8815544609864929
 30
0.0
 11
7168.626913615266858
 21
111.1177731530364952
 31
0.0
  0
LINE
  5
33659
  8
0
 10
7170.205170245759291
 20
105.8763771679789016
 30
0.0
 11
7170.4358716096758144
 21
105.6765839260685027
 31
0.0
  0
ARC
  5
3365A
  8
0
 10
7170.4424181463846253
 20
105.6841432155274987
 30
0.0
 40
0.01
 50
229.1066053407940899
 51
270.0000000000521254
  0
ARC
  5
3365D
  8
0
 10
7170.2117167824671924
 20
105.8839364574379971
 30
0.0
 40
0.01
 50
179.9999999999388933
 51
229.1066053409132905
  0
LINE
  5
3365E
  8
0
 10
7170.4383470045668219
 20
114.0311625581365007
 30
0.0
 11
7171.5398897099676105
 21
114.0311625581365007
 31
0.0
  0
LINE
  5
3365F
  8
0
 10
7170.4383470045668219
 20
114.0311625581365007
 30
0.0
 11
7170.2017167824678836
 21
113.7945323361364984
 31
0.0
  0
LINE
  5
33660
  8
0
 10
7170.4383470045668219
 20
112.4563558126365024
 30
0.0
 11
7171.5398897099676105
 21
112.4563558126365024
 31
0.0
  0
LINE
  5
33661
  8
0
 10
7170.4383470045668219
 20
112.4563558126365024
 30
0.0
 11
7170.2017167824678836
 21
112.6929860346365047
 31
0.0
  0
LINE
  5
33662
  8
0
 10
7170.4508508229273502
 20
114.050847597536503
 30
0.0
 11
7170.9209179104873328
 21
114.050847597536503
 31
0.0
  0
LINE
  5
33663
  8
0
 10
7171.0573188040470995
 20
114.050847597536503
 30
0.0
 11
7171.5273858916089011
 21
114.050847597536503
 31
0.0
  0
LINE
  5
33664
  8
0
 10
7170.3952015192471663
 20
114.0277969012158934
 30
0.0
 11
7170.2050824394891606
 21
113.8376778214571061
 31
0.0
  0
LINE
  5
33665
  8
0
 10
7170.1820317431684089
 20
112.7055100827364953
 30
0.0
 11
7170.1820317431684089
 21
113.7820285177777038
 31
0.0
  0
ARC
  5
33666
  8
0
 10
7170.4508508229273502
 20
113.9721475975365053
 30
0.0
 40
0.0787
 50
90.0
 51
134.9999999999965041
  0
ARC
  5
33667
  8
0
 10
7170.2607317431666161
 20
113.7820285177777038
 30
0.0
 40
0.0787
 50
135.0000000000063096
 51
179.9999999999951115
  0
ARC
  5
33668
  8
0
 10
7170.2607719005673061
 20
112.7055100827364953
 30
0.0
 40
0.0787401575000481
 50
180.0
 51
221.4096221362921995
  0
LINE
  5
33669
  8
0
 10
7170.5068390108681342
 20
113.8658082274365029
 30
0.0
 11
7171.4713977036681172
 21
113.8658082274365029
 31
0.0
  0
LINE
  5
3366A
  8
0
 10
7170.3670711131680946
 20
113.7260403297365059
 30
0.0
 11
7170.3670711131680946
 21
112.7614780410364972
 31
0.0
  0
LINE
  5
3366B
  8
0
 10
7170.5068390108681342
 20
112.6217101433365002
 30
0.0
 11
7171.4713977036681172
 21
112.6217101433365002
 31
0.0
  0
LINE
  5
3366C
  8
0
 10
7170.5068390108681342
 20
113.8658082274365029
 30
0.0
 11
7170.3670711131680946
 21
113.7260403297365059
 31
0.0
  0
LINE
  5
3366D
  8
0
 10
7170.5068390108681342
 20
112.6217101433365002
 30
0.0
 11
7170.3670711131680946
 21
112.7614780410364972
 31
0.0
  0
LINE
  5
3366E
  8
0
 10
7170.5068390108681342
 20
113.8658082274365029
 30
0.0
 11
7170.4383470045668219
 21
114.0311625581365007
 31
0.0
  0
LINE
  5
3366F
  8
0
 10
7170.3670711131680946
 20
113.7260403297365059
 30
0.0
 11
7170.2017167824678836
 21
113.7945323361364984
 31
0.0
  0
LINE
  5
33670
  8
0
 10
7170.3670711131680946
 20
112.7614780410364972
 30
0.0
 11
7170.2017167824678836
 21
112.6929860346365047
 31
0.0
  0
LINE
  5
33671
  8
0
 10
7170.5068390108681342
 20
112.6217101433365002
 30
0.0
 11
7170.4383470045668219
 21
112.4563558126365024
 31
0.0
  0
LINE
  5
33672
  8
0
 10
7171.7765199320683678
 20
105.8839364574379971
 30
0.0
 11
7171.7765199320683678
 21
113.7945323361364984
 31
0.0
  0
LINE
  5
33673
  8
0
 10
7171.5428186422550425
 20
105.6769767009761978
 30
0.0
 11
7171.5428186422550425
 21
112.4592847449233943
 31
0.0
  0
LINE
  5
33674
  8
0
 10
7173.3513230992666649
 20
111.1177731530364952
 30
0.0
 11
7173.3513230992666649
 21
115.3697452177364937
 31
0.0
  0
LINE
  5
33675
  8
0
 10
7173.1151044072175864
 20
110.8815544609864929
 30
0.0
 11
7171.7765199320683678
 21
110.8815544609864929
 31
0.0
  0
LINE
  5
33676
  8
0
 10
7173.1151044072175864
 20
115.6059639097864959
 30
0.0
 11
7173.3513230992666649
 21
115.3697452177364937
 31
0.0
  0
LINE
  5
33677
  8
0
 10
7173.1151044072175864
 20
110.8815544609864929
 30
0.0
 11
7173.3513230992666649
 21
111.1177731530364952
 31
0.0
  0
LINE
  5
33679
  8
0
 10
7171.7730664687769604
 20
105.8763771679789016
 30
0.0
 11
7171.5423651048577085
 21
105.6765839260685027
 31
0.0
  0
ARC
  5
3367A
  8
0
 10
7171.5358185681488976
 20
105.6841432155274987
 30
0.0
 40
0.01
 50
269.9999999999478746
 51
310.8933946592059101
  0
ARC
  5
3367D
  8
0
 10
7171.76651993206724
 20
105.8839364574379971
 30
0.0
 40
0.01
 50
310.8933946590865958
 51
0.0000000000610666
  0
LINE
  5
3367E
  8
0
 10
7171.5398897099676105
 20
114.0311625581365007
 30
0.0
 11
7171.7765199320683678
 21
113.7945323361364984
 31
0.0
  0
LINE
  5
3367F
  8
0
 10
7171.5398897099676105
 20
112.4563558126365024
 30
0.0
 11
7171.7765199320683678
 21
112.6929860346365047
 31
0.0
  0
LINE
  5
33680
  8
0
 10
7171.5830351952890851
 20
114.0277969012158934
 30
0.0
 11
7171.7731542750461813
 21
113.8376778214571061
 31
0.0
  0
LINE
  5
33681
  8
0
 10
7171.7962049713678425
 20
112.7055100827364953
 30
0.0
 11
7171.7962049713678425
 21
113.7820285177777038
 31
0.0
  0
ARC
  5
33682
  8
0
 10
7171.5273858916089011
 20
113.9721475975365053
 30
0.0
 40
0.0787
 50
45.0000000000028706
 51
90.0
  0
ARC
  5
33683
  8
0
 10
7171.7175049713669068
 20
113.7820285177777038
 30
0.0
 40
0.0787
 50
0.0000000000048853
 51
44.999999999993662
  0
ARC
  5
33684
  8
0
 10
7171.7174648139671262
 20
112.7055100827364953
 30
0.0
 40
0.0787401575000481
 50
318.59037786370709
 51
0.0
  0
LINE
  5
33685
  8
0
 10
7171.6111656013681568
 20
113.7260403297365059
 30
0.0
 11
7171.6111656013681568
 21
112.7614780410364972
 31
0.0
  0
LINE
  5
33686
  8
0
 10
7171.4713977036681172
 20
113.8658082274365029
 30
0.0
 11
7171.6111656013681568
 21
113.7260403297365059
 31
0.0
  0
LINE
  5
33687
  8
0
 10
7171.4713977036681172
 20
112.6217101433365002
 30
0.0
 11
7171.6111656013681568
 21
112.7614780410364972
 31
0.0
  0
LINE
  5
33688
  8
0
 10
7171.4713977036681172
 20
113.8658082274365029
 30
0.0
 11
7171.5398897099676105
 21
114.0311625581365007
 31
0.0
  0
LINE
  5
33689
  8
0
 10
7171.6111656013681568
 20
113.7260403297365059
 30
0.0
 11
7171.7765199320683678
 21
113.7945323361364984
 31
0.0
  0
LINE
  5
3368A
  8
0
 10
7171.6111656013681568
 20
112.7614780410364972
 30
0.0
 11
7171.7765199320683678
 21
112.6929860346365047
 31
0.0
  0
LINE
  5
3368B
  8
0
 10
7171.4713977036681172
 20
112.6217101433365002
 30
0.0
 11
7171.5398897099676105
 21
112.4563558126365024
 31
0.0
  0
LINE
  5
3368C
  8
0
 10
7168.9589550990986027
 20
115.3697452353364952
 30
0.0
 11
7173.0192816154349202
 21
115.3697452353364952
 31
0.0
  0
LINE
  5
3368D
  8
0
 10
7168.861004818818401
 20
115.2718692234094959
 30
0.0
 11
7168.861004818818401
 21
111.2156491473634929
 31
0.0
  0
LINE
  5
3368E
  8
0
 10
7168.9589550990986027
 20
111.1177731354364937
 30
0.0
 11
7170.2017167824678836
 21
111.1177731354364937
 31
0.0
  0
LINE
  5
3368F
  8
0
 10
7171.7765199320683678
 20
111.1177731354364937
 30
0.0
 11
7173.0192816154349202
 21
111.1177731354364937
 31
0.0
  0
LINE
  5
33690
  8
0
 10
7168.9589550990986027
 20
115.3697452353364952
 30
0.0
 11
7168.861004818818401
 21
115.2718692234094959
 31
0.0
  0
LINE
  5
33691
  8
0
 10
7168.9589550990986027
 20
115.3697452353364952
 30
0.0
 11
7168.863132307316846
 21
115.6059639097864959
 31
0.0
  0
LINE
  5
33692
  8
0
 10
7168.861004818818401
 20
115.2718692234094959
 30
0.0
 11
7168.626913615266858
 21
115.3697452177364937
 31
0.0
  0
LINE
  5
33693
  8
0
 10
7168.9589550990986027
 20
111.1177731354364937
 30
0.0
 11
7168.861004818818401
 21
111.2156491473634929
 31
0.0
  0
LINE
  5
33694
  8
0
 10
7168.9589550990986027
 20
111.1177731354364937
 30
0.0
 11
7168.863132307316846
 21
110.8815544609864929
 31
0.0
  0
LINE
  5
33695
  8
0
 10
7168.861004818818401
 20
111.2156491473634929
 30
0.0
 11
7168.626913615266858
 21
111.1177731530364952
 31
0.0
  0
LINE
  5
33696
  8
0
 10
7173.0192816154349202
 20
115.3697452353364952
 30
0.0
 11
7173.1172318957178504
 21
115.2718692234094959
 31
0.0
  0
LINE
  5
33697
  8
0
 10
7173.0192816154349202
 20
115.3697452353364952
 30
0.0
 11
7173.1151044072175864
 21
115.6059639097864959
 31
0.0
  0
LINE
  5
33698
  8
0
 10
7173.1172318957178504
 20
115.2718692234094959
 30
0.0
 11
7173.3513230992666649
 21
115.3697452177364937
 31
0.0
  0
LINE
  5
33699
  8
0
 10
7173.0192816154349202
 20
111.1177731354364937
 30
0.0
 11
7173.1172318957178504
 21
111.2156491473634929
 31
0.0
  0
LINE
  5
3369A
  8
0
 10
7173.0192816154349202
 20
111.1177731354364937
 30
0.0
 11
7173.1151044072175864
 21
110.8815544609864929
 31
0.0
  0
LINE
  5
3369B
  8
0
 10
7173.1172318957178504
 20
111.2156491473634929
 30
0.0
 11
7173.3513230992666649
 21
111.1177731530364952
 31
0.0
  0
LINE
  5
3369C
  8
0
 10
7173.1172318957178504
 20
115.2718692234094959
 30
0.0
 11
7173.1172318957178504
 21
111.2156491473634929
 31
0.0
  0
ARC
  5
3369D
  8
0
 10
7170.9891183572681257
 20
113.7594269938364988
 30
0.0
 40
0.2992946193999871
 50
67.0367366981461572
 51
112.9632633018540986
  0
ARC
  5
3369E
  8
0
 10
7170.8731315840486786
 20
114.033162558136496
 30
0.0
 40
0.002
 50
112.9632633018029964
 51
270.0
  0
ARC
  5
3369F
  8
0
 10
7171.1051051304857538
 20
114.033162558136496
 30
0.0
 40
0.002
 50
270.0
 51
67.036736698144253
  0
ENDSEC
  0
EOF
