  0
SECTION
  2
HEADER
  9
$ACADVER
  1
AC1009
  9
$INSBASE
 10
8547.3533022985648131
 20
2090.4257481728750463
 30
0.0
  9
$EXTMIN
 10
8546.3788928497124289
 20
2085.2271928999912234
 30
0.0
  9
$EXTMAX
 10
8548.3277117474135594
 20
2091.4001576217251568
 30
0.0
  9
$LIMMIN
 10
0.0
 20
0.0
  9
$LIMMAX
 10
11.6929133858000007
 20
8.2677165353999982
  9
$ORTHOMODE
 70
     0
  9
$REGENMODE
 70
     1
  9
$FILLMODE
 70
     1
  9
$QTEXTMODE
 70
     0
  9
$MIRRTEXT
 70
     0
  9
$DRAGMODE
 70
     2
  9
$LTSCALE
 40
0.6431102362
  9
$OSMODE
 70
  4095
  9
$ATTMODE
 70
     1
  9
$TEXTSIZE
 40
0.2
  9
$TRACEWID
 40
0.05
  9
$TEXTSTYLE
  7
STANDARD
  9
$CLAYER
  8
0
  9
$CELTYPE
  6
BYLAYER
  9
$CECOLOR
 62
   256
  9
$DIMSCALE
 40
1.0
  9
$DIMASZ
 40
0.1875
  9
$DIMEXO
 40
0.0625
  9
$DIMDLI
 40
0.4443307087
  9
$DIMRND
 40
0.0
  9
$DIMDLE
 40
0.0
  9
$DIMEXE
 40
0.125
  9
$DIMTP
 40
0.01
  9
$DIMTM
 40
0.01
  9
$DIMTXT
 40
2.0
  9
$DIMCEN
 40
0.1052362205
  9
$DIMTSZ
 40
0.0
  9
$DIMTOL
 70
     1
  9
$DIMLIM
 70
     0
  9
$DIMTIH
 70
     1
  9
$DIMTOH
 70
     1
  9
$DIMSE1
 70
     0
  9
$DIMSE2
 70
     0
  9
$DIMTAD
 70
     0
  9
$DIMZIN
 70
     0
  9
$DIMBLK
  1

  9
$DIMASO
 70
     1
  9
$DIMSHO
 70
     1
  9
$DIMPOST
  1
\X
  9
$DIMAPOST
  1

  9
$DIMALT
 70
     1
  9
$DIMALTD
 70
     2
  9
$DIMALTF
 40
25.3999999999999986
  9
$DIMLFAC
 40
1.0
  9
$DIMTOFL
 70
     0
  9
$DIMTVP
 40
0.0
  9
$DIMTIX
 70
     0
  9
$DIMSOXD
 70
     0
  9
$DIMSAH
 70
     0
  9
$DIMBLK1
  1

  9
$DIMBLK2
  1

  9
$DIMSTYLE
  2
STANDARD
  9
$DIMCLRD
 70
     0
  9
$DIMCLRE
 70
     0
  9
$DIMCLRT
 70
     0
  9
$DIMTFAC
 40
1.0
  9
$DIMGAP
 40
0.09
  9
$LUNITS
 70
     2
  9
$LUPREC
 70
     4
  9
$SKETCHINC
 40
0.1
  9
$FILLETRAD
 40
0.0
  9
$AUNITS
 70
     0
  9
$AUPREC
 70
     0
  9
$MENU
  1
.
  9
$ELEVATION
 40
0.0
  9
$PELEVATION
 40
0.0
  9
$THICKNESS
 40
0.0
  9
$LIMCHECK
 70
     0
  9
$BLIPMODE
 70
     0
  9
$CHAMFERA
 40
0.0
  9
$CHAMFERB
 40
0.0
  9
$SKPOLY
 70
     0
  9
$TDCREATE
 40
2458060.468368056230247
  9
$TDUPDATE
 40
2460536.7315162038430572
  9
$TDINDWG
 40
0.4767084491
  9
$TDUSRTIMER
 40
0.4767084491
  9
$USRTIMER
 70
     1
  9
$ANGBASE
 50
0.0
  9
$ANGDIR
 70
     0
  9
$PDMODE
 70
     0
  9
$PDSIZE
 40
0.3125
  9
$PLINEWID
 40
0.0
  9
$COORDS
 70
     0
  9
$SPLFRAME
 70
     0
  9
$SPLINETYPE
 70
     6
  9
$SPLINESEGS
 70
     8
  9
$ATTDIA
 70
     1
  9
$ATTREQ
 70
     1
  9
$HANDLING
 70
     1
  9
$HANDSEED
  5
10F76
  9
$SURFTAB1
 70
     6
  9
$SURFTAB2
 70
     6
  9
$SURFTYPE
 70
     6
  9
$SURFU
 70
     6
  9
$SURFV
 70
     6
  9
$UCSNAME
  2

  9
$UCSORG
 10
0.0
 20
0.0
 30
0.0
  9
$UCSXDIR
 10
1.0
 20
0.0
 30
0.0
  9
$UCSYDIR
 10
0.0
 20
1.0
 30
0.0
  9
$PUCSNAME
  2

  9
$PUCSORG
 10
0.0
 20
0.0
 30
0.0
  9
$PUCSXDIR
 10
1.0
 20
0.0
 30
0.0
  9
$PUCSYDIR
 10
0.0
 20
1.0
 30
0.0
  9
$USERI1
 70
     0
  9
$USERI2
 70
     0
  9
$USERI3
 70
     0
  9
$USERI4
 70
     0
  9
$USERI5
 70
     0
  9
$USERR1
 40
0.0
  9
$USERR2
 40
0.0
  9
$USERR3
 40
0.0
  9
$USERR4
 40
0.0
  9
$USERR5
 40
0.0
  9
$WORLDVIEW
 70
     1
  9
$SHADEDGE
 70
     3
  9
$SHADEDIF
 70
    70
  9
$TILEMODE
 70
     1
  9
$MAXACTVP
 70
    64
  9
$PLIMCHECK
 70
     0
  9
$PEXTMIN
 10
1.0000000000000000E+20
 20
1.0000000000000000E+20
 30
1.0000000000000000E+20
  9
$PEXTMAX
 10
-1.0000000000000000E+20
 20
-1.0000000000000000E+20
 30
-1.0000000000000000E+20
  9
$PLIMMIN
 10
0.0
 20
0.0
  9
$PLIMMAX
 10
12.0
 20
9.0
  9
$UNITMODE
 70
     0
  9
$VISRETAIN
 70
     1
  9
$PLINEGEN
 70
     0
  9
$PSLTSCALE
 70
     1
  0
ENDSEC
  0
SECTION
  2
TABLES
  0
TABLE
  2
VPORT
 70
     1
  0
VPORT
  2
*ACTIVE
 70
     0
 10
0.0
 20
0.0
 11
1.0
 21
1.0
 12
3732.0549624548129941
 22
1840.5050509932800651
 13
0.0
 23
0.0
 14
1.0
 24
1.0
 15
0.0
 25
0.0
 16
0.0
 26
0.0
 36
9.5192988075487186
 17
4815.2983398437490905
 27
247.8086242675780966
 37
0.0
 40
6.2166929251934562
 41
2.244680851063829
 42
50.0
 43
0.0
 44
0.0
 50
0.0
 51
0.0
 71
     0
 72
   100
 73
     1
 74
     1
 75
     0
 76
     0
 77
     0
 78
     0
  0
ENDTAB
  0
TABLE
  2
LTYPE
 70
     2
  0
LTYPE
  2
CONTINUOUS
 70
     0
  3
Solid line
 72
    65
 73
     0
 40
0.0
  0
LTYPE
  2
PHANTOM2
 70
     0
  3
___ _ _ ___ _ _ ___ _ _ ___ _ _
 72
    65
 73
     6
 40
1.25
 49
0.625
 49
-0.125
 49
0.125
 49
-0.125
 49
0.125
 49
-0.125
  0
ENDTAB
  0
TABLE
  2
LAYER
 70
     2
  0
LAYER
  2
0
 70
     0
 62
   255
  6
CONTINUOUS
  0
LAYER
  2
DEFPOINTS
 70
     0
 62
     7
  6
CONTINUOUS
  0
ENDTAB
  0
TABLE
  2
STYLE
 70
     1
  0
STYLE
  2
STANDARD
 70
     0
 40
0.0
 41
0.8
 50
0.0
 71
     0
 42
0.2
  3
txt
  4

  0
ENDTAB
  0
TABLE
  2
VIEW
 70
     0
  0
ENDTAB
  0
TABLE
  2
UCS
 70
     0
  0
ENDTAB
  0
TABLE
  2
APPID
 70
    12
  0
APPID
  2
ACAD
 70
     0
  0
APPID
  2
ACAD_MLEADERVER
 70
     0
  0
APPID
  2
ACAD_EXEMPT_FROM_CAD_STANDARDS
 70
     0
  0
APPID
  2
ACAD_NAV_VCDISPLAY
 70
     0
  0
APPID
  2
ACAECLAYERSTANDARD
 70
     0
  0
APPID
  2
ACCMTRANSPARENCY
 70
     0
  0
APPID
  2
ACAD_DSTYLE_DIMJAG
 70
     0
  0
APPID
  2
ACAD_DSTYLE_DIMTALN
 70
     0
  0
APPID
  2
ACDBATTR
 70
     0
  0
APPID
  2
ACADANNOTATIVE
 70
     0
  0
APPID
  2
GRADIENTCOLOR1ACI
 70
     0
  0
APPID
  2
GRADIENTCOLOR2ACI
 70
     0
  0
ENDTAB
  0
TABLE
  2
DIMSTYLE
 70
     2
  0
DIMSTYLE
  2
STANDARD
 70
     0
  3

  4

  5

  6

  7

 40
1.0
 41
0.1875
 42
0.0625
 43
0.38
 44
0.125
 45
0.0
 46
0.0
 47
0.01
 48
0.01
140
0.15625
141
0.09
142
0.0
143
25.3999999999999986
144
1.0
145
0.0
146
1.0
147
0.09
 71
     1
 72
     0
 73
     1
 74
     1
 75
     0
 76
     0
 77
     0
 78
     4
170
     0
171
     2
172
     0
173
     0
174
     0
175
     0
176
     0
177
     0
178
     0
  0
DIMSTYLE
  2
ANNOTATIVE
 70
     0
  3

  4

  5

  6

  7

 40
0.0
 41
0.18
 42
0.0625
 43
0.38
 44
0.18
 45
0.0
 46
0.0
 47
0.0
 48
0.0
140
0.18
141
0.09
142
0.0
143
25.3999999999999986
144
1.0
145
0.0
146
1.0
147
0.09
 71
     0
 72
     0
 73
     1
 74
     1
 75
     0
 76
     0
 77
     0
 78
     0
170
     0
171
     2
172
     0
173
     0
174
     0
175
     0
176
     0
177
     0
178
     0
  0
ENDTAB
  0
ENDSEC
  0
SECTION
  2
BLOCKS
  0
BLOCK
  8
0
  2
$MODEL_SPACE
 70
     0
 10
0.0
 20
0.0
 30
0.0
  3
$MODEL_SPACE
  1

  0
ENDBLK
  5
21
  8
0
  0
BLOCK
 67
     1
  8
0
  2
$PAPER_SPACE
 70
     0
 10
0.0
 20
0.0
 30
0.0
  3
$PAPER_SPACE
  1

  0
ENDBLK
  5
1D
 67
     1
  8
0
  0
BLOCK
  8
0
  2
_FILLED
 70
     0
 10
0.0
 20
0.0
 30
0.0
  3
_FILLED
  1

  0
SOLID
  5
D8EA
  8
0
  6
BYBLOCK
 62
     0
 10
0.0
 20
0.0
 30
0.0
 11
-1.0
 21
0.1666666667
 31
0.0
 12
-1.0
 22
-0.1666666667
 32
0.0
 13
-1.0
 23
-0.1666666667
 33
0.0
  0
ENDBLK
  5
D8EB
  8
0
  6
BYBLOCK
 62
     0
  0
ENDSEC
  0
SECTION
  2
ENTITIES
  0
ATTDEF
  5
3930
  8
DEFPOINTS
 10
8547.3427351540522068
 20
2090.4291072650198657
 30
0.0
 40
0.001
  1
P33351-LV
  3

  2
MODELNUMBER
 70
     0
1001
ACDBATTR
1070
     0
1070
     1
  0
ATTDEF
  5
3931
  8
DEFPOINTS
 10
8547.3427351540522068
 20
2090.4274405983542238
 30
0.0
 40
0.001
  1
AILERON
  3

  2
TRADENAME
 70
     0
1001
ACDBATTR
1070
     0
1070
     1
  0
ATTDEF
  5
3932
  8
DEFPOINTS
 10
8547.3427351540522068
 20
2090.4257739316872176
 30
0.0
 40
0.001
  1
BATHROOM SINK FAUCET
  3

  2
PRODUCT
 70
     0
1001
ACDBATTR
1070
     0
1070
     1
  0
ARC
  5
10C70
  8
0
 10
8547.3533022985648131
 20
2090.4257481728750463
 30
0.0
 40
0.9744094488499985
 50
304.4478968240828181
 51
235.5521031759172104
  0
LINE
  5
10C71
  8
0
  6
CONTINUOUS
 10
8546.9596015111637826
 20
2085.9000007234380973
 30
0.0
 11
8546.96126351464045
 21
2085.901662726916129
 31
0.0
1001
GRADIENTCOLOR1ACI
1070
     5
1001
GRADIENTCOLOR2ACI
1070
     2
1001
ACAD
1010
0.0
1020
0.0
1030
0.0
  0
LINE
  5
10C72
  8
0
  6
CONTINUOUS
 10
8546.9596015111637826
 20
2085.8646453843789459
 30
0.0
 11
8546.9674947691801208
 21
2085.8725386423961936
 31
0.0
1001
GRADIENTCOLOR1ACI
1070
     5
1001
GRADIENTCOLOR2ACI
1070
     2
1001
ACAD
1010
0.0
1020
0.0
1030
0.0
  0
LINE
  5
10C73
  8
0
  6
CONTINUOUS
 10
8546.9596015111637826
 20
2085.8292900453188849
 30
0.0
 11
8546.9760450859939738
 21
2085.8457336201499857
 31
0.0
1001
GRADIENTCOLOR1ACI
1070
     5
1001
GRADIENTCOLOR2ACI
1070
     2
1001
ACAD
1010
0.0
1020
0.0
1030
0.0
  0
LINE
  5
10C74
  8
0
  6
CONTINUOUS
 10
8546.9596015111637826
 20
2085.7939347062601882
 30
0.0
 11
8546.9865922242861416
 21
2085.820925419383002
 31
0.0
1001
GRADIENTCOLOR1ACI
1070
     5
1001
GRADIENTCOLOR2ACI
1070
     2
1001
ACAD
1010
0.0
1020
0.0
1030
0.0
  0
LINE
  5
10C75
  8
0
  6
CONTINUOUS
 10
8546.9596015111637826
 20
2085.7585793672010368
 30
0.0
 11
8546.9989252032519289
 21
2085.7979030592910021
 31
0.0
1001
GRADIENTCOLOR1ACI
1070
     5
1001
GRADIENTCOLOR2ACI
1070
     2
1001
ACAD
1010
0.0
1020
0.0
1030
0.0
  0
LINE
  5
10C76
  8
0
  6
CONTINUOUS
 10
8546.9596015111637826
 20
2085.7232240281418854
 30
0.0
 11
8547.0129051521471411
 21
2085.7765276691247891
 31
0.0
1001
GRADIENTCOLOR1ACI
1070
     5
1001
GRADIENTCOLOR2ACI
1070
     2
1001
ACAD
1010
0.0
1020
0.0
1030
0.0
  0
LINE
  5
10C77
  8
0
  6
CONTINUOUS
 10
8546.9596015111637826
 20
2085.6878686890818244
 30
0.0
 11
8547.0284443848067895
 21
2085.7567115627261956
 31
0.0
1001
GRADIENTCOLOR1ACI
1070
     5
1001
GRADIENTCOLOR2ACI
1070
     2
1001
ACAD
1010
0.0
1020
0.0
1030
0.0
  0
LINE
  5
10C78
  8
0
  6
CONTINUOUS
 10
8546.9596015111637826
 20
2085.6525133500231277
 30
0.0
 11
8547.0454950397088396
 21
2085.7384068785668205
 31
0.0
1001
GRADIENTCOLOR1ACI
1070
     5
1001
GRADIENTCOLOR2ACI
1070
     2
1001
ACAD
1010
0.0
1020
0.0
1030
0.0
  0
LINE
  5
10C79
  8
0
  6
CONTINUOUS
 10
8546.9596015111637826
 20
2085.6171580109630668
 30
0.0
 11
8547.0640434582601301
 21
2085.7215999580607786
 31
0.0
1001
GRADIENTCOLOR1ACI
1070
     5
1001
GRADIENTCOLOR2ACI
1070
     2
1001
ACAD
1010
0.0
1020
0.0
1030
0.0
  0
LINE
  5
10C7A
  8
0
  6
CONTINUOUS
 10
8546.9596015111637826
 20
2085.5818026719039153
 30
0.0
 11
8547.0842270966040815
 21
2085.7064282573442142
 31
0.0
1001
GRADIENTCOLOR1ACI
1070
     5
1001
GRADIENTCOLOR2ACI
1070
     2
1001
ACAD
1010
0.0
1020
0.0
1030
0.0
  0
LINE
  5
10C7B
  8
0
  6
CONTINUOUS
 10
8546.9596015111637826
 20
2085.5464473328452186
 30
0.0
 11
8547.1054442971289973
 21
2085.6922901188099786
 31
0.0
1001
GRADIENTCOLOR1ACI
1070
     5
1001
GRADIENTCOLOR2ACI
1070
     2
1001
ACAD
1010
0.0
1020
0.0
1030
0.0
  0
LINE
  5
10C7C
  8
0
  6
CONTINUOUS
 10
8546.9606807220716291
 20
2085.5121712046920948
 30
0.0
 11
8547.1276787516690092
 21
2085.6791692342908391
 31
0.0
1001
GRADIENTCOLOR1ACI
1070
     5
1001
GRADIENTCOLOR2ACI
1070
     2
1001
ACAD
1010
0.0
1020
0.0
1030
0.0
  0
LINE
  5
10C7D
  8
0
  6
CONTINUOUS
 10
8546.9665972490583954
 20
2085.4827323926210738
 30
0.0
 11
8547.1509748308617418
 21
2085.667109974423056
 31
0.0
1001
GRADIENTCOLOR1ACI
1070
     5
1001
GRADIENTCOLOR2ACI
1070
     2
1001
ACAD
1010
0.0
1020
0.0
1030
0.0
  0
LINE
  5
10C7E
  8
0
  6
CONTINUOUS
 10
8546.9748831969227467
 20
2085.455663001424
 30
0.0
 11
8547.1753908820937795
 21
2085.6561706865968517
 31
0.0
1001
GRADIENTCOLOR1ACI
1070
     5
1001
GRADIENTCOLOR2ACI
1070
     2
1001
ACAD
1010
0.0
1020
0.0
1030
0.0
  0
LINE
  5
10C7F
  8
0
  6
CONTINUOUS
 10
8546.9851984374017775
 20
2085.430622902847972
 30
0.0
 11
8547.2010026881907834
 21
2085.6464271536351589
 31
0.0
1001
GRADIENTCOLOR1ACI
1070
     5
1001
GRADIENTCOLOR2ACI
1070
     2
1001
ACAD
1010
0.0
1020
0.0
1030
0.0
  0
LINE
  5
10C80
  8
0
  6
CONTINUOUS
 10
8546.9973209602721909
 20
2085.4073900866569602
 30
0.0
 11
8547.2279085504760587
 21
2085.6379776768608281
 31
0.0
1001
GRADIENTCOLOR1ACI
1070
     5
1001
GRADIENTCOLOR2ACI
1070
     2
1001
ACAD
1010
0.0
1020
0.0
1030
0.0
  0
LINE
  5
10C81
  8
0
  6
CONTINUOUS
 10
8547.0111044293644227
 20
2085.3858182166882216
 30
0.0
 11
8547.2562369209190365
 21
2085.6309507082441996
 31
0.0
1001
GRADIENTCOLOR1ACI
1070
     5
1001
GRADIENTCOLOR2ACI
1070
     2
1001
ACAD
1010
0.0
1020
0.0
1030
0.0
  0
LINE
  5
10C82
  8
0
  6
CONTINUOUS
 10
8547.0264556336805981
 20
2085.3658140819461551
 30
0.0
 11
8547.286158237442578
 21
2085.6255166857090444
 31
0.0
1001
GRADIENTCOLOR1ACI
1070
     5
1001
GRADIENTCOLOR2ACI
1070
     2
1001
ACAD
1010
0.0
1020
0.0
1030
0.0
  0
LINE
  5
10C83
  8
0
  6
CONTINUOUS
 10
8547.0433222214614943
 20
2085.3473253306688093
 30
0.0
 11
8547.3179040952327341
 21
2085.6219072044368659
 31
0.0
1001
GRADIENTCOLOR1ACI
1070
     5
1001
GRADIENTCOLOR2ACI
1070
     2
1001
ACAD
1010
0.0
1020
0.0
1030
0.0
  0
LINE
  5
10C84
  8
0
  6
CONTINUOUS
 10
8547.0616864939765946
 20
2085.3303342641229392
 30
0.0
 11
8547.3518001344273216
 21
2085.6204479045750304
 31
0.0
1001
GRADIENTCOLOR1ACI
1070
     5
1001
GRADIENTCOLOR2ACI
1070
     2
1001
ACAD
1010
0.0
1020
0.0
1030
0.0
  0
LINE
  5
10C85
  8
0
  6
CONTINUOUS
 10
8547.0816919598801178
 20
2085.3149843909700394
 30
0.0
 11
8547.3886073957364715
 21
2085.6218998268241194
 31
0.0
1001
GRADIENTCOLOR1ACI
1070
     5
1001
GRADIENTCOLOR2ACI
1070
     2
1001
ACAD
1010
0.0
1020
0.0
1030
0.0
  0
LINE
  5
10C86
  8
0
  6
CONTINUOUS
 10
8547.102786807299708
 20
2085.3007238993259307
 30
0.0
 11
8547.4289148437819676
 21
2085.6268519358100093
 31
0.0
1001
GRADIENTCOLOR1ACI
1070
     5
1001
GRADIENTCOLOR2ACI
1070
     2
1001
ACAD
1010
0.0
1020
0.0
1030
0.0
  0
LINE
  5
10C87
  8
0
  6
CONTINUOUS
 10
8547.1248943020600564
 20
2085.2874760550312203
 30
0.0
 11
8547.4741384793378529
 21
2085.6367202323071979
 31
0.0
1001
GRADIENTCOLOR1ACI
1070
     5
1001
GRADIENTCOLOR2ACI
1070
     2
1001
ACAD
1010
0.0
1020
0.0
1030
0.0
  0
LINE
  5
10C88
  8
0
  6
CONTINUOUS
 10
8547.7464361989532335
 20
2085.9090179519230333
 30
0.0
 11
8547.7470030859640246
 21
2085.9095848389329149
 31
0.0
1001
GRADIENTCOLOR1ACI
1070
     5
1001
GRADIENTCOLOR2ACI
1070
     2
1001
ACAD
1010
0.0
1020
0.0
1030
0.0
  0
LINE
  5
10C89
  8
0
  6
CONTINUOUS
 10
8547.1480572810487502
 20
2085.2752836949580342
 30
0.0
 11
8547.5273732827281492
 21
2085.654599696637888
 31
0.0
1001
GRADIENTCOLOR1ACI
1070
     5
1001
GRADIENTCOLOR2ACI
1070
     2
1001
ACAD
1010
0.0
1020
0.0
1030
0.0
  0
LINE
  5
10C8A
  8
0
  6
CONTINUOUS
 10
8547.7366538107307861
 20
2085.8638802246400701
 30
0.0
 11
8547.7470030859640246
 21
2085.8742294998742182
 31
0.0
1001
GRADIENTCOLOR1ACI
1070
     5
1001
GRADIENTCOLOR2ACI
1070
     2
1001
ACAD
1010
0.0
1020
0.0
1030
0.0
  0
LINE
  5
10C8B
  8
0
  6
CONTINUOUS
 10
8547.1723322162979457
 20
2085.2642032911480783
 30
0.0
 11
8547.5991869392710214
 21
2085.6910580141220635
 31
0.0
1001
GRADIENTCOLOR1ACI
1070
     5
1001
GRADIENTCOLOR2ACI
1070
     2
1001
ACAD
1010
0.0
1020
0.0
1030
0.0
  0
LINE
  5
10C8C
  8
0
  6
CONTINUOUS
 10
8547.7099878348071798
 20
2085.8018589096591313
 30
0.0
 11
8547.7470030859640246
 21
2085.8388741608141572
 31
0.0
1001
GRADIENTCOLOR1ACI
1070
     5
1001
GRADIENTCOLOR2ACI
1070
     2
1001
ACAD
1010
0.0
1020
0.0
1030
0.0
  0
LINE
  5
10C8D
  8
0
  6
CONTINUOUS
 10
8547.1977925170467643
 20
2085.2543082528368359
 30
0.0
 11
8547.7470030859640246
 21
2085.8035188217550058
 31
0.0
1001
GRADIENTCOLOR1ACI
1070
     5
1001
GRADIENTCOLOR2ACI
1070
     2
1001
ACAD
1010
0.0
1020
0.0
1030
0.0
  0
LINE
  5
10C8E
  8
0
  6
CONTINUOUS
 10
8547.2245333737482724
 20
2085.2456937704810116
 30
0.0
 11
8547.7470030859640246
 21
2085.7681634826949448
 31
0.0
1001
GRADIENTCOLOR1ACI
1070
     5
1001
GRADIENTCOLOR2ACI
1070
     2
1001
ACAD
1010
0.0
1020
0.0
1030
0.0
  0
LINE
  5
10C8F
  8
0
  6
CONTINUOUS
 10
8547.2526790078663907
 20
2085.2384840655381595
 30
0.0
 11
8547.7470030859640246
 21
2085.7328081436371576
 31
0.0
1001
GRADIENTCOLOR1ACI
1070
     5
1001
GRADIENTCOLOR2ACI
1070
     2
1001
ACAD
1010
0.0
1020
0.0
1030
0.0
  0
LINE
  5
10C90
  8
0
  6
CONTINUOUS
 10
8547.2823938633082435
 20
2085.232843581922225
 30
0.0
 11
8547.7470030859640246
 21
2085.6974528045770967
 31
0.0
1001
GRADIENTCOLOR1ACI
1070
     5
1001
GRADIENTCOLOR2ACI
1070
     2
1001
ACAD
1010
0.0
1020
0.0
1030
0.0
  0
LINE
  5
10C91
  8
0
  6
CONTINUOUS
 10
8547.3139006259261805
 20
2085.2289950054801011
 30
0.0
 11
8547.7470030859640246
 21
2085.6620974655179452
 31
0.0
1001
GRADIENTCOLOR1ACI
1070
     5
1001
GRADIENTCOLOR2ACI
1070
     2
1001
ACAD
1010
0.0
1020
0.0
1030
0.0
  0
LINE
  5
10C92
  8
0
  6
CONTINUOUS
 10
8547.3475108916281897
 20
2085.2272499321229589
 30
0.0
 11
8547.7470030859640246
 21
2085.6267421264578843
 31
0.0
1001
GRADIENTCOLOR1ACI
1070
     5
1001
GRADIENTCOLOR2ACI
1070
     2
1001
ACAD
1010
0.0
1020
0.0
1030
0.0
  0
LINE
  5
10C93
  8
0
  6
CONTINUOUS
 10
8547.3839218281427748
 20
2085.2283055295779377
 30
0.0
 11
8547.7470030859640246
 21
2085.5913867873991876
 31
0.0
1001
GRADIENTCOLOR1ACI
1070
     5
1001
GRADIENTCOLOR2ACI
1070
     2
1001
ACAD
1010
0.0
1020
0.0
1030
0.0
  0
LINE
  5
10C94
  8
0
  6
CONTINUOUS
 10
8547.4237420538356673
 20
2085.2327704162098598
 30
0.0
 11
8547.7470030859640246
 21
2085.5560314483391267
 31
0.0
1001
GRADIENTCOLOR1ACI
1070
     5
1001
GRADIENTCOLOR2ACI
1070
     2
1001
ACAD
1010
0.0
1020
0.0
1030
0.0
  0
LINE
  5
10C95
  8
0
  6
CONTINUOUS
 10
8547.4682476792604575
 20
2085.2419207025768628
 30
0.0
 11
8547.7470030859640246
 21
2085.5206761092808847
 31
0.0
1001
GRADIENTCOLOR1ACI
1070
     5
1001
GRADIENTCOLOR2ACI
1070
     2
1001
ACAD
1010
0.0
1020
0.0
1030
0.0
  0
LINE
  5
10C96
  8
0
  6
CONTINUOUS
 10
8547.5202094997584936
 20
2085.2585271840162022
 30
0.0
 11
8547.7384130389891652
 21
2085.4767307232491476
 31
0.0
1001
GRADIENTCOLOR1ACI
1070
     5
1001
GRADIENTCOLOR2ACI
1070
     2
1001
ACAD
1010
0.0
1020
0.0
1030
0.0
  0
LINE
  5
10C97
  8
0
  6
CONTINUOUS
 10
8547.5882785956764565
 20
2085.2912409408750136
 30
0.0
 11
8547.7152650564967189
 21
2085.4182274016948213
 31
0.0
1001
GRADIENTCOLOR1ACI
1070
     5
1001
GRADIENTCOLOR2ACI
1070
     2
1001
ACAD
1010
0.0
1020
0.0
1030
0.0
  0
LINE
  5
10C98
  8
0
  6
CONTINUOUS
 10
8547.0670972795487614
 20
2085.3258728381470064
 30
0.0
 11
8547.02320136337039
 21
2085.3697687543231041
 31
0.0
1001
GRADIENTCOLOR1ACI
1070
     5
1001
GRADIENTCOLOR2ACI
1070
     2
1001
ACAD
1010
0.0
1020
0.0
1030
0.0
  0
LINE
  5
10C99
  8
0
  6
CONTINUOUS
 10
8547.1575945525582938
 20
2085.270730904193897
 30
0.0
 11
8546.9761677154674544
 21
2085.4521577412861006
 31
0.0
1001
GRADIENTCOLOR1ACI
1070
     5
1001
GRADIENTCOLOR2ACI
1070
     2
1001
ACAD
1010
0.0
1020
0.0
1030
0.0
  0
LINE
  5
10C9A
  8
0
  6
CONTINUOUS
 10
8547.2151715977543063
 20
2085.248509198057036
 30
0.0
 11
8546.9625323910750012
 21
2085.50114840473816
 31
0.0
1001
GRADIENTCOLOR1ACI
1070
     5
1001
GRADIENTCOLOR2ACI
1070
     2
1001
ACAD
1010
0.0
1020
0.0
1030
0.0
  0
LINE
  5
10C9B
  8
0
  6
CONTINUOUS
 10
8547.2626705314123683
 20
2085.2363656034599444
 30
0.0
 11
8546.9596015111637826
 21
2085.5394346237080754
 31
0.0
1001
GRADIENTCOLOR1ACI
1070
     5
1001
GRADIENTCOLOR2ACI
1070
     2
1001
ACAD
1010
0.0
1020
0.0
1030
0.0
  0
LINE
  5
10C9C
  8
0
  6
CONTINUOUS
 10
8547.3044710727263009
 20
2085.2299204012069822
 30
0.0
 11
8546.9596015111637826
 21
2085.5747899627672268
 31
0.0
1001
GRADIENTCOLOR1ACI
1070
     5
1001
GRADIENTCOLOR2ACI
1070
     2
1001
ACAD
1010
0.0
1020
0.0
1030
0.0
  0
LINE
  5
10C9D
  8
0
  6
CONTINUOUS
 10
8547.3423868184254388
 20
2085.2273599945619935
 30
0.0
 11
8546.9596015111637826
 21
2085.6101453018259235
 31
0.0
1001
GRADIENTCOLOR1ACI
1070
     5
1001
GRADIENTCOLOR2ACI
1070
     2
1001
ACAD
1010
0.0
1020
0.0
1030
0.0
  0
LINE
  5
10C9E
  8
0
  6
CONTINUOUS
 10
8547.3772118500091892
 20
2085.2278903020401231
 30
0.0
 11
8546.9596015111637826
 21
2085.6455006408859845
 31
0.0
1001
GRADIENTCOLOR1ACI
1070
     5
1001
GRADIENTCOLOR2ACI
1070
     2
1001
ACAD
1010
0.0
1020
0.0
1030
0.0
  0
LINE
  5
10C9F
  8
0
  6
CONTINUOUS
 10
8547.409660148086914
 20
2085.230797343021095
 30
0.0
 11
8546.9596015111637826
 21
2085.6808559799451359
 31
0.0
1001
GRADIENTCOLOR1ACI
1070
     5
1001
GRADIENTCOLOR2ACI
1070
     2
1001
ACAD
1010
0.0
1020
0.0
1030
0.0
  0
LINE
  5
10CA0
  8
0
  6
CONTINUOUS
 10
8547.440183943055672
 20
2085.2356288871128527
 30
0.0
 11
8546.9596015111637826
 21
2085.7162113190038326
 31
0.0
1001
GRADIENTCOLOR1ACI
1070
     5
1001
GRADIENTCOLOR2ACI
1070
     2
1001
ACAD
1010
0.0
1020
0.0
1030
0.0
  0
LINE
  5
10CA1
  8
0
  6
CONTINUOUS
 10
8547.4690427116838691
 20
2085.242125457543807
 30
0.0
 11
8546.9596015111637826
 21
2085.7515666580638936
 31
0.0
1001
GRADIENTCOLOR1ACI
1070
     5
1001
GRADIENTCOLOR2ACI
1070
     2
1001
ACAD
1010
0.0
1020
0.0
1030
0.0
  0
LINE
  5
10CA2
  8
0
  6
CONTINUOUS
 10
8547.4964254099068057
 20
2085.2500980983800218
 30
0.0
 11
8546.9596015111637826
 21
2085.786921997123045
 31
0.0
1001
GRADIENTCOLOR1ACI
1070
     5
1001
GRADIENTCOLOR2ACI
1070
     2
1001
ACAD
1010
0.0
1020
0.0
1030
0.0
  0
LINE
  5
10CA3
  8
0
  6
CONTINUOUS
 10
8547.5224734206658468
 20
2085.2594054266810417
 30
0.0
 11
8546.9596015111637826
 21
2085.8222773361831059
 31
0.0
1001
GRADIENTCOLOR1ACI
1070
     5
1001
GRADIENTCOLOR2ACI
1070
     2
1001
ACAD
1010
0.0
1020
0.0
1030
0.0
  0
LINE
  5
10CA4
  8
0
  6
CONTINUOUS
 10
8547.547294465946834
 20
2085.269939720461025
 30
0.0
 11
8547.1493227348983055
 21
2085.667911451506825
 31
0.0
1001
GRADIENTCOLOR1ACI
1070
     5
1001
GRADIENTCOLOR2ACI
1070
     2
1001
ACAD
1010
0.0
1020
0.0
1030
0.0
  0
LINE
  5
10CA5
  8
0
  6
CONTINUOUS
 10
8546.9789224859850947
 20
2085.8383117004200358
 30
0.0
 11
8546.9596015111637826
 21
2085.8576326752418026
 31
0.0
1001
GRADIENTCOLOR1ACI
1070
     5
1001
GRADIENTCOLOR2ACI
1070
     2
1001
ACAD
1010
0.0
1020
0.0
1030
0.0
  0
LINE
  5
10CA6
  8
0
  6
CONTINUOUS
 10
8547.5709714555505343
 20
2085.2816180699151118
 30
0.0
 11
8547.2087919041478017
 21
2085.6437976213178445
 31
0.0
1001
GRADIENTCOLOR1ACI
1070
     5
1001
GRADIENTCOLOR2ACI
1070
     2
1001
ACAD
1010
0.0
1020
0.0
1030
0.0
  0
LINE
  5
10CA7
  8
0
  6
CONTINUOUS
 10
8546.9635977231046127
 20
2085.8889918023610335
 30
0.0
 11
8546.9596015111637826
 21
2085.8929880143009541
 31
0.0
1001
GRADIENTCOLOR1ACI
1070
     5
1001
GRADIENTCOLOR2ACI
1070
     2
1001
ACAD
1010
0.0
1020
0.0
1030
0.0
  0
LINE
  5
10CA8
  8
0
  6
CONTINUOUS
 10
8547.5935683219959174
 20
2085.2943765425288802
 30
0.0
 11
8547.2572005575893854
 21
2085.6307443069358669
 31
0.0
1001
GRADIENTCOLOR1ACI
1070
     5
1001
GRADIENTCOLOR2ACI
1070
     2
1001
ACAD
1010
0.0
1020
0.0
1030
0.0
  0
LINE
  5
10CA9
  8
0
  6
CONTINUOUS
 10
8547.6151339663902036
 20
2085.3081662371942002
 30
0.0
 11
8547.2995764517672797
 21
2085.6237237518148504
 31
0.0
1001
GRADIENTCOLOR1ACI
1070
     5
1001
GRADIENTCOLOR2ACI
1070
     2
1001
ACAD
1010
0.0
1020
0.0
1030
0.0
  0
LINE
  5
10CAA
  8
0
  6
CONTINUOUS
 10
8547.6357049634370924
 20
2085.3229505792060081
 30
0.0
 11
8547.3379063459960889
 21
2085.6207491966461021
 31
0.0
1001
GRADIENTCOLOR1ACI
1070
     5
1001
GRADIENTCOLOR2ACI
1070
     2
1001
ACAD
1010
0.0
1020
0.0
1030
0.0
  0
LINE
  5
10CAB
  8
0
  6
CONTINUOUS
 10
8547.6548483116148418
 20
2085.3391625700878649
 30
0.0
 11
8547.3730811887544405
 21
2085.6209296929469019
 31
0.0
1001
GRADIENTCOLOR1ACI
1070
     5
1001
GRADIENTCOLOR2ACI
1070
     2
1001
ACAD
1010
0.0
1020
0.0
1030
0.0
  0
LINE
  5
10CAC
  8
0
  6
CONTINUOUS
 10
8547.6724181639474409
 20
2085.356948056813053
 30
0.0
 11
8547.4057882997858542
 21
2085.6235779209750945
 31
0.0
1001
GRADIENTCOLOR1ACI
1070
     5
1001
GRADIENTCOLOR2ACI
1070
     2
1001
ACAD
1010
0.0
1020
0.0
1030
0.0
  0
LINE
  5
10CAD
  8
0
  6
CONTINUOUS
 10
8547.6884850480892055
 20
2085.3762365117318041
 30
0.0
 11
8547.4365325227154244
 21
2085.6281890371060399
 31
0.0
1001
GRADIENTCOLOR1ACI
1070
     5
1001
GRADIENTCOLOR2ACI
1070
     2
1001
ACAD
1010
0.0
1020
0.0
1030
0.0
  0
LINE
  5
10CAE
  8
0
  6
CONTINUOUS
 10
8547.7030133698244754
 20
2085.3970635290547762
 30
0.0
 11
8547.465584275780202
 21
2085.634492623099959
 31
0.0
1001
GRADIENTCOLOR1ACI
1070
     5
1001
GRADIENTCOLOR2ACI
1070
     2
1001
ACAD
1010
0.0
1020
0.0
1030
0.0
  0
LINE
  5
10CAF
  8
0
  6
CONTINUOUS
 10
8547.7159301934734685
 20
2085.4195020444658439
 30
0.0
 11
8547.4931396877291263
 21
2085.6422925502101862
 31
0.0
1001
GRADIENTCOLOR1ACI
1070
     5
1001
GRADIENTCOLOR2ACI
1070
     2
1001
ACAD
1010
0.0
1020
0.0
1030
0.0
  0
LINE
  5
10CB0
  8
0
  6
CONTINUOUS
 10
8547.7271161622211366
 20
2085.443671414777782
 30
0.0
 11
8547.519345096703546
 21
2085.6514424802958274
 31
0.0
1001
GRADIENTCOLOR1ACI
1070
     5
1001
GRADIENTCOLOR2ACI
1070
     2
1001
ACAD
1010
0.0
1020
0.0
1030
0.0
  0
LINE
  5
10CB1
  8
0
  6
CONTINUOUS
 10
8547.7363885364466114
 20
2085.4697543796119135
 30
0.0
 11
8547.5443118013172352
 21
2085.6618311147408349
 31
0.0
1001
GRADIENTCOLOR1ACI
1070
     5
1001
GRADIENTCOLOR2ACI
1070
     2
1001
ACAD
1010
0.0
1020
0.0
1030
0.0
  0
LINE
  5
10CB2
  8
0
  6
CONTINUOUS
 10
8547.7434698619817937
 20
2085.4980283931349732
 30
0.0
 11
8547.568125394431263
 21
2085.6733728606868681
 31
0.0
1001
GRADIENTCOLOR1ACI
1070
     5
1001
GRADIENTCOLOR2ACI
1070
     2
1001
ACAD
1010
0.0
1020
0.0
1030
0.0
  0
LINE
  5
10CB3
  8
0
  6
CONTINUOUS
 10
8547.7470030859640246
 20
2085.5298505082128031
 30
0.0
 11
8547.5908518942651426
 21
2085.6860016999107756
 31
0.0
1001
GRADIENTCOLOR1ACI
1070
     5
1001
GRADIENTCOLOR2ACI
1070
     2
1001
ACAD
1010
0.0
1020
0.0
1030
0.0
  0
LINE
  5
10CB4
  8
0
  6
CONTINUOUS
 10
8547.7470030859640246
 20
2085.5652058472719546
 30
0.0
 11
8547.6125418802294007
 21
2085.6996670530061238
 31
0.0
1001
GRADIENTCOLOR1ACI
1070
     5
1001
GRADIENTCOLOR2ACI
1070
     2
1001
ACAD
1010
0.0
1020
0.0
1030
0.0
  0
LINE
  5
10CB5
  8
0
  6
CONTINUOUS
 10
8547.7470030859640246
 20
2085.6005611863320155
 30
0.0
 11
8547.6332333254213154
 21
2085.7143309468738153
 31
0.0
1001
GRADIENTCOLOR1ACI
1070
     5
1001
GRADIENTCOLOR2ACI
1070
     2
1001
ACAD
1010
0.0
1020
0.0
1030
0.0
  0
LINE
  5
10CB6
  8
0
  6
CONTINUOUS
 10
8547.7470030859640246
 20
2085.6359165253911669
 30
0.0
 11
8547.6525893014295434
 21
2085.7303303099251934
 31
0.0
1001
GRADIENTCOLOR1ACI
1070
     5
1001
GRADIENTCOLOR2ACI
1070
     2
1001
ACAD
1010
0.0
1020
0.0
1030
0.0
  0
LINE
  5
10CB7
  8
0
  6
CONTINUOUS
 10
8547.7470030859640246
 20
2085.6712718644498636
 30
0.0
 11
8547.6703427644406474
 21
2085.7479321859727861
 31
0.0
1001
GRADIENTCOLOR1ACI
1070
     5
1001
GRADIENTCOLOR2ACI
1070
     2
1001
ACAD
1010
0.0
1020
0.0
1030
0.0
  0
LINE
  5
10CB8
  8
0
  6
CONTINUOUS
 10
8547.7470030859640246
 20
2085.7066272035099246
 30
0.0
 11
8547.6865952971766092
 21
2085.7670349922968853
 31
0.0
1001
GRADIENTCOLOR1ACI
1070
     5
1001
GRADIENTCOLOR2ACI
1070
     2
1001
ACAD
1010
0.0
1020
0.0
1030
0.0
  0
LINE
  5
10CB9
  8
0
  6
CONTINUOUS
 10
8547.7470030859640246
 20
2085.741982542569076
 30
0.0
 11
8547.7013155226377421
 21
2085.7876701058949038
 31
0.0
1001
GRADIENTCOLOR1ACI
1070
     5
1001
GRADIENTCOLOR2ACI
1070
     2
1001
ACAD
1010
0.0
1020
0.0
1030
0.0
  0
LINE
  5
10CBA
  8
0
  6
CONTINUOUS
 10
8547.7470030859640246
 20
2085.7773378816277727
 30
0.0
 11
8547.7144354570991709
 21
2085.8099055104939907
 31
0.0
1001
GRADIENTCOLOR1ACI
1070
     5
1001
GRADIENTCOLOR2ACI
1070
     2
1001
ACAD
1010
0.0
1020
0.0
1030
0.0
  0
LINE
  5
10CBB
  8
0
  6
CONTINUOUS
 10
8547.7470030859640246
 20
2085.8126932206878337
 30
0.0
 11
8547.7258421529259067
 21
2085.8338541537259516
 31
0.0
1001
GRADIENTCOLOR1ACI
1070
     5
1001
GRADIENTCOLOR2ACI
1070
     2
1001
ACAD
1010
0.0
1020
0.0
1030
0.0
  0
LINE
  5
10CBC
  8
0
  6
CONTINUOUS
 10
8547.7470030859640246
 20
2085.8480485597469851
 30
0.0
 11
8547.7353619519381027
 21
2085.8596896937719976
 31
0.0
1001
GRADIENTCOLOR1ACI
1070
     5
1001
GRADIENTCOLOR2ACI
1070
     2
1001
ACAD
1010
0.0
1020
0.0
1030
0.0
  0
LINE
  5
10CBD
  8
0
  6
CONTINUOUS
 10
8547.7470030859640246
 20
2085.8834038988061366
 30
0.0
 11
8547.7427314804372145
 21
2085.8876755043329467
 31
0.0
1001
GRADIENTCOLOR1ACI
1070
     5
1001
GRADIENTCOLOR2ACI
1070
     2
1001
ACAD
1010
0.0
1020
0.0
1030
0.0
  0
LINE
  5
10CBE
  8
0
 10
8546.9596015111637826
 20
2085.5201860376650984
 30
0.0
 11
8546.9596015111637826
 21
2087.1310400421511986
 31
0.0
  0
LINE
  5
10CBF
  8
0
  6
CONTINUOUS
 10
8546.7528041032601323
 20
2090.8020498096079791
 30
0.0
 11
8546.9770006618309708
 21
2091.0262463681779082
 31
0.0
1001
GRADIENTCOLOR1ACI
1070
     5
1001
GRADIENTCOLOR2ACI
1070
     2
1001
ACAD
1010
0.0
1020
0.0
1030
0.0
  0
LINE
  5
10CC0
  8
0
  6
CONTINUOUS
 10
8546.7189723768369731
 20
2090.7417015788901153
 30
0.0
 11
8547.0373488925488346
 21
2091.0600780946010673
 31
0.0
1001
GRADIENTCOLOR1ACI
1070
     5
1001
GRADIENTCOLOR2ACI
1070
     2
1001
ACAD
1010
0.0
1020
0.0
1030
0.0
  0
LINE
  5
10CC1
  8
0
  6
CONTINUOUS
 10
8546.6970887137831596
 20
2090.6933014115438709
 30
0.0
 11
8547.0857490598955337
 21
2091.0819617576530618
 31
0.0
1001
GRADIENTCOLOR1ACI
1070
     5
1001
GRADIENTCOLOR2ACI
1070
     2
1001
ACAD
1010
0.0
1020
0.0
1030
0.0
  0
LINE
  5
10CC2
  8
0
  6
CONTINUOUS
 10
8546.6814374284094811
 20
2090.6511336218709403
 30
0.0
 11
8547.1279168495675549
 21
2091.0976130430321973
 31
0.0
1001
GRADIENTCOLOR1ACI
1070
     5
1001
GRADIENTCOLOR2ACI
1070
     2
1001
ACAD
1010
0.0
1020
0.0
1030
0.0
  0
LINE
  5
10CC3
  8
0
  6
CONTINUOUS
 10
8546.6698302559616423
 20
2090.613009945127942
 30
0.0
 11
8547.1660405263100984
 21
2091.1092202154800361
 31
0.0
1001
GRADIENTCOLOR1ACI
1070
     5
1001
GRADIENTCOLOR2ACI
1070
     2
1001
ACAD
1010
0.0
1020
0.0
1030
0.0
  0
LINE
  5
10CC4
  8
0
  6
CONTINUOUS
 10
8546.6611477484402712
 20
2090.5778109333141401
 30
0.0
 11
8547.201239538122536
 21
2091.1179027229991334
 31
0.0
1001
GRADIENTCOLOR1ACI
1070
     5
1001
GRADIENTCOLOR2ACI
1070
     2
1001
ACAD
1010
0.0
1020
0.0
1030
0.0
  0
LINE
  5
10CC5
  8
0
  6
CONTINUOUS
 10
8546.6547246960817574
 20
2090.5448713766618312
 30
0.0
 11
8547.2341790947775735
 21
2091.1243257753571925
 31
0.0
1001
GRADIENTCOLOR1ACI
1070
     5
1001
GRADIENTCOLOR2ACI
1070
     2
1001
ACAD
1010
0.0
1020
0.0
1030
0.0
  0
LINE
  5
10CC6
  8
0
  6
CONTINUOUS
 10
8546.6501270656917768
 20
2090.5137572419771459
 30
0.0
 11
8546.9020584922018315
 21
2090.7656886684890196
 31
0.0
1001
GRADIENTCOLOR1ACI
1070
     5
1001
GRADIENTCOLOR2ACI
1070
     2
1001
ACAD
1010
0.0
1020
0.0
1030
0.0
  0
LINE
  5
10CC7
  8
0
  6
CONTINUOUS
 10
8547.013361802950385
 20
2090.8769919792362089
 30
0.0
 11
8547.2652932294622588
 21
2091.1289234057480826
 31
0.0
1001
GRADIENTCOLOR1ACI
1070
     5
1001
GRADIENTCOLOR2ACI
1070
     2
1001
ACAD
1010
0.0
1020
0.0
1030
0.0
  0
LINE
  5
10CC8
  8
0
  6
CONTINUOUS
 10
8546.6470528366808139
 20
2090.4841665086701141
 30
0.0
 11
8546.8551623270595883
 21
2090.6922759990488885
 31
0.0
1001
GRADIENTCOLOR1ACI
1070
     5
1001
GRADIENTCOLOR2ACI
1070
     2
1001
ACAD
1010
0.0
1020
0.0
1030
0.0
  0
LINE
  5
10CC9
  8
0
  6
CONTINUOUS
 10
8547.0867744723873329
 20
2090.9238881443811806
 30
0.0
 11
8547.2948839627679263
 21
2091.131997634759955
 31
0.0
1001
GRADIENTCOLOR1ACI
1070
     5
1001
GRADIENTCOLOR2ACI
1070
     2
1001
ACAD
1010
0.0
1020
0.0
1030
0.0
  0
LINE
  5
10CCA
  8
0
  6
CONTINUOUS
 10
8546.6452817165154556
 20
2090.4558788842118702
 30
0.0
 11
8546.8313429585377889
 21
2090.6419401262360225
 31
0.0
1001
GRADIENTCOLOR1ACI
1070
     5
1001
GRADIENTCOLOR2ACI
1070
     2
1001
ACAD
1010
0.0
1020
0.0
1030
0.0
  0
LINE
  5
10CCB
  8
0
  6
CONTINUOUS
 10
8547.1371103452038369
 20
2090.9477075128997967
 30
0.0
 11
8547.3231715872261702
 21
2091.1337687549230395
 31
0.0
1001
GRADIENTCOLOR1ACI
1070
     5
1001
GRADIENTCOLOR2ACI
1070
     2
1001
ACAD
1010
0.0
1020
0.0
1030
0.0
  0
LINE
  5
10CCC
  8
0
  6
CONTINUOUS
 10
8546.6446471453764389
 20
2090.4287278087781488
 30
0.0
 11
8546.8158692703091219
 21
2090.5999499337121961
 31
0.0
1001
GRADIENTCOLOR1ACI
1070
     5
1001
GRADIENTCOLOR2ACI
1070
     2
1001
ACAD
1010
0.0
1020
0.0
1030
0.0
  0
LINE
  5
10CCD
  8
0
  6
CONTINUOUS
 10
8547.1791005377272086
 20
2090.963181201129828
 30
0.0
 11
8547.3503226626598916
 21
2091.1344033260629658
 31
0.0
1001
GRADIENTCOLOR1ACI
1070
     5
1001
GRADIENTCOLOR2ACI
1070
     2
1001
ACAD
1010
0.0
1020
0.0
1030
0.0
  0
LINE
  5
10CCE
  8
0
  6
CONTINUOUS
 10
8546.6450195772922598
 20
2090.4025837363988103
 30
0.0
 11
8546.8052109430500423
 21
2090.562775102157957
 31
0.0
1001
GRADIENTCOLOR1ACI
1070
     5
1001
GRADIENTCOLOR2ACI
1070
     2
1001
ACAD
1010
0.0
1020
0.0
1030
0.0
  0
LINE
  5
10CCF
  8
0
  6
CONTINUOUS
 10
8547.2162753692809929
 20
2090.9738395283879981
 30
0.0
 11
8547.3764667350387754
 21
2091.1340308941471449
 31
0.0
1001
GRADIENTCOLOR1ACI
1070
     5
1001
GRADIENTCOLOR2ACI
1070
     2
1001
ACAD
1010
0.0
1020
0.0
1030
0.0
  0
LINE
  5
10CD0
  8
0
  6
CONTINUOUS
 10
8546.6462959332857281
 20
2090.3773435880998477
 30
0.0
 11
8546.7978351412693883
 21
2090.5288827960830531
 31
0.0
1001
GRADIENTCOLOR1ACI
1070
     5
1001
GRADIENTCOLOR2ACI
1070
     2
1001
ACAD
1010
0.0
1020
0.0
1030
0.0
  0
LINE
  5
10CD1
  8
0
  6
CONTINUOUS
 10
8547.2501676753563515
 20
2090.9812153301700164
 30
0.0
 11
8547.4017068833400117
 21
2091.1327545381518576
 31
0.0
1001
GRADIENTCOLOR1ACI
1070
     5
1001
GRADIENTCOLOR2ACI
1070
     2
1001
ACAD
1010
0.0
1020
0.0
1030
0.0
  0
LINE
  5
10CD2
  8
0
  6
CONTINUOUS
 10
8546.6483926483761024
 20
2090.3529237988977911
 30
0.0
 11
8546.792908872515909
 21
2090.4974400230339597
 31
0.0
1001
GRADIENTCOLOR1ACI
1070
     5
1001
GRADIENTCOLOR2ACI
1070
     2
1001
ACAD
1010
0.0
1020
0.0
1030
0.0
  0
LINE
  5
10CD3
  8
0
  6
CONTINUOUS
 10
8547.2816104484063544
 20
2090.9861415989230409
 30
0.0
 11
8547.426126672540704
 21
2091.1306578230610285
 31
0.0
1001
GRADIENTCOLOR1ACI
1070
     5
1001
GRADIENTCOLOR2ACI
1070
     2
1001
ACAD
1010
0.0
1020
0.0
1030
0.0
  0
LINE
  5
10CD4
  8
0
  6
CONTINUOUS
 10
8546.6512409187726007
 20
2090.3292555649968563
 30
0.0
 11
8546.789918848353409
 21
2090.4679334945790288
 31
0.0
1001
GRADIENTCOLOR1ACI
1070
     5
1001
GRADIENTCOLOR2ACI
1070
     2
1001
ACAD
1010
0.0
1020
0.0
1030
0.0
  0
LINE
  5
10CD5
  8
0
  6
CONTINUOUS
 10
8547.3111169768599211
 20
2090.9891316230850862
 30
0.0
 11
8547.4497949064425484
 21
2091.1278095526658944
 31
0.0
1001
GRADIENTCOLOR1ACI
1070
     5
1001
GRADIENTCOLOR2ACI
1070
     2
1001
ACAD
1010
0.0
1020
0.0
1030
0.0
  0
LINE
  5
10CD6
  8
0
  6
CONTINUOUS
 10
8546.6547833530494245
 20
2090.3062814949798849
 30
0.0
 11
8546.7885219649506325
 21
2090.4400201068801834
 31
0.0
1001
GRADIENTCOLOR1ACI
1070
     5
1001
GRADIENTCOLOR2ACI
1070
     2
1001
ACAD
1010
0.0
1020
0.0
1030
0.0
  0
LINE
  5
10CD7
  8
0
  6
CONTINUOUS
 10
8547.3390303645592212
 20
2090.9905285064892269
 30
0.0
 11
8547.4727689764604293
 21
2091.1242671183890707
 31
0.0
1001
GRADIENTCOLOR1ACI
1070
     5
1001
GRADIENTCOLOR2ACI
1070
     2
1001
ACAD
1010
0.0
1020
0.0
1030
0.0
  0
LINE
  5
10CD8
  8
0
  6
CONTINUOUS
 10
8546.6589715511163377
 20
2090.2839531887539124
 30
0.0
 11
8546.7883416686636338
 21
2090.4133233062989348
 31
0.0
1001
GRADIENTCOLOR1ACI
1070
     5
1001
GRADIENTCOLOR2ACI
1070
     2
1001
ACAD
1010
0.0
1020
0.0
1030
0.0
  0
LINE
  5
10CD9
  8
0
  6
CONTINUOUS
 10
8547.3655934476573748
 20
2090.9905750852931305
 30
0.0
 11
8547.4950972826845828
 21
2091.1200789203207933
 31
0.0
1001
GRADIENTCOLOR1ACI
1070
     5
1001
GRADIENTCOLOR2ACI
1070
     2
1001
ACAD
1010
0.0
1020
0.0
1030
0.0
  0
LINE
  5
10CDA
  8
0
  6
CONTINUOUS
 10
8546.6637643148114876
 20
2090.2622294481529934
 30
0.0
 11
8546.7883416686636338
 21
2090.3868068020051396
 31
0.0
1001
GRADIENTCOLOR1ACI
1070
     5
1001
GRADIENTCOLOR2ACI
1070
     2
1001
ACAD
1010
0.0
1020
0.0
1030
0.0
  0
LINE
  5
10CDB
  8
0
  6
CONTINUOUS
 10
8547.3909855213933042
 20
2090.9894506547339006
 30
0.0
 11
8547.5168210232859565
 21
2091.1152861566260981
 31
0.0
1001
GRADIENTCOLOR1ACI
1070
     5
1001
GRADIENTCOLOR2ACI
1070
     2
1001
ACAD
1010
0.0
1020
0.0
1030
0.0
  0
LINE
  5
10CDC
  8
0
  6
CONTINUOUS
 10
8546.6691262997865124
 20
2090.2410749288319494
 30
0.0
 11
8546.7883416686636338
 21
2090.3602902977099802
 31
0.0
1001
GRADIENTCOLOR1ACI
1070
     5
1001
GRADIENTCOLOR2ACI
1070
     2
1001
ACAD
1010
0.0
1020
0.0
1030
0.0
  0
LINE
  5
10CDD
  8
0
  6
CONTINUOUS
 10
8547.4153433299743483
 20
2090.9872919590211495
 30
0.0
 11
8547.5379755426074553
 21
2091.1099241716538017
 31
0.0
1001
GRADIENTCOLOR1ACI
1070
     5
1001
GRADIENTCOLOR2ACI
1070
     2
1001
ACAD
1010
0.0
1020
0.0
1030
0.0
  0
LINE
  5
10CDE
  8
0
  6
CONTINUOUS
 10
8546.6750269827698503
 20
2090.2204591075210374
 30
0.0
 11
8546.7883416686636338
 21
2090.3337737934148208
 31
0.0
1001
GRADIENTCOLOR1ACI
1070
     5
1001
GRADIENTCOLOR2ACI
1070
     2
1001
ACAD
1010
0.0
1020
0.0
1030
0.0
  0
LINE
  5
10CDF
  8
0
  6
CONTINUOUS
 10
8547.4387738583518512
 20
2090.9842059831030383
 30
0.0
 11
8547.558591363915184
 21
2091.1040234886690996
 31
0.0
1001
GRADIENTCOLOR1ACI
1070
     5
1001
GRADIENTCOLOR2ACI
1070
     2
1001
ACAD
1010
0.0
1020
0.0
1030
0.0
  0
LINE
  5
10CE0
  8
0
  6
CONTINUOUS
 10
8546.6814398587612231
 20
2090.2003554792199793
 30
0.0
 11
8546.7883416686636338
 21
2090.3072572891210257
 31
0.0
1001
GRADIENTCOLOR1ACI
1070
     5
1001
GRADIENTCOLOR2ACI
1070
     2
1001
ACAD
1010
0.0
1020
0.0
1030
0.0
  0
LINE
  5
10CE1
  8
0
  6
CONTINUOUS
 10
8547.4613625327783666
 20
2090.980278153234849
 30
0.0
 11
8547.5786949922185158
 21
2091.0976106126768173
 31
0.0
1001
GRADIENTCOLOR1ACI
1070
     5
1001
GRADIENTCOLOR2ACI
1070
     2
1001
ACAD
1010
0.0
1020
0.0
1030
0.0
  0
LINE
  5
10CE2
  8
0
  6
CONTINUOUS
 10
8546.6883418088582403
 20
2090.1807409250209275
 30
0.0
 11
8546.7883416686636338
 21
2090.2807407848267758
 31
0.0
1001
GRADIENTCOLOR1ACI
1070
     5
1001
GRADIENTCOLOR2ACI
1070
     2
1001
ACAD
1010
0.0
1020
0.0
1030
0.0
  0
LINE
  5
10CE3
  8
0
  6
CONTINUOUS
 10
8547.4831786978284072
 20
2090.9755778139920039
 30
0.0
 11
8547.5983095464198414
 21
2091.0907086625798001
 31
0.0
1001
GRADIENTCOLOR1ACI
1070
     5
1001
GRADIENTCOLOR2ACI
1070
     2
1001
ACAD
1010
0.0
1020
0.0
1030
0.0
  0
LINE
  5
10CE4
  8
0
  6
CONTINUOUS
 10
8546.6957125967965112
 20
2090.1615952086658581
 30
0.0
 11
8546.7883416686636338
 21
2090.2542242805320711
 31
0.0
1001
GRADIENTCOLOR1ACI
1070
     5
1001
GRADIENTCOLOR2ACI
1070
     2
1001
ACAD
1010
0.0
1020
0.0
1030
0.0
  0
LINE
  5
10CE5
  8
0
  6
CONTINUOUS
 10
8547.5042794000655704
 20
2090.9701620119340078
 30
0.0
 11
8547.6174552627726371
 21
2091.0833378746410744
 31
0.0
1001
GRADIENTCOLOR1ACI
1070
     5
1001
GRADIENTCOLOR2ACI
1070
     2
1001
ACAD
1010
0.0
1020
0.0
1030
0.0
  0
LINE
  5
10CE6
  8
0
  6
CONTINUOUS
 10
8546.7035344640135008
 20
2090.1429005715881431
 30
0.0
 11
8546.7883416686636338
 21
2090.2277077762378212
 31
0.0
1001
GRADIENTCOLOR1ACI
1070
     5
1001
GRADIENTCOLOR2ACI
1070
     2
1001
ACAD
1010
0.0
1020
0.0
1030
0.0
  0
LINE
  5
10CE7
  8
0
  6
CONTINUOUS
 10
8547.524712076787182
 20
2090.9640781843609147
 30
0.0
 11
8547.6361498998485331
 21
2091.0755160074249943
 31
0.0
1001
GRADIENTCOLOR1ACI
1070
     5
1001
GRADIENTCOLOR2ACI
1070
     2
1001
ACAD
1010
0.0
1020
0.0
1030
0.0
  0
LINE
  5
10CE8
  8
0
  6
CONTINUOUS
 10
8546.7117918011099391
 20
2090.1246414043898767
 30
0.0
 11
8546.7883416686636338
 21
2090.2011912719431166
 31
0.0
1001
GRADIENTCOLOR1ACI
1070
     5
1001
GRADIENTCOLOR2ACI
1070
     2
1001
ACAD
1010
0.0
1020
0.0
1030
0.0
  0
LINE
  5
10CE9
  8
0
  6
CONTINUOUS
 10
8547.5445165128512599
 20
2090.9573661161311975
 30
0.0
 11
8547.6544090670486185
 21
2091.0672586703281013
 31
0.0
1001
GRADIENTCOLOR1ACI
1070
     5
1001
GRADIENTCOLOR2ACI
1070
     2
1001
ACAD
1010
0.0
1020
0.0
1030
0.0
  0
LINE
  5
10CEA
  8
0
  6
CONTINUOUS
 10
8546.7204708793524333
 20
2090.1068039783381209
 30
0.0
 11
8546.7883416686636338
 21
2090.1746747676488667
 31
0.0
1001
GRADIENTCOLOR1ACI
1070
     5
1001
GRADIENTCOLOR2ACI
1070
     2
1001
ACAD
1010
0.0
1020
0.0
1030
0.0
  0
LINE
  5
10CEB
  8
0
  6
CONTINUOUS
 10
8547.5637262939653738
 20
2090.950059392950152
 30
0.0
 11
8547.672246493100829
 21
2091.0585795920860619
 31
0.0
1001
GRADIENTCOLOR1ACI
1070
     5
1001
GRADIENTCOLOR2ACI
1070
     2
1001
ACAD
1010
0.0
1020
0.0
1030
0.0
  0
LINE
  5
10CEC
  8
0
  6
CONTINUOUS
 10
8546.729559629866344
 20
2090.0893762245568723
 30
0.0
 11
8546.7883416686636338
 21
2090.148158263354162
 31
0.0
1001
GRADIENTCOLOR1ACI
1070
     5
1001
GRADIENTCOLOR2ACI
1070
     2
1001
ACAD
1010
0.0
1020
0.0
1030
0.0
  0
LINE
  5
10CED
  8
0
  6
CONTINUOUS
 10
8547.5823699047414266
 20
2090.9421864994319549
 30
0.0
 11
8547.6896742468816228
 21
2091.0494908415730606
 31
0.0
1001
GRADIENTCOLOR1ACI
1070
     5
1001
GRADIENTCOLOR2ACI
1070
     2
1001
ACAD
1010
0.0
1020
0.0
1030
0.0
  0
LINE
  5
10CEE
  8
0
  6
CONTINUOUS
 10
8546.7390474611875106
 20
2090.0723475515828795
 30
0.0
 11
8546.7883416686636338
 21
2090.1216417590599121
 31
0.0
1001
GRADIENTCOLOR1ACI
1070
     5
1001
GRADIENTCOLOR2ACI
1070
     2
1001
ACAD
1010
0.0
1020
0.0
1030
0.0
  0
LINE
  5
10CEF
  8
0
  6
CONTINUOUS
 10
8547.6004715704784758
 20
2090.9337716608738447
 30
0.0
 11
8547.7067029198551609
 21
2091.040003010251894
 31
0.0
1001
GRADIENTCOLOR1ACI
1070
     5
1001
GRADIENTCOLOR2ACI
1070
     2
1001
ACAD
1010
0.0
1020
0.0
1030
0.0
  0
LINE
  5
10CF0
  8
0
  6
CONTINUOUS
 10
8546.7489251079769019
 20
2090.0557086940780209
 30
0.0
 11
8546.7883416686636338
 21
2090.0951252547652075
 31
0.0
1001
GRADIENTCOLOR1ACI
1070
     5
1001
GRADIENTCOLOR2ACI
1070
     2
1001
ACAD
1010
0.0
1020
0.0
1030
0.0
  0
LINE
  5
10CF1
  8
0
  6
CONTINUOUS
 10
8547.6180519102454127
 20
2090.9248354963469865
 30
0.0
 11
8547.7233417773604742
 21
2091.030125363462048
 31
0.0
1001
GRADIENTCOLOR1ACI
1070
     5
1001
GRADIENTCOLOR2ACI
1070
     2
1001
ACAD
1010
0.0
1020
0.0
1030
0.0
  0
LINE
  5
10CF2
  8
0
  6
CONTINUOUS
 10
8546.7591845053411816
 20
2090.0394515871471413
 30
0.0
 11
8546.7883416686636338
 21
2090.0686087504700481
 31
0.0
1001
GRADIENTCOLOR1ACI
1070
     5
1001
GRADIENTCOLOR2ACI
1070
     2
1001
ACAD
1010
0.0
1020
0.0
1030
0.0
  0
LINE
  5
10CF3
  8
0
  6
CONTINUOUS
 10
8547.6351284484408097
 20
2090.9153955302481336
 30
0.0
 11
8547.7395988842908992
 21
2091.019865966098223
 31
0.0
1001
GRADIENTCOLOR1ACI
1070
     5
1001
GRADIENTCOLOR2ACI
1070
     2
1001
ACAD
1010
0.0
1020
0.0
1030
0.0
  0
LINE
  5
10CF4
  8
0
  6
CONTINUOUS
 10
8546.7698186844263546
 20
2090.0235692619380643
 30
0.0
 11
8546.7883416686636338
 21
2090.0420922461757982
 31
0.0
1001
GRADIENTCOLOR1ACI
1070
     5
1001
GRADIENTCOLOR2ACI
1070
     2
1001
ACAD
1010
0.0
1020
0.0
1030
0.0
  0
LINE
  5
10CF5
  8
0
  6
CONTINUOUS
 10
8547.6517160182393127
 20
2090.9054665957510224
 30
0.0
 11
8547.7554812095004309
 21
2091.0092317870130501
 31
0.0
1001
GRADIENTCOLOR1ACI
1070
     5
1001
GRADIENTCOLOR2ACI
1070
     2
1001
ACAD
1010
0.0
1020
0.0
1030
0.0
  0
LINE
  5
10CF6
  8
0
  6
CONTINUOUS
 10
8546.7808216859084496
 20
2090.0080557591259094
 30
0.0
 11
8546.7883416686636338
 21
2090.0155757418810936
 31
0.0
1001
GRADIENTCOLOR1ACI
1070
     5
1001
GRADIENTCOLOR2ACI
1070
     2
1001
ACAD
1010
0.0
1020
0.0
1030
0.0
  0
LINE
  5
10CF7
  8
0
  6
CONTINUOUS
 10
8547.667827081071664
 20
2090.8950611542909428
 30
0.0
 11
8547.7709947123148595
 21
2090.9982287855309551
 31
0.0
1001
GRADIENTCOLOR1ACI
1070
     5
1001
GRADIENTCOLOR2ACI
1070
     2
1001
ACAD
1010
0.0
1020
0.0
1030
0.0
  0
LINE
  5
10CF8
  8
0
  6
CONTINUOUS
 10
8547.6834719797006983
 20
2090.8841895486220892
 30
0.0
 11
8547.7861444138252409
 21
2090.9868619827461771
 31
0.0
1001
GRADIENTCOLOR1ACI
1070
     5
1001
GRADIENTCOLOR2ACI
1070
     2
1001
ACAD
1010
0.0
1020
0.0
1030
0.0
  0
LINE
  5
10CF9
  8
0
  6
CONTINUOUS
 10
8547.6986591377735749
 20
2090.8728602024029897
 30
0.0
 11
8547.8009344550609967
 21
2090.9751355196890472
 31
0.0
1001
GRADIENTCOLOR1ACI
1070
     5
1001
GRADIENTCOLOR2ACI
1070
     2
1001
ACAD
1010
0.0
1020
0.0
1030
0.0
  0
LINE
  5
10CFA
  8
0
  6
CONTINUOUS
 10
8547.7133952154854342
 20
2090.8610797758178705
 30
0.0
 11
8547.8153681436633633
 21
2090.9630527039957997
 31
0.0
1001
GRADIENTCOLOR1ACI
1070
     5
1001
GRADIENTCOLOR2ACI
1070
     2
1001
ACAD
1010
0.0
1020
0.0
1030
0.0
  0
LINE
  5
10CFB
  8
0
  6
CONTINUOUS
 10
8547.72768522824299
 20
2090.8488532842848144
 30
0.0
 11
8547.8294479903088359
 21
2090.9506160463479318
 31
0.0
1001
GRADIENTCOLOR1ACI
1070
     5
1001
GRADIENTCOLOR2ACI
1070
     2
1001
ACAD
1010
0.0
1020
0.0
1030
0.0
  0
LINE
  5
10CFC
  8
0
  6
CONTINUOUS
 10
8547.7415326335758436
 20
2090.836184185322054
 30
0.0
 11
8547.8431757358903269
 21
2090.9378272876338087
 31
0.0
1001
GRADIENTCOLOR1ACI
1070
     5
1001
GRADIENTCOLOR2ACI
1070
     2
1001
ACAD
1010
0.0
1020
0.0
1030
0.0
  0
LINE
  5
10CFD
  8
0
  6
CONTINUOUS
 10
8547.7549393897461414
 20
2090.8230744371990113
 30
0.0
 11
8547.856552370094505
 21
2090.9246874175460107
 31
0.0
1001
GRADIENTCOLOR1ACI
1070
     5
1001
GRADIENTCOLOR2ACI
1070
     2
1001
ACAD
1010
0.0
1020
0.0
1030
0.0
  0
LINE
  5
10CFE
  8
0
  6
CONTINUOUS
 10
8547.7679059885431343
 20
2090.8095245316990258
 30
0.0
 11
8547.8695781418882689
 21
2090.9111966850459794
 31
0.0
1001
GRADIENTCOLOR1ACI
1070
     5
1001
GRADIENTCOLOR2ACI
1070
     2
1001
ACAD
1010
0.0
1020
0.0
1030
0.0
  0
LINE
  5
10CFF
  8
0
  6
CONTINUOUS
 10
8547.7804314634358889
 20
2090.7955335022961663
 30
0.0
 11
8547.8822525621308159
 21
2090.8973546009929123
 31
0.0
1001
GRADIENTCOLOR1ACI
1070
     5
1001
GRADIENTCOLOR2ACI
1070
     2
1001
ACAD
1010
0.0
1020
0.0
1030
0.0
  0
LINE
  5
10D00
  8
0
  6
CONTINUOUS
 10
8547.7925133734934207
 20
2090.7810989080608124
 30
0.0
 11
8547.8945743984186265
 21
2090.8831599329860182
 31
0.0
1001
GRADIENTCOLOR1ACI
1070
     5
1001
GRADIENTCOLOR2ACI
1070
     2
1001
ACAD
1010
0.0
1020
0.0
1030
0.0
  0
LINE
  5
10D01
  8
0
  6
CONTINUOUS
 10
8547.804147762404682
 20
2090.7662167926778238
 30
0.0
 11
8547.9065416620142059
 21
2090.8686106922859835
 31
0.0
1001
GRADIENTCOLOR1ACI
1070
     5
1001
GRADIENTCOLOR2ACI
1070
     2
1001
ACAD
1010
0.0
1020
0.0
1030
0.0
  0
LINE
  5
10D02
  8
0
  6
CONTINUOUS
 10
8547.8153290909576754
 20
2090.7508816169361126
 30
0.0
 11
8547.9181515865220717
 21
2090.8537041125018732
 31
0.0
1001
GRADIENTCOLOR1ACI
1070
     5
1001
GRADIENTCOLOR2ACI
1070
     2
1001
ACAD
1010
0.0
1020
0.0
1030
0.0
  0
LINE
  5
10D03
  8
0
  6
CONTINUOUS
 10
8547.826050140278312
 20
2090.7350861619620446
 30
0.0
 11
8547.9294005978117639
 21
2090.8384366194950417
 31
0.0
1001
GRADIENTCOLOR1ACI
1070
     5
1001
GRADIENTCOLOR2ACI
1070
     2
1001
ACAD
1010
0.0
1020
0.0
1030
0.0
  0
LINE
  5
10D04
  8
0
  6
CONTINUOUS
 10
8547.8363018817672128
 20
2090.7188213991557859
 30
0.0
 11
8547.9402842743493238
 21
2090.8228037917401707
 31
0.0
1001
GRADIENTCOLOR1ACI
1070
     5
1001
GRADIENTCOLOR2ACI
1070
     2
1001
ACAD
1010
0.0
1020
0.0
1030
0.0
  0
LINE
  5
10D05
  8
0
  6
CONTINUOUS
 10
8547.8460733080628415
 20
2090.7020763211580743
 30
0.0
 11
8547.9507972969659022
 21
2090.806800310061135
 31
0.0
1001
GRADIENTCOLOR1ACI
1070
     5
1001
GRADIENTCOLOR2ACI
1070
     2
1001
ACAD
1010
0.0
1020
0.0
1030
0.0
  0
LINE
  5
10D06
  8
0
  6
CONTINUOUS
 10
8547.8553512172638875
 20
2090.6848377260630514
 30
0.0
 11
8547.9609333866064844
 21
2090.7904198954070125
 31
0.0
1001
GRADIENTCOLOR1ACI
1070
     5
1001
GRADIENTCOLOR2ACI
1070
     2
1001
ACAD
1010
0.0
1020
0.0
1030
0.0
  0
LINE
  5
10D07
  8
0
  6
CONTINUOUS
 10
8547.8641199398680328
 20
2090.6670899443738563
 30
0.0
 11
8547.9706852283488843
 21
2090.7736552328528887
 31
0.0
1001
GRADIENTCOLOR1ACI
1070
     5
1001
GRADIENTCOLOR2ACI
1070
     2
1001
ACAD
1010
0.0
1020
0.0
1030
0.0
  0
LINE
  5
10D08
  8
0
  6
CONTINUOUS
 10
8547.8723609942117037
 20
2090.6488144944228225
 30
0.0
 11
8547.980044379384708
 21
2090.7564978795971911
 31
0.0
1001
GRADIENTCOLOR1ACI
1070
     5
1001
GRADIENTCOLOR2ACI
1070
     2
1001
ACAD
1010
0.0
1020
0.0
1030
0.0
  0
LINE
  5
10D09
  8
0
  6
CONTINUOUS
 10
8547.8800526508821349
 20
2090.6299896467980943
 30
0.0
 11
8547.9890011581355793
 21
2090.7389381540519935
 31
0.0
1001
GRADIENTCOLOR1ACI
1070
     5
1001
GRADIENTCOLOR2ACI
1070
     2
1001
ACAD
1010
0.0
1020
0.0
1030
0.0
  0
LINE
  5
10D0A
  8
0
  6
CONTINUOUS
 10
8547.8871693793735176
 20
2090.6105898709961366
 30
0.0
 11
8547.997544510741136
 21
2090.7209650023669383
 31
0.0
1001
GRADIENTCOLOR1ACI
1070
     5
1001
GRADIENTCOLOR2ACI
1070
     2
1001
ACAD
1010
0.0
1020
0.0
1030
0.0
  0
LINE
  5
10D0B
  8
0
  6
CONTINUOUS
 10
8547.8936811396542907
 20
2090.5905851269822051
 30
0.0
 11
8548.0056618503585923
 21
2090.7025658376869615
 31
0.0
1001
GRADIENTCOLOR1ACI
1070
     5
1001
GRADIENTCOLOR2ACI
1070
     2
1001
ACAD
1010
0.0
1020
0.0
1030
0.0
  0
LINE
  5
10D0C
  8
0
  6
CONTINUOUS
 10
8547.8995524657111673
 20
2090.5699399487439223
 30
0.0
 11
8548.0133388630820264
 21
2090.6837263461147813
 31
0.0
1001
GRADIENTCOLOR1ACI
1070
     5
1001
GRADIENTCOLOR2ACI
1070
     2
1001
ACAD
1010
0.0
1020
0.0
1030
0.0
  0
LINE
  5
10D0D
  8
0
  6
CONTINUOUS
 10
8547.904741264794211
 20
2090.5486122435340803
 30
0.0
 11
8548.0205592728143529
 21
2090.6644302515542222
 31
0.0
1001
GRADIENTCOLOR1ACI
1070
     5
1001
GRADIENTCOLOR2ACI
1070
     2
1001
ACAD
1010
0.0
1020
0.0
1030
0.0
  0
LINE
  5
10D0E
  8
0
  6
CONTINUOUS
 10
8547.9091972197693394
 20
2090.5265516942140493
 30
0.0
 11
8548.0273045547546644
 21
2090.6446590292011933
 31
0.0
1001
GRADIENTCOLOR1ACI
1070
     5
1001
GRADIENTCOLOR2ACI
1070
     2
1001
ACAD
1010
0.0
1020
0.0
1030
0.0
  0
LINE
  5
10D0F
  8
0
  6
CONTINUOUS
 10
8547.912859624479097
 20
2090.5036975946291022
 30
0.0
 11
8548.033553584060428
 21
2090.624391554210888
 31
0.0
1001
GRADIENTCOLOR1ACI
1070
     5
1001
GRADIENTCOLOR2ACI
1070
     2
1001
ACAD
1010
0.0
1020
0.0
1030
0.0
  0
LINE
  5
10D10
  8
0
  6
CONTINUOUS
 10
8547.9156543875615171
 20
2090.4799758534168177
 30
0.0
 11
8548.0392822016256105
 21
2090.6036036674831848
 31
0.0
1001
GRADIENTCOLOR1ACI
1070
     5
1001
GRADIENTCOLOR2ACI
1070
     2
1001
ACAD
1010
0.0
1020
0.0
1030
0.0
  0
LINE
  5
10D11
  8
0
  6
CONTINUOUS
 10
8547.9174897795001016
 20
2090.4552947410611523
 30
0.0
 11
8548.0444626725839044
 21
2090.5822676341440456
 31
0.0
1001
GRADIENTCOLOR1ACI
1070
     5
1001
GRADIENTCOLOR2ACI
1070
     2
1001
ACAD
1010
0.0
1020
0.0
1030
0.0
  0
LINE
  5
10D12
  8
0
  6
CONTINUOUS
 10
8547.9182502125095198
 20
2090.4295386697749564
 30
0.0
 11
8548.0490630039366806
 21
2090.5603514612030267
 31
0.0
1001
GRADIENTCOLOR1ACI
1070
     5
1001
GRADIENTCOLOR2ACI
1070
     2
1001
ACAD
1010
0.0
1020
0.0
1030
0.0
  0
LINE
  5
10D13
  8
0
  6
CONTINUOUS
 10
8547.9182629284641735
 20
2090.4030348814358149
 30
0.0
 11
8548.05304607456128
 21
2090.5378180275329214
 31
0.0
1001
GRADIENTCOLOR1ACI
1070
     5
1001
GRADIENTCOLOR2ACI
1070
     2
1001
ACAD
1010
0.0
1020
0.0
1030
0.0
  0
LINE
  5
10D14
  8
0
  6
CONTINUOUS
 10
8547.9182629284641735
 20
2090.3765183771411102
 30
0.0
 11
8548.0563685108863865
 21
2090.514623959563778
 31
0.0
1001
GRADIENTCOLOR1ACI
1070
     5
1001
GRADIENTCOLOR2ACI
1070
     2
1001
ACAD
1010
0.0
1020
0.0
1030
0.0
  0
LINE
  5
10D15
  8
0
  6
CONTINUOUS
 10
8547.9182629284641735
 20
2090.3500018728468604
 30
0.0
 11
8548.0589792116461467
 21
2090.4907181560301979
 31
0.0
1001
GRADIENTCOLOR1ACI
1070
     5
1001
GRADIENTCOLOR2ACI
1070
     2
1001
ACAD
1010
0.0
1020
0.0
1030
0.0
  0
LINE
  5
10D16
  8
0
  6
CONTINUOUS
 10
8547.9182629284641735
 20
2090.3234853685521557
 30
0.0
 11
8548.0608173780437937
 21
2090.4660398181331402
 31
0.0
1001
GRADIENTCOLOR1ACI
1070
     5
1001
GRADIENTCOLOR2ACI
1070
     2
1001
ACAD
1010
0.0
1020
0.0
1030
0.0
  0
LINE
  5
10D17
  8
0
  6
CONTINUOUS
 10
8547.9182629284641735
 20
2090.2969688642579058
 30
0.0
 11
8548.0618098303220904
 21
2090.440515766117187
 31
0.0
1001
GRADIENTCOLOR1ACI
1070
     5
1001
GRADIENTCOLOR2ACI
1070
     2
1001
ACAD
1010
0.0
1020
0.0
1030
0.0
  0
LINE
  5
10D18
  8
0
  6
CONTINUOUS
 10
8547.9182629284641735
 20
2090.2704523599632012
 30
0.0
 11
8548.0618672664986661
 21
2090.4140566979981486
 31
0.0
1001
GRADIENTCOLOR1ACI
1070
     5
1001
GRADIENTCOLOR2ACI
1070
     2
1001
ACAD
1010
0.0
1020
0.0
1030
0.0
  0
LINE
  5
10D19
  8
0
  6
CONTINUOUS
 10
8547.9182629284641735
 20
2090.2439358556689513
 30
0.0
 11
8548.0608789029574837
 21
2090.3865518301640805
 31
0.0
1001
GRADIENTCOLOR1ACI
1070
     5
1001
GRADIENTCOLOR2ACI
1070
     2
1001
ACAD
1010
0.0
1020
0.0
1030
0.0
  0
LINE
  5
10D1A
  8
0
  6
CONTINUOUS
 10
8547.9182629284641735
 20
2090.2174193513737919
 30
0.0
 11
8548.0587045469565055
 21
2090.3578609698661239
 31
0.0
1001
GRADIENTCOLOR1ACI
1070
     5
1001
GRADIENTCOLOR2ACI
1070
     2
1001
ACAD
1010
0.0
1020
0.0
1030
0.0
  0
LINE
  5
10D1B
  8
0
  6
CONTINUOUS
 10
8547.9182629284641735
 20
2090.1909028470799967
 30
0.0
 11
8548.055162409948025
 21
2090.3278023285629388
 31
0.0
1001
GRADIENTCOLOR1ACI
1070
     5
1001
GRADIENTCOLOR2ACI
1070
     2
1001
ACAD
1010
0.0
1020
0.0
1030
0.0
  0
LINE
  5
10D1C
  8
0
  6
CONTINUOUS
 10
8547.9182629284641735
 20
2090.1643863427848373
 30
0.0
 11
8548.0500094687758974
 21
2090.2961328830979255
 31
0.0
1001
GRADIENTCOLOR1ACI
1070
     5
1001
GRADIENTCOLOR2ACI
1070
     2
1001
ACAD
1010
0.0
1020
0.0
1030
0.0
  0
LINE
  5
10D1D
  8
0
  6
CONTINUOUS
 10
8547.9182629284641735
 20
2090.1378698384910422
 30
0.0
 11
8548.0429078886863863
 21
2090.2625147987141645
 31
0.0
1001
GRADIENTCOLOR1ACI
1070
     5
1001
GRADIENTCOLOR2ACI
1070
     2
1001
ACAD
1010
0.0
1020
0.0
1030
0.0
  0
LINE
  5
10D1E
  8
0
  6
CONTINUOUS
 10
8547.9182629284641735
 20
2090.1113533341958828
 30
0.0
 11
8548.0333630442219146
 21
2090.2264534499549882
 31
0.0
1001
GRADIENTCOLOR1ACI
1070
     5
1001
GRADIENTCOLOR2ACI
1070
     2
1001
ACAD
1010
0.0
1020
0.0
1030
0.0
  0
LINE
  5
10D1F
  8
0
  6
CONTINUOUS
 10
8547.9182629284641735
 20
2090.0848368299020876
 30
0.0
 11
8548.0205966167141014
 21
2090.1871705181529251
 31
0.0
1001
GRADIENTCOLOR1ACI
1070
     5
1001
GRADIENTCOLOR2ACI
1070
     2
1001
ACAD
1010
0.0
1020
0.0
1030
0.0
  0
LINE
  5
10D20
  8
0
  6
CONTINUOUS
 10
8547.9182629284641735
 20
2090.0583203256069282
 30
0.0
 11
8548.0032448271958856
 21
2090.1433022243400046
 31
0.0
1001
GRADIENTCOLOR1ACI
1070
     5
1001
GRADIENTCOLOR2ACI
1070
     2
1001
ACAD
1010
0.0
1020
0.0
1030
0.0
  0
LINE
  5
10D21
  8
0
  6
CONTINUOUS
 10
8547.9182629284641735
 20
2090.0318038213131331
 30
0.0
 11
8547.9784455965418601
 21
2090.091986489392184
 31
0.0
1001
GRADIENTCOLOR1ACI
1070
     5
1001
GRADIENTCOLOR2ACI
1070
     2
1001
ACAD
1010
0.0
1020
0.0
1030
0.0
  0
LINE
  5
10D22
  8
0
  6
CONTINUOUS
 10
8547.9182629284641735
 20
2090.0052873170188832
 30
0.0
 11
8547.9373181674618536
 21
2090.0243425560138348
 31
0.0
1001
GRADIENTCOLOR1ACI
1070
     5
1001
GRADIENTCOLOR2ACI
1070
     2
1001
ACAD
1010
0.0
1020
0.0
1030
0.0
  0
LINE
  5
10D23
  8
0
  6
CONTINUOUS
 10
8546.7883416686636338
 20
2090.0240458314460739
 30
0.0
 11
8546.7377165987891203
 21
2090.074670901321042
 31
0.0
1001
GRADIENTCOLOR1ACI
1070
     5
1001
GRADIENTCOLOR2ACI
1070
     2
1001
ACAD
1010
0.0
1020
0.0
1030
0.0
  0
LINE
  5
10D24
  8
0
  6
CONTINUOUS
 10
8546.7883416686636338
 20
2090.050562335739869
 30
0.0
 11
8546.709644338427097
 21
2090.1292596659759511
 31
0.0
1001
GRADIENTCOLOR1ACI
1070
     5
1001
GRADIENTCOLOR2ACI
1070
     2
1001
ACAD
1010
0.0
1020
0.0
1030
0.0
  0
LINE
  5
10D25
  8
0
  6
CONTINUOUS
 10
8546.7883416686636338
 20
2090.0770788400350284
 30
0.0
 11
8546.6905247599643189
 21
2090.174895748734798
 31
0.0
1001
GRADIENTCOLOR1ACI
1070
     5
1001
GRADIENTCOLOR2ACI
1070
     2
1001
ACAD
1010
0.0
1020
0.0
1030
0.0
  0
LINE
  5
10D26
  8
0
  6
CONTINUOUS
 10
8546.7883416686636338
 20
2090.1035953443288236
 30
0.0
 11
8546.6765976974966179
 21
2090.2153393154972036
 31
0.0
1001
GRADIENTCOLOR1ACI
1070
     5
1001
GRADIENTCOLOR2ACI
1070
     2
1001
ACAD
1010
0.0
1020
0.0
1030
0.0
  0
LINE
  5
10D27
  8
0
  6
CONTINUOUS
 10
8546.7883416686636338
 20
2090.130111848623983
 30
0.0
 11
8546.6662087226031872
 21
2090.2522447946839748
 31
0.0
1001
GRADIENTCOLOR1ACI
1070
     5
1001
GRADIENTCOLOR2ACI
1070
     2
1001
ACAD
1010
0.0
1020
0.0
1030
0.0
  0
LINE
  5
10D28
  8
0
  6
CONTINUOUS
 10
8546.7883416686636338
 20
2090.1566283529177781
 30
0.0
 11
8546.6584528711664461
 21
2090.2865171504158752
 31
0.0
1001
GRADIENTCOLOR1ACI
1070
     5
1001
GRADIENTCOLOR2ACI
1070
     2
1001
ACAD
1010
0.0
1020
0.0
1030
0.0
  0
LINE
  5
10D29
  8
0
  6
CONTINUOUS
 10
8546.7883416686636338
 20
2090.1831448572129375
 30
0.0
 11
8546.6527702278181096
 21
2090.3187162980580069
 31
0.0
1001
GRADIENTCOLOR1ACI
1070
     5
1001
GRADIENTCOLOR2ACI
1070
     2
1001
ACAD
1010
0.0
1020
0.0
1030
0.0
  0
LINE
  5
10D2A
  8
0
  6
CONTINUOUS
 10
8546.7883416686636338
 20
2090.2096613615071874
 30
0.0
 11
8546.6487853840426396
 21
2090.3492176461281815
 31
0.0
1001
GRADIENTCOLOR1ACI
1070
     5
1001
GRADIENTCOLOR2ACI
1070
     2
1001
ACAD
1010
0.0
1020
0.0
1030
0.0
  0
LINE
  5
10D2B
  8
0
  6
CONTINUOUS
 10
8546.7883416686636338
 20
2090.236177865801892
 30
0.0
 11
8546.6462319355214277
 21
2090.3782875989431886
 31
0.0
1001
GRADIENTCOLOR1ACI
1070
     5
1001
GRADIENTCOLOR2ACI
1070
     2
1001
ACAD
1010
0.0
1020
0.0
1030
0.0
  0
LINE
  5
10D2C
  8
0
  6
CONTINUOUS
 10
8546.7883416686636338
 20
2090.2626943700961419
 30
0.0
 11
8546.6449126659517788
 21
2090.4061233728079969
 31
0.0
1001
GRADIENTCOLOR1ACI
1070
     5
1001
GRADIENTCOLOR2ACI
1070
     2
1001
ACAD
1010
0.0
1020
0.0
1030
0.0
  0
LINE
  5
10D2D
  8
0
  6
CONTINUOUS
 10
8546.7883416686636338
 20
2090.2892108743908466
 30
0.0
 11
8546.6446767267225368
 21
2090.432875816332853
 31
0.0
1001
GRADIENTCOLOR1ACI
1070
     5
1001
GRADIENTCOLOR2ACI
1070
     2
1001
ACAD
1010
0.0
1020
0.0
1030
0.0
  0
LINE
  5
10D2E
  8
0
  6
CONTINUOUS
 10
8546.7883416686636338
 20
2090.3157273786850965
 30
0.0
 11
8546.645405699055118
 21
2090.4586633482949765
 31
0.0
1001
GRADIENTCOLOR1ACI
1070
     5
1001
GRADIENTCOLOR2ACI
1070
     2
1001
ACAD
1010
0.0
1020
0.0
1030
0.0
  0
LINE
  5
10D2F
  8
0
  6
CONTINUOUS
 10
8546.7883416686636338
 20
2090.3422438829798011
 30
0.0
 11
8546.6470046424856264
 21
2090.4835809091591727
 31
0.0
1001
GRADIENTCOLOR1ACI
1070
     5
1001
GRADIENTCOLOR2ACI
1070
     2
1001
ACAD
1010
0.0
1020
0.0
1030
0.0
  0
LINE
  5
10D30
  8
0
  6
CONTINUOUS
 10
8546.7883416686636338
 20
2090.368760387274051
 30
0.0
 11
8546.649396106497079
 21
2090.5077059494410605
 31
0.0
1001
GRADIENTCOLOR1ACI
1070
     5
1001
GRADIENTCOLOR2ACI
1070
     2
1001
ACAD
1010
0.0
1020
0.0
1030
0.0
  0
LINE
  5
10D31
  8
0
  6
CONTINUOUS
 10
8546.7883416686636338
 20
2090.3952768915692104
 30
0.0
 11
8546.6525159868633637
 21
2090.5311025733690258
 31
0.0
1001
GRADIENTCOLOR1ACI
1070
     5
1001
GRADIENTCOLOR2ACI
1070
     2
1001
ACAD
1010
0.0
1020
0.0
1030
0.0
  0
LINE
  5
10D32
  8
0
  6
CONTINUOUS
 10
8546.7883416686636338
 20
2090.4217933958630056
 30
0.0
 11
8546.6563105757468293
 21
2090.5538244887789006
 31
0.0
1001
GRADIENTCOLOR1ACI
1070
     5
1001
GRADIENTCOLOR2ACI
1070
     2
1001
ACAD
1010
0.0
1020
0.0
1030
0.0
  0
LINE
  5
10D33
  8
0
  6
CONTINUOUS
 10
8546.7887751903963363
 20
2090.4478763784250077
 30
0.0
 11
8546.6607344101448689
 21
2090.5759171586792036
 31
0.0
1001
GRADIENTCOLOR1ACI
1070
     5
1001
GRADIENTCOLOR2ACI
1070
     2
1001
ACAD
1010
0.0
1020
0.0
1030
0.0
  0
LINE
  5
10D34
  8
0
  6
CONTINUOUS
 10
8546.7903093096301745
 20
2090.4728587634867836
 30
0.0
 11
8546.6657486694584804
 21
2090.5974194036548397
 31
0.0
1001
GRADIENTCOLOR1ACI
1070
     5
1001
GRADIENTCOLOR2ACI
1070
     2
1001
ACAD
1010
0.0
1020
0.0
1030
0.0
  0
LINE
  5
10D35
  8
0
  6
CONTINUOUS
 10
8546.7928338038927905
 20
2090.4968507735179628
 30
0.0
 11
8546.6713199602563691
 21
2090.6183646171539294
 31
0.0
1001
GRADIENTCOLOR1ACI
1070
     5
1001
GRADIENTCOLOR2ACI
1070
     2
1001
ACAD
1010
0.0
1020
0.0
1030
0.0
  0
LINE
  5
10D36
  8
0
  6
CONTINUOUS
 10
8546.7962507201718836
 20
2090.5199503615331196
 30
0.0
 11
8546.6774193797991757
 21
2090.6387817019058275
 31
0.0
1001
GRADIENTCOLOR1ACI
1070
     5
1001
GRADIENTCOLOR2ACI
1070
     2
1001
ACAD
1010
0.0
1020
0.0
1030
0.0
  0
LINE
  5
10D37
  8
0
  6
CONTINUOUS
 10
8546.8004813176412426
 20
2090.5422362683580104
 30
0.0
 11
8546.6840217843982828
 21
2090.6586958016009703
 31
0.0
1001
GRADIENTCOLOR1ACI
1070
     5
1001
GRADIENTCOLOR2ACI
1070
     2
1001
ACAD
1010
0.0
1020
0.0
1030
0.0
  0
LINE
  5
10D38
  8
0
  6
CONTINUOUS
 10
8546.8054613301683275
 20
2090.5637727601251754
 30
0.0
 11
8546.6911052106606803
 21
2090.6781288796319132
 31
0.0
1001
GRADIENTCOLOR1ACI
1070
     5
1001
GRADIENTCOLOR2ACI
1070
     2
1001
ACAD
1010
0.0
1020
0.0
1030
0.0
  0
LINE
  5
10D39
  8
0
  6
CONTINUOUS
 10
8546.8111376560664212
 20
2090.5846129385208769
 30
0.0
 11
8546.6986504127471562
 21
2090.6971001818387776
 31
0.0
1001
GRADIENTCOLOR1ACI
1070
     5
1001
GRADIENTCOLOR2ACI
1070
     2
1001
ACAD
1010
0.0
1020
0.0
1030
0.0
  0
LINE
  5
10D3A
  8
0
  6
CONTINUOUS
 10
8546.8174659830983728
 20
2090.6048011157859037
 30
0.0
 11
8546.706640488904668
 21
2090.7156266099791537
 31
0.0
1001
GRADIENTCOLOR1ACI
1070
     5
1001
GRADIENTCOLOR2ACI
1070
     2
1001
ACAD
1010
0.0
1020
0.0
1030
0.0
  0
LINE
  5
10D3B
  8
0
  6
CONTINUOUS
 10
8546.8244090458701976
 20
2090.6243745573069646
 30
0.0
 11
8546.7150605775495933
 21
2090.7337230256271141
 31
0.0
1001
GRADIENTCOLOR1ACI
1070
     5
1001
GRADIENTCOLOR2ACI
1070
     2
1001
ACAD
1010
0.0
1020
0.0
1030
0.0
  0
LINE
  5
10D3C
  8
0
  6
CONTINUOUS
 10
8546.831935322670688
 20
2090.6433647848011788
 30
0.0
 11
8546.7238976082953741
 21
2090.751402499176038
 31
0.0
1001
GRADIENTCOLOR1ACI
1070
     5
1001
GRADIENTCOLOR2ACI
1070
     2
1001
ACAD
1010
0.0
1020
0.0
1030
0.0
  0
LINE
  5
10D3D
  8
0
  6
CONTINUOUS
 10
8546.8400180450516928
 20
2090.6617985667157882
 30
0.0
 11
8546.7331400967668742
 21
2090.768676515000152
 31
0.0
1001
GRADIENTCOLOR1ACI
1070
     5
1001
GRADIENTCOLOR2ACI
1070
     2
1001
ACAD
1010
0.0
1020
0.0
1030
0.0
  0
LINE
  5
10D3E
  8
0
  6
CONTINUOUS
 10
8546.848634434858468
 20
2090.6796986812028081
 30
0.0
 11
8546.7427779748177272
 21
2090.7855551412421846
 31
0.0
1001
GRADIENTCOLOR1ACI
1070
     5
1001
GRADIENTCOLOR2ACI
1070
     2
1001
ACAD
1010
0.0
1020
0.0
1030
0.0
  0
LINE
  5
10D3F
  8
0
  6
CONTINUOUS
 10
8546.8577651099676586
 20
2090.6970845103878673
 30
0.0
 11
8546.7528024496205035
 21
2090.802047170734113
 31
0.0
1001
GRADIENTCOLOR1ACI
1070
     5
1001
GRADIENTCOLOR2ACI
1070
     2
1001
ACAD
1010
0.0
1020
0.0
1030
0.0
  0
LINE
  5
10D40
  8
0
  6
CONTINUOUS
 10
8546.8673936174127448
 20
2090.7139725072379406
 30
0.0
 11
8546.763205886567448
 21
2090.8181602380818731
 31
0.0
1001
GRADIENTCOLOR1ACI
1070
     5
1001
GRADIENTCOLOR2ACI
1070
     2
1001
ACAD
1010
0.0
1020
0.0
1030
0.0
  0
LINE
  5
10D41
  8
0
  6
CONTINUOUS
 10
8546.8775060644766199
 20
2090.7303765644692248
 30
0.0
 11
8546.7739817120691441
 21
2090.8339009168748817
 31
0.0
1001
GRADIENTCOLOR1ACI
1070
     5
1001
GRADIENTCOLOR2ACI
1070
     2
1001
ACAD
1010
0.0
1020
0.0
1030
0.0
  0
LINE
  5
10D42
  8
0
  6
CONTINUOUS
 10
8546.8880908263909078
 20
2090.7463083068500964
 30
0.0
 11
8546.7851243331351725
 21
2090.8492748001031032
 31
0.0
1001
GRADIENTCOLOR1ACI
1070
     5
1001
GRADIENTCOLOR2ACI
1070
     2
1001
ACAD
1010
0.0
1020
0.0
1030
0.0
  0
LINE
  5
10D43
  8
0
  6
CONTINUOUS
 10
8546.8991383150314505
 20
2090.7617773225019846
 30
0.0
 11
8546.7966290713156923
 21
2090.8642865662168333
 31
0.0
1001
GRADIENTCOLOR1ACI
1070
     5
1001
GRADIENTCOLOR2ACI
1070
     2
1001
ACAD
1010
0.0
1020
0.0
1030
0.0
  0
LINE
  5
10D44
  8
0
  6
CONTINUOUS
 10
8546.910640797126689
 20
2090.776791344699177
 30
0.0
 11
8546.8084921091049182
 21
2090.8789400327218573
 31
0.0
1001
GRADIENTCOLOR1ACI
1070
     5
1001
GRADIENTCOLOR2ACI
1070
     2
1001
ACAD
1010
0.0
1020
0.0
1030
0.0
  0
LINE
  5
10D45
  8
0
  6
CONTINUOUS
 10
8546.9225922534551501
 20
2090.7913563926667848
 30
0.0
 11
8546.820710447311285
 21
2090.8932381988111047
 31
0.0
1001
GRADIENTCOLOR1ACI
1070
     5
1001
GRADIENTCOLOR2ACI
1070
     2
1001
ACAD
1010
0.0
1020
0.0
1030
0.0
  0
LINE
  5
10D46
  8
0
  6
CONTINUOUS
 10
8546.934988272811097
 20
2090.8054768776050878
 30
0.0
 11
8546.8332818722610682
 21
2090.9071832781560261
 31
0.0
1001
GRADIENTCOLOR1ACI
1070
     5
1001
GRADIENTCOLOR2ACI
1070
     2
1001
ACAD
1010
0.0
1020
0.0
1030
0.0
  0
LINE
  5
10D47
  8
0
  6
CONTINUOUS
 10
8546.9478259762945527
 20
2090.8191556784167915
 30
0.0
 11
8546.8462049319787184
 21
2090.920776722732171
 31
0.0
1001
GRADIENTCOLOR1ACI
1070
     5
1001
GRADIENTCOLOR2ACI
1070
     2
1001
ACAD
1010
0.0
1020
0.0
1030
0.0
  0
LINE
  5
10D48
  8
0
  6
CONTINUOUS
 10
8546.9611039687642915
 20
2090.8323941902422121
 30
0.0
 11
8546.8594789207545546
 21
2090.934019238251949
 31
0.0
1001
GRADIENTCOLOR1ACI
1070
     5
1001
GRADIENTCOLOR2ACI
1070
     2
1001
ACAD
1010
0.0
1020
0.0
1030
0.0
  0
LINE
  5
10D49
  8
0
  6
CONTINUOUS
 10
8546.9748223155766027
 20
2090.8451923477241507
 30
0.0
 11
8546.873103871672356
 21
2090.9469107916261237
 31
0.0
1001
GRADIENTCOLOR1ACI
1070
     5
1001
GRADIENTCOLOR2ACI
1070
     2
1001
ACAD
1010
0.0
1020
0.0
1030
0.0
  0
LINE
  5
10D4A
  8
0
  6
CONTINUOUS
 10
8546.9889825436675892
 20
2090.8575486239278689
 30
0.0
 11
8546.8870805569822551
 21
2090.959450610613203
 31
0.0
1001
GRADIENTCOLOR1ACI
1070
     5
1001
GRADIENTCOLOR2ACI
1070
     2
1001
ACAD
1010
0.0
1020
0.0
1030
0.0
  0
LINE
  5
10D4B
  8
0
  6
CONTINUOUS
 10
8547.003587667040847
 20
2090.8694600048502252
 30
0.0
 11
8546.9014104962334386
 21
2090.9716371756549051
 31
0.0
1001
GRADIENTCOLOR1ACI
1070
     5
1001
GRADIENTCOLOR2ACI
1070
     2
1001
ACAD
1010
0.0
1020
0.0
1030
0.0
  0
LINE
  5
10D4C
  8
0
  6
CONTINUOUS
 10
8547.018642237635504
 20
2090.8809219385479992
 30
0.0
 11
8546.9160959724722488
 21
2090.9834682037107996
 31
0.0
1001
GRADIENTCOLOR1ACI
1070
     5
1001
GRADIENTCOLOR2ACI
1070
     2
1001
ACAD
1010
0.0
1020
0.0
1030
0.0
  0
LINE
  5
10D4D
  8
0
  6
CONTINUOUS
 10
8547.9224947493403306
 20
2090.0035859311378772
 30
0.0
 11
8547.9182629284641735
 21
2090.0078177520149438
 31
0.0
1001
GRADIENTCOLOR1ACI
1070
     5
1001
GRADIENTCOLOR2ACI
1070
     2
1001
ACAD
1010
0.0
1020
0.0
1030
0.0
  0
LINE
  5
10D4E
  8
0
  6
CONTINUOUS
 10
8547.0341524236464466
 20
2090.8919282568308518
 30
0.0
 11
8546.931140056825825
 21
2090.994940623651928
 31
0.0
1001
GRADIENTCOLOR1ACI
1070
     5
1001
GRADIENTCOLOR2ACI
1070
     2
1001
ACAD
1010
0.0
1020
0.0
1030
0.0
  0
LINE
  5
10D4F
  8
0
  6
CONTINUOUS
 10
8547.9336046683165478
 20
2090.0189925164568194
 30
0.0
 11
8547.9182629284641735
 21
2090.0343342563091937
 31
0.0
1001
GRADIENTCOLOR1ACI
1070
     5
1001
GRADIENTCOLOR2ACI
1070
     2
1001
ACAD
1010
0.0
1020
0.0
1030
0.0
  0
LINE
  5
10D50
  8
0
  6
CONTINUOUS
 10
8547.0501261184417672
 20
2090.902471066329781
 30
0.0
 11
8546.9465466421443125
 21
2091.0060505426281452
 31
0.0
1001
GRADIENTCOLOR1ACI
1070
     5
1001
GRADIENTCOLOR2ACI
1070
     2
1001
ACAD
1010
0.0
1020
0.0
1030
0.0
  0
LINE
  5
10D51
  8
0
  6
CONTINUOUS
 10
8547.9443473281953629
 20
2090.0347663608717994
 30
0.0
 11
8547.9182629284641735
 21
2090.0608507606029889
 31
0.0
1001
GRADIENTCOLOR1ACI
1070
     5
1001
GRADIENTCOLOR2ACI
1070
     2
1001
ACAD
1010
0.0
1020
0.0
1030
0.0
  0
LINE
  5
10D52
  8
0
  6
CONTINUOUS
 10
8547.0665730847686063
 20
2090.9125406042999202
 30
0.0
 11
8546.962320486560202
 21
2091.0167932025069604
 31
0.0
1001
GRADIENTCOLOR1ACI
1070
     5
1001
GRADIENTCOLOR2ACI
1070
     2
1001
ACAD
1010
0.0
1020
0.0
1030
0.0
  0
LINE
  5
10D53
  8
0
  6
CONTINUOUS
 10
8547.9547170509104035
 20
2090.0509131424528277
 30
0.0
 11
8547.9182629284641735
 21
2090.0873672648981483
 31
0.0
1001
GRADIENTCOLOR1ACI
1070
     5
1001
GRADIENTCOLOR2ACI
1070
     2
1001
ACAD
1010
0.0
1020
0.0
1030
0.0
  0
LINE
  5
10D54
  8
0
  6
CONTINUOUS
 10
8547.0835051405956619
 20
2090.9221250527648408
 30
0.0
 11
8546.9784672681416851
 21
2091.0271629252201819
 31
0.0
1001
GRADIENTCOLOR1ACI
1070
     5
1001
GRADIENTCOLOR2ACI
1070
     2
1001
ACAD
1010
0.0
1020
0.0
1030
0.0
  0
LINE
  5
10D55
  8
0
  6
CONTINUOUS
 10
8547.9647071711933677
 20
2090.0674395264632039
 30
0.0
 11
8547.9182629284641735
 21
2090.1138837691928529
 31
0.0
1001
GRADIENTCOLOR1ACI
1070
     5
1001
GRADIENTCOLOR2ACI
1070
     2
1001
ACAD
1010
0.0
1020
0.0
1030
0.0
  0
LINE
  5
10D56
  8
0
  6
CONTINUOUS
 10
8547.1009363953853608
 20
2090.9312103022689371
 30
0.0
 11
8546.9949936521516065
 21
2091.0371530455049651
 31
0.0
1001
GRADIENTCOLOR1ACI
1070
     5
1001
GRADIENTCOLOR2ACI
1070
     2
1001
ACAD
1010
0.0
1020
0.0
1030
0.0
  0
LINE
  5
10D57
  8
0
  6
CONTINUOUS
 10
8547.9743099547758902
 20
2090.0843532471740218
 30
0.0
 11
8547.9182629284641735
 21
2090.1404002734871028
 31
0.0
1001
GRADIENTCOLOR1ACI
1070
     5
1001
GRADIENTCOLOR2ACI
1070
     2
1001
ACAD
1010
0.0
1020
0.0
1030
0.0
  0
LINE
  5
10D58
  8
0
  6
CONTINUOUS
 10
8547.1188835485445452
 20
2090.9397796534058216
 30
0.0
 11
8547.0119073728619696
 21
2091.0467558290879424
 31
0.0
1001
GRADIENTCOLOR1ACI
1070
     5
1001
GRADIENTCOLOR2ACI
1070
     2
1001
ACAD
1010
0.0
1020
0.0
1030
0.0
  0
LINE
  5
10D59
  8
0
  6
CONTINUOUS
 10
8547.9835164995183732
 20
2090.101663206727153
 30
0.0
 11
8547.9182629284641735
 21
2090.1669167777818075
 31
0.0
1001
GRADIENTCOLOR1ACI
1070
     5
1001
GRADIENTCOLOR2ACI
1070
     2
1001
ACAD
1010
0.0
1020
0.0
1030
0.0
  0
LINE
  5
10D5A
  8
0
  6
CONTINUOUS
 10
8547.1373662661462731
 20
2090.9478134400987983
 30
0.0
 11
8547.0292173324123723
 21
2091.0559623738308801
 31
0.0
1001
GRADIENTCOLOR1ACI
1070
     5
1001
GRADIENTCOLOR2ACI
1070
     2
1001
ACAD
1010
0.0
1020
0.0
1030
0.0
  0
LINE
  5
10D5B
  8
0
  6
CONTINUOUS
 10
8547.9923166163644055
 20
2090.1193795941749158
 30
0.0
 11
8547.9182629284641735
 21
2090.1934332820760574
 31
0.0
1001
GRADIENTCOLOR1ACI
1070
     5
1001
GRADIENTCOLOR2ACI
1070
     2
1001
ACAD
1010
0.0
1020
0.0
1030
0.0
  0
LINE
  5
10D5C
  8
0
  6
CONTINUOUS
 10
8547.1564076578924869
 20
2090.9552885526491082
 30
0.0
 11
8547.0469337198646826
 21
2091.0647624906769124
 31
0.0
1001
GRADIENTCOLOR1ACI
1070
     5
1001
GRADIENTCOLOR2ACI
1070
     2
1001
ACAD
1010
0.0
1020
0.0
1030
0.0
  0
LINE
  5
10D5D
  8
0
  6
CONTINUOUS
 10
8548.0006986860607867
 20
2090.1375140287741488
 30
0.0
 11
8547.9182629284641735
 21
2090.2199497863712168
 31
0.0
1001
GRADIENTCOLOR1ACI
1070
     5
1001
GRADIENTCOLOR2ACI
1070
     2
1001
ACAD
1010
0.0
1020
0.0
1030
0.0
  0
LINE
  5
10D5E
  8
0
  6
CONTINUOUS
 10
8547.1760348846073612
 20
2090.9621778302271196
 30
0.0
 11
8547.0650681544630061
 21
2091.0731445603719294
 31
0.0
1001
GRADIENTCOLOR1ACI
1070
     5
1001
GRADIENTCOLOR2ACI
1070
     2
1001
ACAD
1010
0.0
1020
0.0
1030
0.0
  0
LINE
  5
10D5F
  8
0
  6
CONTINUOUS
 10
8548.0086494864826818
 20
2090.1560797326460488
 30
0.0
 11
8547.9182629284641735
 21
2090.2464662906650119
 31
0.0
1001
GRADIENTCOLOR1ACI
1070
     5
1001
GRADIENTCOLOR2ACI
1070
     2
1001
ACAD
1010
0.0
1020
0.0
1030
0.0
  0
LINE
  5
10D60
  8
0
  6
CONTINUOUS
 10
8547.1962799389148131
 20
2090.9684492802139175
 30
0.0
 11
8547.0836338583321776
 21
2091.0810953607938245
 31
0.0
1001
GRADIENTCOLOR1ACI
1070
     5
1001
GRADIENTCOLOR2ACI
1070
     2
1001
ACAD
1010
0.0
1020
0.0
1030
0.0
  0
LINE
  5
10D61
  8
0
  6
CONTINUOUS
 10
8548.0161539839191391
 20
2090.1750917395038414
 30
0.0
 11
8547.9182629284641735
 21
2090.2729827949601713
 31
0.0
1001
GRADIENTCOLOR1ACI
1070
     5
1001
GRADIENTCOLOR2ACI
1070
     2
1001
ACAD
1010
0.0
1020
0.0
1030
0.0
  0
LINE
  5
10D62
  8
0
  6
CONTINUOUS
 10
8547.2171806597143586
 20
2090.9740650637090766
 30
0.0
 11
8547.1026458651922439
 21
2091.0885998582311913
 31
0.0
1001
GRADIENTCOLOR1ACI
1070
     5
1001
GRADIENTCOLOR2ACI
1070
     2
1001
ACAD
1010
0.0
1020
0.0
1030
0.0
  0
LINE
  5
10D63
  8
0
  6
CONTINUOUS
 10
8548.0231950796405727
 20
2090.1945671480748388
 30
0.0
 11
8547.9182629284641735
 21
2090.2994992992539665
 31
0.0
1001
GRADIENTCOLOR1ACI
1070
     5
1001
GRADIENTCOLOR2ACI
1070
     2
1001
ACAD
1010
0.0
1020
0.0
1030
0.0
  0
LINE
  5
10D64
  8
0
  6
CONTINUOUS
 10
8547.2387820688491047
 20
2090.978980158865852
 30
0.0
 11
8547.1221212737636961
 21
2091.0956409539539891
 31
0.0
1001
GRADIENTCOLOR1ACI
1070
     5
1001
GRADIENTCOLOR2ACI
1070
     2
1001
ACAD
1010
0.0
1020
0.0
1030
0.0
  0
LINE
  5
10D65
  8
0
  6
CONTINUOUS
 10
8548.0297533004304569
 20
2090.2145254315801139
 30
0.0
 11
8547.9182629284641735
 21
2090.3260158035491258
 31
0.0
1001
GRADIENTCOLOR1ACI
1070
     5
1001
GRADIENTCOLOR2ACI
1070
     2
1001
ACAD
1010
0.0
1020
0.0
1030
0.0
  0
LINE
  5
10D66
  8
0
  6
CONTINUOUS
 10
8547.2611381613205594
 20
2090.9831405706918304
 30
0.0
 11
8547.1420795572685165
 21
2091.1021991747438733
 31
0.0
1001
GRADIENTCOLOR1ACI
1070
     5
1001
GRADIENTCOLOR2ACI
1070
     2
1001
ACAD
1010
0.0
1020
0.0
1030
0.0
  0
LINE
  5
10D67
  8
0
  6
CONTINUOUS
 10
8548.0358064179836219
 20
2090.234988818326201
 30
0.0
 11
8547.9182629284641735
 21
2090.352532307842921
 31
0.0
1001
GRADIENTCOLOR1ACI
1070
     5
1001
GRADIENTCOLOR2ACI
1070
     2
1001
ACAD
1010
0.0
1020
0.0
1030
0.0
  0
LINE
  5
10D68
  8
0
  6
CONTINUOUS
 10
8547.2843143497011624
 20
2090.986480886605932
 30
0.0
 11
8547.1625429440136941
 21
2091.1082522922929456
 31
0.0
1001
GRADIENTCOLOR1ACI
1070
     5
1001
GRADIENTCOLOR2ACI
1070
     2
1001
ACAD
1010
0.0
1020
0.0
1030
0.0
  0
LINE
  5
10D69
  8
0
  6
CONTINUOUS
 10
8548.0413289769676339
 20
2090.2559827636341652
 30
0.0
 11
8547.9182629284641735
 21
2090.3790488121380804
 31
0.0
1001
GRADIENTCOLOR1ACI
1070
     5
1001
GRADIENTCOLOR2ACI
1070
     2
1001
ACAD
1010
0.0
1020
0.0
1030
0.0
  0
LINE
  5
10D6A
  8
0
  6
CONTINUOUS
 10
8547.3083908786684333
 20
2090.9889208619329111
 30
0.0
 11
8547.1835368893225677
 21
2091.1137748512778671
 31
0.0
1001
GRADIENTCOLOR1ACI
1070
     5
1001
GRADIENTCOLOR2ACI
1070
     2
1001
ACAD
1010
0.0
1020
0.0
1030
0.0
  0
LINE
  5
10D6B
  8
0
  6
CONTINUOUS
 10
8548.0462917042787012
 20
2090.2775365406178025
 30
0.0
 11
8547.9182629284641735
 21
2090.4055653164318755
 31
0.0
1001
GRADIENTCOLOR1ACI
1070
     5
1001
GRADIENTCOLOR2ACI
1070
     2
1001
ACAD
1010
0.0
1020
0.0
1030
0.0
  0
LINE
  5
10D6C
  8
0
  6
CONTINUOUS
 10
8547.3334677244693012
 20
2090.9903605204258383
 30
0.0
 11
8547.2050906663062051
 21
2091.1187375785898439
 31
0.0
1001
GRADIENTCOLOR1ACI
1070
     5
1001
GRADIENTCOLOR2ACI
1070
     2
1001
ACAD
1010
0.0
1020
0.0
1030
0.0
  0
LINE
  5
10D6D
  8
0
  6
CONTINUOUS
 10
8548.0506607613533561
 20
2090.2996839878401261
 30
0.0
 11
8547.9182270210731076
 21
2090.4321177281171913
 31
0.0
1001
GRADIENTCOLOR1ACI
1070
     5
1001
GRADIENTCOLOR2ACI
1070
     2
1001
ACAD
1010
0.0
1020
0.0
1030
0.0
  0
LINE
  5
10D6E
  8
0
  6
CONTINUOUS
 10
8547.3596718538046844
 20
2090.9906728953851598
 30
0.0
 11
8547.2272381135280739
 21
2091.1231066356631345
 31
0.0
1001
GRADIENTCOLOR1ACI
1070
     5
1001
GRADIENTCOLOR2ACI
1070
     2
1001
ACAD
1010
0.0
1020
0.0
1030
0.0
  0
LINE
  5
10D6F
  8
0
  6
CONTINUOUS
 10
8548.0543967861594865
 20
2090.3224644673250623
 30
0.0
 11
8547.9172469770273892
 21
2090.4596142764589786
 31
0.0
1001
GRADIENTCOLOR1ACI
1070
     5
1001
GRADIENTCOLOR2ACI
1070
     2
1001
ACAD
1010
0.0
1020
0.0
1030
0.0
  0
LINE
  5
10D70
  8
0
  6
CONTINUOUS
 10
8547.3871684021487454
 20
2090.9896928513371677
 30
0.0
 11
8547.2500185930130101
 21
2091.1268426604710839
 31
0.0
1001
GRADIENTCOLOR1ACI
1070
     5
1001
GRADIENTCOLOR2ACI
1070
     2
1001
ACAD
1010
0.0
1020
0.0
1030
0.0
  0
LINE
  5
10D71
  8
0
  6
CONTINUOUS
 10
8548.0574536482599797
 20
2090.345924109518819
 30
0.0
 11
8547.9147531587186677
 21
2090.48862459906195
 31
0.0
1001
GRADIENTCOLOR1ACI
1070
     5
1001
GRADIENTCOLOR2ACI
1070
     2
1001
ACAD
1010
0.0
1020
0.0
1030
0.0
  0
LINE
  5
10D72
  8
0
  6
CONTINUOUS
 10
8547.4161787247503526
 20
2090.9871990330279914
 30
0.0
 11
8547.2734782352072216
 21
2091.1298995225711224
 31
0.0
1001
GRADIENTCOLOR1ACI
1070
     5
1001
GRADIENTCOLOR2ACI
1070
     2
1001
ACAD
1010
0.0
1020
0.0
1030
0.0
  0
LINE
  5
10D73
  8
0
  6
CONTINUOUS
 10
8548.0597768047282443
 20
2090.370117457347078
 30
0.0
 11
8547.9104370478980854
 21
2090.5194572141758727
 31
0.0
1001
GRADIENTCOLOR1ACI
1070
     5
1001
GRADIENTCOLOR2ACI
1070
     2
1001
ACAD
1010
0.0
1020
0.0
1030
0.0
  0
LINE
  5
10D74
  8
0
  6
CONTINUOUS
 10
8547.4470113398638205
 20
2090.9828829222087734
 30
0.0
 11
8547.2976715830354806
 21
2091.1322226790389323
 31
0.0
1001
GRADIENTCOLOR1ACI
1070
     5
1001
GRADIENTCOLOR2ACI
1070
     2
1001
ACAD
1010
0.0
1020
0.0
1030
0.0
  0
LINE
  5
10D75
  8
0
  6
CONTINUOUS
 10
8548.061301088797336
 20
2090.395109677569053
 30
0.0
 11
8547.9038456433554529
 21
2090.5525651230132098
 31
0.0
1001
GRADIENTCOLOR1ACI
1070
     5
1001
GRADIENTCOLOR2ACI
1070
     2
1001
ACAD
1010
0.0
1020
0.0
1030
0.0
  0
LINE
  5
10D76
  8
0
  6
CONTINUOUS
 10
8547.4801192487011576
 20
2090.9762915176670504
 30
0.0
 11
8547.3226638032574556
 21
2091.1337469631112072
 31
0.0
1001
GRADIENTCOLOR1ACI
1070
     5
1001
GRADIENTCOLOR2ACI
1070
     2
1001
ACAD
1010
0.0
1020
0.0
1030
0.0
  0
LINE
  5
10D77
  8
0
  6
CONTINUOUS
 10
8548.0619476718457008
 20
2090.4209795988190308
 30
0.0
 11
8547.8942634998347785
 21
2090.5886637708281341
 31
0.0
1001
GRADIENTCOLOR1ACI
1070
     5
1001
GRADIENTCOLOR2ACI
1070
     2
1001
ACAD
1010
0.0
1020
0.0
1030
0.0
  0
LINE
  5
10D78
  8
0
  6
CONTINUOUS
 10
8547.5162178965165367
 20
2090.9667093741459212
 30
0.0
 11
8547.3485337245074334
 21
2091.1343935461550245
 31
0.0
1001
GRADIENTCOLOR1ACI
1070
     5
1001
GRADIENTCOLOR2ACI
1070
     2
1001
ACAD
1010
0.0
1020
0.0
1030
0.0
  0
LINE
  5
10D79
  8
0
  6
CONTINUOUS
 10
8548.0616197857852967
 20
2090.4478239891709563
 30
0.0
 11
8547.8804299918574543
 21
2090.629013783100163
 31
0.0
1001
GRADIENTCOLOR1ACI
1070
     5
1001
GRADIENTCOLOR2ACI
1070
     2
1001
ACAD
1010
0.0
1020
0.0
1030
0.0
  0
LINE
  5
10D7A
  8
0
  6
CONTINUOUS
 10
8547.5565679087903845
 20
2090.9528758661690517
 30
0.0
 11
8547.3753781148607231
 21
2091.1340656600968941
 31
0.0
1001
GRADIENTCOLOR1ACI
1070
     5
1001
GRADIENTCOLOR2ACI
1070
     2
1001
ACAD
1010
0.0
1020
0.0
1030
0.0
  0
LINE
  5
10D7B
  8
0
  6
CONTINUOUS
 10
8548.0601965239493438
 20
2090.4757637553020686
 30
0.0
 11
8547.8596717926375277
 21
2090.6762884866138847
 31
0.0
1001
GRADIENTCOLOR1ACI
1070
     5
1001
GRADIENTCOLOR2ACI
1070
     2
1001
ACAD
1010
0.0
1020
0.0
1030
0.0
  0
LINE
  5
10D7C
  8
0
  6
CONTINUOUS
 10
8547.6038426123031968
 20
2090.9321176669491251
 30
0.0
 11
8547.4033178809913807
 21
2091.1326423982609413
 31
0.0
1001
GRADIENTCOLOR1ACI
1070
     5
1001
GRADIENTCOLOR2ACI
1070
     2
1001
ACAD
1010
0.0
1020
0.0
1030
0.0
  0
LINE
  5
10D7D
  8
0
  6
CONTINUOUS
 10
8548.0575235434098431
 20
2090.504953240138093
 30
0.0
 11
8547.8234441486201831
 21
2090.739032634925934
 31
0.0
1001
GRADIENTCOLOR1ACI
1070
     5
1001
GRADIENTCOLOR2ACI
1070
     2
1001
ACAD
1010
0.0
1020
0.0
1030
0.0
  0
LINE
  5
10D7E
  8
0
  6
CONTINUOUS
 10
8547.666586760615246
 20
2090.8958900229308711
 30
0.0
 11
8547.432507365827405
 21
2091.1299694177191668
 31
0.0
1001
GRADIENTCOLOR1ACI
1070
     5
1001
GRADIENTCOLOR2ACI
1070
     2
1001
ACAD
1010
0.0
1020
0.0
1030
0.0
  0
LINE
  5
10D7F
  8
0
  6
CONTINUOUS
 10
8548.0533985290421697
 20
2090.5355947587981973
 30
0.0
 11
8547.4631488844861451
 21
2091.1258444033542219
 31
0.0
1001
GRADIENTCOLOR1ACI
1070
     5
1001
GRADIENTCOLOR2ACI
1070
     2
1001
ACAD
1010
0.0
1020
0.0
1030
0.0
  0
LINE
  5
10D80
  8
0
  6
CONTINUOUS
 10
8548.0475472725993313
 20
2090.567962519536195
 30
0.0
 11
8547.4955166452255071
 21
2091.1199931469109288
 31
0.0
1001
GRADIENTCOLOR1ACI
1070
     5
1001
GRADIENTCOLOR2ACI
1070
     2
1001
ACAD
1010
0.0
1020
0.0
1030
0.0
  0
LINE
  5
10D81
  8
0
  6
CONTINUOUS
 10
8548.0395816621621634
 20
2090.6024446342680676
 30
0.0
 11
8547.5299987599555607
 21
2091.1120275364728514
 31
0.0
1001
GRADIENTCOLOR1ACI
1070
     5
1001
GRADIENTCOLOR2ACI
1070
     2
1001
ACAD
1010
0.0
1020
0.0
1030
0.0
  0
LINE
  5
10D82
  8
0
  6
CONTINUOUS
 10
8548.0289193171938678
 20
2090.6396234835319774
 30
0.0
 11
8547.56717760922038
 21
2091.1013651915041009
 31
0.0
1001
GRADIENTCOLOR1ACI
1070
     5
1001
GRADIENTCOLOR2ACI
1070
     2
1001
ACAD
1010
0.0
1020
0.0
1030
0.0
  0
LINE
  5
10D83
  8
0
  6
CONTINUOUS
 10
8548.014610567717682
 20
2090.6804487373019583
 30
0.0
 11
8547.6080028629912704
 21
2091.0870564420288247
 31
0.0
1001
GRADIENTCOLOR1ACI
1070
     5
1001
GRADIENTCOLOR2ACI
1070
     2
1001
ACAD
1010
0.0
1020
0.0
1030
0.0
  0
LINE
  5
10D84
  8
0
  6
CONTINUOUS
 10
8547.9948940579433838
 20
2090.7266817513700516
 30
0.0
 11
8547.6542358770584542
 21
2091.0673399322549812
 31
0.0
1001
GRADIENTCOLOR1ACI
1070
     5
1001
GRADIENTCOLOR2ACI
1070
     2
1001
ACAD
1010
0.0
1020
0.0
1030
0.0
  0
LINE
  5
10D85
  8
0
  6
CONTINUOUS
 10
8547.9656511478024186
 20
2090.782441165804812
 30
0.0
 11
8547.7099952914941241
 21
2091.038097022114016
 31
0.0
1001
GRADIENTCOLOR1ACI
1070
     5
1001
GRADIENTCOLOR2ACI
1070
     2
1001
ACAD
1010
0.0
1020
0.0
1030
0.0
  0
LINE
  5
10D86
  8
0
  6
CONTINUOUS
 10
8547.9086696379545174
 20
2090.8659391799478726
 30
0.0
 11
8547.7934933056385489
 21
2090.9811155122661148
 31
0.0
1001
GRADIENTCOLOR1ACI
1070
     5
1001
GRADIENTCOLOR2ACI
1070
     2
1001
ACAD
1010
0.0
1020
0.0
1030
0.0
  0
LINE
  5
10D87
  8
0
 10
8546.7883416686636338
 20
2089.9979392306681802
 30
0.0
 11
8546.7883416686636338
 21
2090.4257481728750463
 31
0.0
  0
LINE
  5
10D88
  8
0
 10
8546.8021211962623056
 20
2087.5167864582499533
 30
0.0
 11
8546.8021211962623056
 21
2090.4257481728750463
 31
0.0
  0
ARC
  5
10D89
  8
0
 10
8547.3533022985648131
 20
2090.4257481728750463
 30
0.0
 40
0.7086614173000001
 50
321.0575587253135268
 51
218.9424412746865016
  0
ARC
  5
10D8A
  8
0
 10
8547.3533022985648131
 20
2090.4257481728750463
 30
0.0
 40
0.5649606299
 50
0.0
 51
180.0
  0
ARC
  5
10D8B
  8
0
 10
8547.3533022985648131
 20
2090.4257481728750463
 30
0.0
 40
0.5511811023000002
 50
0.0
 51
180.0
  0
ARC
  5
10D8C
  8
0
 10
8547.3533022985648131
 20
2087.5582161677962176
 30
0.0
 40
0.5511811023000002
 50
180.0
 51
0.0
  0
LINE
  5
10D8D
  8
0
 10
8547.9182629284641735
 20
2089.9979392306681802
 30
0.0
 11
8547.9182629284641735
 21
2090.4257481728750463
 31
0.0
  0
LINE
  5
10D8E
  8
0
 10
8547.9044834008636826
 20
2087.5167864582499533
 30
0.0
 11
8547.9044834008636826
 21
2090.4257481728750463
 31
0.0
  0
ARC
  5
10D8F
  8
0
 10
8547.3533022985648131
 20
2087.5167864582499533
 30
0.0
 40
0.5511811023000002
 50
180.0
 51
0.0
  0
ARC
  5
10D90
  8
0
 10
8547.2530879473306413
 20
2085.5556244107178827
 30
0.0
 40
0.2956182783573606
 50
186.8851095134025968
 51
230.8216559144584892
  0
ARC
  5
10D91
  8
0
 10
8547.3550287603829929
 20
2085.6965856099600387
 30
0.0
 40
0.4693958849860121
 50
232.0457333688385972
 51
269.7892627483386718
  0
ARC
  5
10D92
  8
0
 10
8547.2530879473306413
 20
2085.9488714865269685
 30
0.0
 40
0.2956182783573606
 50
186.8851095134025968
 51
230.8216559144584892
  0
ARC
  5
10D93
  8
0
 10
8547.3550287603829929
 20
2086.0898326857691245
 30
0.0
 40
0.4693958849860121
 50
232.0457333688385972
 51
269.7892627483386718
  0
ARC
  5
10D94
  8
0
 10
8547.2323937688743172
 20
2086.062883223154131
 30
0.0
 40
0.2748855980462609
 50
187.0755067704608052
 51
227.6336263287047927
  0
ARC
  5
10D95
  8
0
 10
8547.3237251141908928
 20
2086.1630217720139626
 30
0.0
 40
0.4104184118041948
 50
227.6336263287047927
 51
250.4171700085366012
  0
ARC
  5
10D96
  8
0
 10
8547.3623117522947723
 20
2086.3051825679090143
 30
0.0
 40
0.5574038025312003
 50
251.5780843738428985
 51
269.0738740008983996
  0
ARC
  5
10D97
  8
0
 10
8547.4535166497953469
 20
2085.5556244107178827
 30
0.0
 40
0.2956182783573606
 50
309.1783440855415961
 51
353.1148904865974032
  0
ARC
  5
10D98
  8
0
 10
8547.3515758367466333
 20
2085.6965856099600387
 30
0.0
 40
0.4693958849860121
 50
270.2107372516613282
 51
307.9542666311613743
  0
ARC
  5
10D99
  8
0
 10
8547.4535166497953469
 20
2085.9488714865269685
 30
0.0
 40
0.2956182783573606
 50
309.1783440855415961
 51
353.1148904865974032
  0
ARC
  5
10D9A
  8
0
 10
8547.3515758367466333
 20
2086.0898326857691245
 30
0.0
 40
0.4693958849860121
 50
270.2107372516613282
 51
307.9542666311613743
  0
ARC
  5
10D9B
  8
0
 10
8547.47421082825349
 20
2086.062883223154131
 30
0.0
 40
0.2748855980462609
 50
312.3663736712952073
 51
352.9244932295391095
  0
ARC
  5
10D9C
  8
0
 10
8547.3828794829350954
 20
2086.1630217720139626
 30
0.0
 40
0.4104184118041948
 50
289.5828299914634272
 51
312.3663736712952073
  0
ARC
  5
10D9D
  8
0
 10
8547.3442928448330349
 20
2086.3051825679090143
 30
0.0
 40
0.5574038025312003
 50
270.9261259991016004
 51
288.4219156261571015
  0
LINE
  5
10D9E
  8
0
 10
8547.7470030859640246
 20
2085.5201860376650984
 30
0.0
 11
8547.7470030859640246
 21
2087.1310400421511986
 31
0.0
  0
LINE
  5
10D9F
  8
0
 10
8547.320343326566217
 20
2090.4828347870761718
 30
0.0
 11
8547.3862612705634092
 21
2090.4828347870761718
 31
0.0
  0
LINE
  5
10DA0
  8
0
 10
8547.320343326566217
 20
2090.3686615587748747
 30
0.0
 11
8547.3862612705634092
 21
2090.3686615587748747
 31
0.0
  0
LINE
  5
10DA1
  8
0
 10
8547.2873843544657575
 20
2090.4257481728750463
 30
0.0
 11
8547.320343326566217
 21
2090.3686615587748747
 31
0.0
  0
LINE
  5
10DA2
  8
0
 10
8547.320343326566217
 20
2090.4828347870761718
 30
0.0
 11
8547.2873843544657575
 21
2090.4257481728750463
 31
0.0
  0
LINE
  5
10DA3
  8
0
 10
8547.4192202426638687
 20
2090.4257481728750463
 30
0.0
 11
8547.3862612705634092
 21
2090.3686615587748747
 31
0.0
  0
LINE
  5
10DA4
  8
0
 10
8547.3862612705634092
 20
2090.4828347870761718
 30
0.0
 11
8547.4192202426638687
 21
2090.4257481728750463
 31
0.0
  0
CIRCLE
  5
10DA5
  8
0
 10
8547.3533022985648131
 20
2090.4257481728750463
 30
0.0
 40
0.1496062981000001
  0
CIRCLE
  5
10DA6
  8
0
 10
8547.3533022985648131
 20
2090.4257481728750463
 30
0.0
 40
0.1771653542999996
  0
LINE
  5
10DA7
  8
0
 10
8547.9044834008636826
 20
2089.7160941360748438
 30
0.0
 11
8546.8021211962623056
 21
2089.7160941360748438
 31
0.0
  0
LINE
  5
10DA8
  8
0
 10
8547.9044834008636826
 20
2089.6141968741749224
 30
0.0
 11
8546.8021211962623056
 21
2089.6141968741749224
 31
0.0
  0
ENDSEC
  0
EOF
