  0
SECTION
  2
HEADER
  9
$ACADVER
  1
AC1009
  9
$INSBASE
 10
8838.6765986696937034
 20
2527.7003481159799776
 30
0.0
  9
$EXTMIN
 10
8837.7021892208922509
 20
2527.6950329547112233
 30
0.0
  9
$EXTMAX
 10
8839.651008118491518
 20
2537.3913981547048024
 30
0.0
  9
$LIMMIN
 10
0.0
 20
0.0
  9
$LIMMAX
 10
11.6929133858000007
 20
8.2677165353999982
  9
$ORTHOMODE
 70
     0
  9
$REGENMODE
 70
     1
  9
$FILLMODE
 70
     1
  9
$QTEXTMODE
 70
     0
  9
$MIRRTEXT
 70
     0
  9
$DRAGMODE
 70
     2
  9
$LTSCALE
 40
0.6431102362
  9
$OSMODE
 70
  4095
  9
$ATTMODE
 70
     1
  9
$TEXTSIZE
 40
0.2
  9
$TRACEWID
 40
0.05
  9
$TEXTSTYLE
  7
STANDARD
  9
$CLAYER
  8
0
  9
$CELTYPE
  6
BYLAYER
  9
$CECOLOR
 62
   256
  9
$DIMSCALE
 40
1.0
  9
$DIMASZ
 40
0.1875
  9
$DIMEXO
 40
0.0625
  9
$DIMDLI
 40
0.4443307087
  9
$DIMRND
 40
0.0
  9
$DIMDLE
 40
0.0
  9
$DIMEXE
 40
0.125
  9
$DIMTP
 40
0.01
  9
$DIMTM
 40
0.01
  9
$DIMTXT
 40
2.0
  9
$DIMCEN
 40
0.1052362205
  9
$DIMTSZ
 40
0.0
  9
$DIMTOL
 70
     1
  9
$DIMLIM
 70
     0
  9
$DIMTIH
 70
     1
  9
$DIMTOH
 70
     1
  9
$DIMSE1
 70
     0
  9
$DIMSE2
 70
     0
  9
$DIMTAD
 70
     0
  9
$DIMZIN
 70
     0
  9
$DIMBLK
  1

  9
$DIMASO
 70
     1
  9
$DIMSHO
 70
     1
  9
$DIMPOST
  1
\X
  9
$DIMAPOST
  1

  9
$DIMALT
 70
     1
  9
$DIMALTD
 70
     2
  9
$DIMALTF
 40
25.3999999999999986
  9
$DIMLFAC
 40
1.0
  9
$DIMTOFL
 70
     0
  9
$DIMTVP
 40
0.0
  9
$DIMTIX
 70
     0
  9
$DIMSOXD
 70
     0
  9
$DIMSAH
 70
     0
  9
$DIMBLK1
  1

  9
$DIMBLK2
  1

  9
$DIMSTYLE
  2
STANDARD
  9
$DIMCLRD
 70
     0
  9
$DIMCLRE
 70
     0
  9
$DIMCLRT
 70
     0
  9
$DIMTFAC
 40
1.0
  9
$DIMGAP
 40
0.09
  9
$LUNITS
 70
     2
  9
$LUPREC
 70
     4
  9
$SKETCHINC
 40
0.1
  9
$FILLETRAD
 40
0.0
  9
$AUNITS
 70
     0
  9
$AUPREC
 70
     0
  9
$MENU
  1
.
  9
$ELEVATION
 40
0.0
  9
$PELEVATION
 40
0.0
  9
$THICKNESS
 40
0.0
  9
$LIMCHECK
 70
     0
  9
$BLIPMODE
 70
     0
  9
$CHAMFERA
 40
0.0
  9
$CHAMFERB
 40
0.0
  9
$SKPOLY
 70
     0
  9
$TDCREATE
 40
2458060.468368056230247
  9
$TDUPDATE
 40
2460536.73547453712672
  9
$TDINDWG
 40
0.4750533565
  9
$TDUSRTIMER
 40
0.4750533565
  9
$USRTIMER
 70
     1
  9
$ANGBASE
 50
0.0
  9
$ANGDIR
 70
     0
  9
$PDMODE
 70
     0
  9
$PDSIZE
 40
0.3125
  9
$PLINEWID
 40
0.0
  9
$COORDS
 70
     0
  9
$SPLFRAME
 70
     0
  9
$SPLINETYPE
 70
     6
  9
$SPLINESEGS
 70
     8
  9
$ATTDIA
 70
     1
  9
$ATTREQ
 70
     1
  9
$HANDLING
 70
     1
  9
$HANDSEED
  5
17B92
  9
$SURFTAB1
 70
     6
  9
$SURFTAB2
 70
     6
  9
$SURFTYPE
 70
     6
  9
$SURFU
 70
     6
  9
$SURFV
 70
     6
  9
$UCSNAME
  2

  9
$UCSORG
 10
0.0
 20
0.0
 30
0.0
  9
$UCSXDIR
 10
1.0
 20
0.0
 30
0.0
  9
$UCSYDIR
 10
0.0
 20
1.0
 30
0.0
  9
$PUCSNAME
  2

  9
$PUCSORG
 10
0.0
 20
0.0
 30
0.0
  9
$PUCSXDIR
 10
1.0
 20
0.0
 30
0.0
  9
$PUCSYDIR
 10
0.0
 20
1.0
 30
0.0
  9
$USERI1
 70
     0
  9
$USERI2
 70
     0
  9
$USERI3
 70
     0
  9
$USERI4
 70
     0
  9
$USERI5
 70
     0
  9
$USERR1
 40
0.0
  9
$USERR2
 40
0.0
  9
$USERR3
 40
0.0
  9
$USERR4
 40
0.0
  9
$USERR5
 40
0.0
  9
$WORLDVIEW
 70
     1
  9
$SHADEDGE
 70
     3
  9
$SHADEDIF
 70
    70
  9
$TILEMODE
 70
     1
  9
$MAXACTVP
 70
    64
  9
$PLIMCHECK
 70
     0
  9
$PEXTMIN
 10
1.0000000000000000E+20
 20
1.0000000000000000E+20
 30
1.0000000000000000E+20
  9
$PEXTMAX
 10
-1.0000000000000000E+20
 20
-1.0000000000000000E+20
 30
-1.0000000000000000E+20
  9
$PLIMMIN
 10
0.0
 20
0.0
  9
$PLIMMAX
 10
12.0
 20
9.0
  9
$UNITMODE
 70
     0
  9
$VISRETAIN
 70
     1
  9
$PLINEGEN
 70
     0
  9
$PSLTSCALE
 70
     1
  0
ENDSEC
  0
SECTION
  2
TABLES
  0
TABLE
  2
VPORT
 70
     1
  0
VPORT
  2
*ACTIVE
 70
     0
 10
0.0
 20
0.0
 11
1.0
 21
1.0
 12
4023.3782588259427939
 22
2284.7345912871301152
 13
0.0
 23
0.0
 14
1.0
 24
1.0
 15
0.0
 25
0.0
 16
0.0
 26
0.0
 36
9.5192988075487186
 17
4815.2983398437490905
 27
247.8086242675780966
 37
0.0
 40
9.7650525567819386
 41
2.244680851063829
 42
50.0
 43
0.0
 44
0.0
 50
0.0
 51
0.0
 71
     0
 72
   100
 73
     1
 74
     1
 75
     0
 76
     0
 77
     0
 78
     0
  0
ENDTAB
  0
TABLE
  2
LTYPE
 70
     2
  0
LTYPE
  2
CONTINUOUS
 70
     0
  3
Solid line
 72
    65
 73
     0
 40
0.0
  0
LTYPE
  2
PHANTOM2
 70
     0
  3
___ _ _ ___ _ _ ___ _ _ ___ _ _
 72
    65
 73
     6
 40
1.25
 49
0.625
 49
-0.125
 49
0.125
 49
-0.125
 49
0.125
 49
-0.125
  0
ENDTAB
  0
TABLE
  2
LAYER
 70
     2
  0
LAYER
  2
0
 70
     0
 62
   255
  6
CONTINUOUS
  0
LAYER
  2
DEFPOINTS
 70
     0
 62
     7
  6
CONTINUOUS
  0
ENDTAB
  0
TABLE
  2
STYLE
 70
     1
  0
STYLE
  2
STANDARD
 70
     0
 40
0.0
 41
0.8
 50
0.0
 71
     0
 42
0.2
  3
txt
  4

  0
ENDTAB
  0
TABLE
  2
VIEW
 70
     0
  0
ENDTAB
  0
TABLE
  2
UCS
 70
     0
  0
ENDTAB
  0
TABLE
  2
APPID
 70
    12
  0
APPID
  2
ACAD
 70
     0
  0
APPID
  2
ACAD_MLEADERVER
 70
     0
  0
APPID
  2
ACAD_EXEMPT_FROM_CAD_STANDARDS
 70
     0
  0
APPID
  2
ACAD_NAV_VCDISPLAY
 70
     0
  0
APPID
  2
ACAECLAYERSTANDARD
 70
     0
  0
APPID
  2
ACCMTRANSPARENCY
 70
     0
  0
APPID
  2
ACAD_DSTYLE_DIMJAG
 70
     0
  0
APPID
  2
ACAD_DSTYLE_DIMTALN
 70
     0
  0
APPID
  2
ACDBATTR
 70
     0
  0
APPID
  2
ACADANNOTATIVE
 70
     0
  0
APPID
  2
GRADIENTCOLOR1ACI
 70
     0
  0
APPID
  2
GRADIENTCOLOR2ACI
 70
     0
  0
ENDTAB
  0
TABLE
  2
DIMSTYLE
 70
     2
  0
DIMSTYLE
  2
STANDARD
 70
     0
  3

  4

  5

  6

  7

 40
1.0
 41
0.1875
 42
0.0625
 43
0.38
 44
0.125
 45
0.0
 46
0.0
 47
0.01
 48
0.01
140
0.15625
141
0.09
142
0.0
143
25.3999999999999986
144
1.0
145
0.0
146
1.0
147
0.09
 71
     1
 72
     0
 73
     1
 74
     1
 75
     0
 76
     0
 77
     0
 78
     4
170
     0
171
     2
172
     0
173
     0
174
     0
175
     0
176
     0
177
     0
178
     0
  0
DIMSTYLE
  2
ANNOTATIVE
 70
     0
  3

  4

  5

  6

  7

 40
0.0
 41
0.18
 42
0.0625
 43
0.38
 44
0.18
 45
0.0
 46
0.0
 47
0.0
 48
0.0
140
0.18
141
0.09
142
0.0
143
25.3999999999999986
144
1.0
145
0.0
146
1.0
147
0.09
 71
     0
 72
     0
 73
     1
 74
     1
 75
     0
 76
     0
 77
     0
 78
     0
170
     0
171
     2
172
     0
173
     0
174
     0
175
     0
176
     0
177
     0
178
     0
  0
ENDTAB
  0
ENDSEC
  0
SECTION
  2
BLOCKS
  0
BLOCK
  8
0
  2
$MODEL_SPACE
 70
     0
 10
0.0
 20
0.0
 30
0.0
  3
$MODEL_SPACE
  1

  0
ENDBLK
  5
21
  8
0
  0
BLOCK
 67
     1
  8
0
  2
$PAPER_SPACE
 70
     0
 10
0.0
 20
0.0
 30
0.0
  3
$PAPER_SPACE
  1

  0
ENDBLK
  5
1D
 67
     1
  8
0
  0
BLOCK
  8
0
  2
_FILLED
 70
     0
 10
0.0
 20
0.0
 30
0.0
  3
_FILLED
  1

  0
SOLID
  5
D8EA
  8
0
  6
BYBLOCK
 62
     0
 10
0.0
 20
0.0
 30
0.0
 11
-1.0
 21
0.1666666667
 31
0.0
 12
-1.0
 22
-0.1666666667
 32
0.0
 13
-1.0
 23
-0.1666666667
 33
0.0
  0
ENDBLK
  5
D8EB
  8
0
  6
BYBLOCK
 62
     0
  0
ENDSEC
  0
SECTION
  2
ENTITIES
  0
ATTDEF
  5
3930
  8
DEFPOINTS
 10
8838.6769630343133031
 20
2527.6983662880438715
 30
0.0
 40
0.001
  1
P33352-LV
  3

  2
MODELNUMBER
 70
     0
1001
ACDBATTR
1070
     0
1070
     1
  0
ATTDEF
  5
3931
  8
DEFPOINTS
 10
8838.6769630343133031
 20
2527.6966996213777747
 30
0.0
 40
0.001
  1
AILERON
  3

  2
TRADENAME
 70
     0
1001
ACDBATTR
1070
     0
1070
     1
  0
ATTDEF
  5
3932
  8
DEFPOINTS
 10
8838.6769630343133031
 20
2527.6950329547112233
 30
0.0
 40
0.001
  1
BATHROOM SINK FAUCET
  3

  2
PRODUCT
 70
     0
1001
ACDBATTR
1070
     0
1070
     1
  0
LINE
  5
176DF
  8
0
 10
8839.651008118491518
 20
2527.7003481159799776
 30
0.0
 11
8837.7021892208922509
 21
2527.7003481159799776
 31
0.0
  0
LINE
  5
176E0
  8
0
 10
8839.6392081184931158
 20
2527.8578284309801347
 30
0.0
 11
8837.7139892208924721
 21
2527.8578284309801347
 31
0.0
  0
LINE
  5
176E1
  8
0
 10
8839.3852600869904563
 20
2535.7318441789798271
 30
0.0
 11
8837.9679372523933125
 21
2535.7318441789798271
 31
0.0
  0
LINE
  5
176E2
  8
0
  6
CONTINUOUS
 10
8837.9679372523933125
 20
2536.6625775328789132
 30
0.0
 11
8837.9905485679937556
 21
2536.685188848479811
 31
0.0
1001
GRADIENTCOLOR1ACI
1070
     5
1001
GRADIENTCOLOR2ACI
1070
     2
1001
ACAD
1010
0.0
1020
0.0
1030
0.0
  0
LINE
  5
176E3
  8
0
  6
CONTINUOUS
 10
8837.9679372523933125
 20
2536.6272221938188522
 30
0.0
 11
8838.0259039070533618
 21
2536.685188848479811
 31
0.0
1001
GRADIENTCOLOR1ACI
1070
     5
1001
GRADIENTCOLOR2ACI
1070
     2
1001
ACAD
1010
0.0
1020
0.0
1030
0.0
  0
LINE
  5
176E4
  8
0
  6
CONTINUOUS
 10
8837.9679372523933125
 20
2536.5918668547601555
 30
0.0
 11
8838.0612592461147869
 21
2536.685188848479811
 31
0.0
1001
GRADIENTCOLOR1ACI
1070
     5
1001
GRADIENTCOLOR2ACI
1070
     2
1001
ACAD
1010
0.0
1020
0.0
1030
0.0
  0
LINE
  5
176E5
  8
0
  6
CONTINUOUS
 10
8837.9679372523933125
 20
2536.5565115157010041
 30
0.0
 11
8838.0966145851743931
 21
2536.685188848479811
 31
0.0
1001
GRADIENTCOLOR1ACI
1070
     5
1001
GRADIENTCOLOR2ACI
1070
     2
1001
ACAD
1010
0.0
1020
0.0
1030
0.0
  0
LINE
  5
176E6
  8
0
  6
CONTINUOUS
 10
8837.9679372523933125
 20
2536.5211561766409432
 30
0.0
 11
8838.1116380397925241
 21
2536.6648569640410642
 31
0.0
1001
GRADIENTCOLOR1ACI
1070
     5
1001
GRADIENTCOLOR2ACI
1070
     2
1001
ACAD
1010
0.0
1020
0.0
1030
0.0
  0
LINE
  5
176E7
  8
0
  6
CONTINUOUS
 10
8837.9679372523933125
 20
2536.4858008375817917
 30
0.0
 11
8838.1116380397925241
 21
2536.6295016249819128
 31
0.0
1001
GRADIENTCOLOR1ACI
1070
     5
1001
GRADIENTCOLOR2ACI
1070
     2
1001
ACAD
1010
0.0
1020
0.0
1030
0.0
  0
LINE
  5
176E8
  8
0
  6
CONTINUOUS
 10
8837.9679372523933125
 20
2536.450445498523095
 30
0.0
 11
8838.1116380397925241
 21
2536.5941462859218518
 31
0.0
1001
GRADIENTCOLOR1ACI
1070
     5
1001
GRADIENTCOLOR2ACI
1070
     2
1001
ACAD
1010
0.0
1020
0.0
1030
0.0
  0
LINE
  5
176E9
  8
0
  6
CONTINUOUS
 10
8837.9679372523933125
 20
2536.4150901594630341
 30
0.0
 11
8838.1116380397925241
 21
2536.5587909468631551
 31
0.0
1001
GRADIENTCOLOR1ACI
1070
     5
1001
GRADIENTCOLOR2ACI
1070
     2
1001
ACAD
1010
0.0
1020
0.0
1030
0.0
  0
LINE
  5
176EA
  8
0
  6
CONTINUOUS
 10
8837.9679372523933125
 20
2536.3797348204038826
 30
0.0
 11
8838.1116380397925241
 21
2536.5234356078040037
 31
0.0
1001
GRADIENTCOLOR1ACI
1070
     5
1001
GRADIENTCOLOR2ACI
1070
     2
1001
ACAD
1010
0.0
1020
0.0
1030
0.0
  0
LINE
  5
176EB
  8
0
  6
CONTINUOUS
 10
8837.9679372523933125
 20
2536.3443794813438217
 30
0.0
 11
8838.111896225829696
 21
2536.4883384547802052
 31
0.0
1001
GRADIENTCOLOR1ACI
1070
     5
1001
GRADIENTCOLOR2ACI
1070
     2
1001
ACAD
1010
0.0
1020
0.0
1030
0.0
  0
LINE
  5
176EC
  8
0
  6
CONTINUOUS
 10
8837.9679372523933125
 20
2536.3090241422860345
 30
0.0
 11
8838.1472515648893022
 21
2536.4883384547802052
 31
0.0
1001
GRADIENTCOLOR1ACI
1070
     5
1001
GRADIENTCOLOR2ACI
1070
     2
1001
ACAD
1010
0.0
1020
0.0
1030
0.0
  0
LINE
  5
176ED
  8
0
  6
CONTINUOUS
 10
8837.9679372523933125
 20
2536.2736688032259735
 30
0.0
 11
8838.1826069039470894
 21
2536.4883384547802052
 31
0.0
1001
GRADIENTCOLOR1ACI
1070
     5
1001
GRADIENTCOLOR2ACI
1070
     2
1001
ACAD
1010
0.0
1020
0.0
1030
0.0
  0
LINE
  5
176EE
  8
0
  6
CONTINUOUS
 10
8837.9679372523933125
 20
2536.2383134641668221
 30
0.0
 11
8838.2179622430066956
 21
2536.4883384547802052
 31
0.0
1001
GRADIENTCOLOR1ACI
1070
     5
1001
GRADIENTCOLOR2ACI
1070
     2
1001
ACAD
1010
0.0
1020
0.0
1030
0.0
  0
LINE
  5
176EF
  8
0
  6
CONTINUOUS
 10
8837.9679372523933125
 20
2536.2029581251072159
 30
0.0
 11
8838.2533175820626639
 21
2536.4883384547802052
 31
0.0
1001
GRADIENTCOLOR1ACI
1070
     5
1001
GRADIENTCOLOR2ACI
1070
     2
1001
ACAD
1010
0.0
1020
0.0
1030
0.0
  0
LINE
  5
176F0
  8
0
  6
CONTINUOUS
 10
8837.9679372523933125
 20
2536.1676027860480644
 30
0.0
 11
8838.2886729211222701
 21
2536.4883384547802052
 31
0.0
1001
GRADIENTCOLOR1ACI
1070
     5
1001
GRADIENTCOLOR2ACI
1070
     2
1001
ACAD
1010
0.0
1020
0.0
1030
0.0
  0
LINE
  5
176F1
  8
0
  6
CONTINUOUS
 10
8837.9679372523933125
 20
2536.132247446988913
 30
0.0
 11
8838.3240282601836952
 21
2536.4883384547802052
 31
0.0
1001
GRADIENTCOLOR1ACI
1070
     5
1001
GRADIENTCOLOR2ACI
1070
     2
1001
ACAD
1010
0.0
1020
0.0
1030
0.0
  0
LINE
  5
176F2
  8
0
  6
CONTINUOUS
 10
8837.9679372523933125
 20
2536.0968921079288521
 30
0.0
 11
8838.3593835992433014
 21
2536.4883384547802052
 31
0.0
1001
GRADIENTCOLOR1ACI
1070
     5
1001
GRADIENTCOLOR2ACI
1070
     2
1001
ACAD
1010
0.0
1020
0.0
1030
0.0
  0
LINE
  5
176F3
  8
0
  6
CONTINUOUS
 10
8837.9679372523933125
 20
2536.0615367688701554
 30
0.0
 11
8838.3947389383029076
 21
2536.4883384547802052
 31
0.0
1001
GRADIENTCOLOR1ACI
1070
     5
1001
GRADIENTCOLOR2ACI
1070
     2
1001
ACAD
1010
0.0
1020
0.0
1030
0.0
  0
LINE
  5
176F4
  8
0
  6
CONTINUOUS
 10
8837.9679372523933125
 20
2536.0261814298110039
 30
0.0
 11
8838.4300942773606948
 21
2536.4883384547802052
 31
0.0
1001
GRADIENTCOLOR1ACI
1070
     5
1001
GRADIENTCOLOR2ACI
1070
     2
1001
ACAD
1010
0.0
1020
0.0
1030
0.0
  0
LINE
  5
176F5
  8
0
  6
CONTINUOUS
 10
8837.9679372523933125
 20
2535.990826090750943
 30
0.0
 11
8838.465449616420301
 21
2536.4883384547802052
 31
0.0
1001
GRADIENTCOLOR1ACI
1070
     5
1001
GRADIENTCOLOR2ACI
1070
     2
1001
ACAD
1010
0.0
1020
0.0
1030
0.0
  0
LINE
  5
176F6
  8
0
  6
CONTINUOUS
 10
8837.9679372523933125
 20
2535.9554707516917915
 30
0.0
 11
8838.5008049554799072
 21
2536.4883384547802052
 31
0.0
1001
GRADIENTCOLOR1ACI
1070
     5
1001
GRADIENTCOLOR2ACI
1070
     2
1001
ACAD
1010
0.0
1020
0.0
1030
0.0
  0
LINE
  5
176F7
  8
0
  6
CONTINUOUS
 10
8837.9679372523933125
 20
2535.9201154126330948
 30
0.0
 11
8838.5361602945395134
 21
2536.4883384547802052
 31
0.0
1001
GRADIENTCOLOR1ACI
1070
     5
1001
GRADIENTCOLOR2ACI
1070
     2
1001
ACAD
1010
0.0
1020
0.0
1030
0.0
  0
LINE
  5
176F8
  8
0
  6
CONTINUOUS
 10
8837.9679372523933125
 20
2535.8847600735730339
 30
0.0
 11
8838.5715156335991196
 21
2536.4883384547802052
 31
0.0
1001
GRADIENTCOLOR1ACI
1070
     5
1001
GRADIENTCOLOR2ACI
1070
     2
1001
ACAD
1010
0.0
1020
0.0
1030
0.0
  0
LINE
  5
176F9
  8
0
  6
CONTINUOUS
 10
8837.9966347522586148
 20
2535.8781022343800942
 30
0.0
 11
8838.6068709726587258
 21
2536.4883384547802052
 31
0.0
1001
GRADIENTCOLOR1ACI
1070
     5
1001
GRADIENTCOLOR2ACI
1070
     2
1001
ACAD
1010
0.0
1020
0.0
1030
0.0
  0
LINE
  5
176FA
  8
0
  6
CONTINUOUS
 10
8838.0319900913182209
 20
2535.8781022343800942
 30
0.0
 11
8838.642226311716513
 21
2536.4883384547802052
 31
0.0
1001
GRADIENTCOLOR1ACI
1070
     5
1001
GRADIENTCOLOR2ACI
1070
     2
1001
ACAD
1010
0.0
1020
0.0
1030
0.0
  0
LINE
  5
176FB
  8
0
  6
CONTINUOUS
 10
8838.0673454303778271
 20
2535.8781022343800942
 30
0.0
 11
8838.6775816507761192
 21
2536.4883384547802052
 31
0.0
1001
GRADIENTCOLOR1ACI
1070
     5
1001
GRADIENTCOLOR2ACI
1070
     2
1001
ACAD
1010
0.0
1020
0.0
1030
0.0
  0
LINE
  5
176FC
  8
0
  6
CONTINUOUS
 10
8838.1027007694374333
 20
2535.8781022343800942
 30
0.0
 11
8838.7129369898357254
 21
2536.4883384547802052
 31
0.0
1001
GRADIENTCOLOR1ACI
1070
     5
1001
GRADIENTCOLOR2ACI
1070
     2
1001
ACAD
1010
0.0
1020
0.0
1030
0.0
  0
LINE
  5
176FD
  8
0
  6
CONTINUOUS
 10
8838.1380561084952205
 20
2535.8781022343800942
 30
0.0
 11
8838.7482923288953316
 21
2536.4883384547802052
 31
0.0
1001
GRADIENTCOLOR1ACI
1070
     5
1001
GRADIENTCOLOR2ACI
1070
     2
1001
ACAD
1010
0.0
1020
0.0
1030
0.0
  0
LINE
  5
176FE
  8
0
  6
CONTINUOUS
 10
8838.1734114475548267
 20
2535.8781022343800942
 30
0.0
 11
8838.7836476679549378
 21
2536.4883384547802052
 31
0.0
1001
GRADIENTCOLOR1ACI
1070
     5
1001
GRADIENTCOLOR2ACI
1070
     2
1001
ACAD
1010
0.0
1020
0.0
1030
0.0
  0
LINE
  5
176FF
  8
0
  6
CONTINUOUS
 10
8838.2087667866144329
 20
2535.8781022343800942
 30
0.0
 11
8838.819003007014544
 21
2536.4883384547802052
 31
0.0
1001
GRADIENTCOLOR1ACI
1070
     5
1001
GRADIENTCOLOR2ACI
1070
     2
1001
ACAD
1010
0.0
1020
0.0
1030
0.0
  0
LINE
  5
17700
  8
0
  6
CONTINUOUS
 10
8838.2441221256740391
 20
2535.8781022343800942
 30
0.0
 11
8838.8543583460741502
 21
2536.4883384547802052
 31
0.0
1001
GRADIENTCOLOR1ACI
1070
     5
1001
GRADIENTCOLOR2ACI
1070
     2
1001
ACAD
1010
0.0
1020
0.0
1030
0.0
  0
LINE
  5
17701
  8
0
  6
CONTINUOUS
 10
8838.2794774647336453
 20
2535.8781022343800942
 30
0.0
 11
8838.8897136851337564
 21
2536.4883384547802052
 31
0.0
1001
GRADIENTCOLOR1ACI
1070
     5
1001
GRADIENTCOLOR2ACI
1070
     2
1001
ACAD
1010
0.0
1020
0.0
1030
0.0
  0
LINE
  5
17702
  8
0
  6
CONTINUOUS
 10
8838.3148328037932515
 20
2535.8781022343800942
 30
0.0
 11
8838.9250690241933626
 21
2536.4883384547802052
 31
0.0
1001
GRADIENTCOLOR1ACI
1070
     5
1001
GRADIENTCOLOR2ACI
1070
     2
1001
ACAD
1010
0.0
1020
0.0
1030
0.0
  0
LINE
  5
17703
  8
0
  6
CONTINUOUS
 10
8838.3501881428528577
 20
2535.8781022343800942
 30
0.0
 11
8838.9604243632511498
 21
2536.4883384547802052
 31
0.0
1001
GRADIENTCOLOR1ACI
1070
     5
1001
GRADIENTCOLOR2ACI
1070
     2
1001
ACAD
1010
0.0
1020
0.0
1030
0.0
  0
LINE
  5
17704
  8
0
  6
CONTINUOUS
 10
8838.3855434819106449
 20
2535.8781022343800942
 30
0.0
 11
8838.995779702312575
 21
2536.4883384547802052
 31
0.0
1001
GRADIENTCOLOR1ACI
1070
     5
1001
GRADIENTCOLOR2ACI
1070
     2
1001
ACAD
1010
0.0
1020
0.0
1030
0.0
  0
LINE
  5
17705
  8
0
  6
CONTINUOUS
 10
8838.4208988209702511
 20
2535.8781022343800942
 30
0.0
 11
8839.0311350413721811
 21
2536.4883384547802052
 31
0.0
1001
GRADIENTCOLOR1ACI
1070
     5
1001
GRADIENTCOLOR2ACI
1070
     2
1001
ACAD
1010
0.0
1020
0.0
1030
0.0
  0
LINE
  5
17706
  8
0
  6
CONTINUOUS
 10
8838.4562541600298573
 20
2535.8781022343800942
 30
0.0
 11
8839.0664903804299684
 21
2536.4883384547802052
 31
0.0
1001
GRADIENTCOLOR1ACI
1070
     5
1001
GRADIENTCOLOR2ACI
1070
     2
1001
ACAD
1010
0.0
1020
0.0
1030
0.0
  0
LINE
  5
17707
  8
0
  6
CONTINUOUS
 10
8839.2415592995912448
 20
2536.6634073739428459
 30
0.0
 11
8839.2633407741286646
 21
2536.685188848479811
 31
0.0
1001
GRADIENTCOLOR1ACI
1070
     5
1001
GRADIENTCOLOR2ACI
1070
     2
1001
ACAD
1010
0.0
1020
0.0
1030
0.0
  0
LINE
  5
17708
  8
0
  6
CONTINUOUS
 10
8838.4916094990894635
 20
2535.8781022343800942
 30
0.0
 11
8839.1018457194895745
 21
2536.4883384547802052
 31
0.0
1001
GRADIENTCOLOR1ACI
1070
     5
1001
GRADIENTCOLOR2ACI
1070
     2
1001
ACAD
1010
0.0
1020
0.0
1030
0.0
  0
LINE
  5
17709
  8
0
  6
CONTINUOUS
 10
8839.2415592995912448
 20
2536.6280520348827849
 30
0.0
 11
8839.2986961131882708
 21
2536.685188848479811
 31
0.0
1001
GRADIENTCOLOR1ACI
1070
     5
1001
GRADIENTCOLOR2ACI
1070
     2
1001
ACAD
1010
0.0
1020
0.0
1030
0.0
  0
LINE
  5
1770A
  8
0
  6
CONTINUOUS
 10
8838.5269648381508887
 20
2535.8781022343800942
 30
0.0
 11
8839.1372010585491807
 21
2536.4883384547802052
 31
0.0
1001
GRADIENTCOLOR1ACI
1070
     5
1001
GRADIENTCOLOR2ACI
1070
     2
1001
ACAD
1010
0.0
1020
0.0
1030
0.0
  0
LINE
  5
1770B
  8
0
  6
CONTINUOUS
 10
8839.2415592995912448
 20
2536.5926966958240882
 30
0.0
 11
8839.334051452247877
 21
2536.685188848479811
 31
0.0
1001
GRADIENTCOLOR1ACI
1070
     5
1001
GRADIENTCOLOR2ACI
1070
     2
1001
ACAD
1010
0.0
1020
0.0
1030
0.0
  0
LINE
  5
1770C
  8
0
  6
CONTINUOUS
 10
8838.5623201772086759
 20
2535.8781022343800942
 30
0.0
 11
8839.1725563976106059
 21
2536.4883384547802052
 31
0.0
1001
GRADIENTCOLOR1ACI
1070
     5
1001
GRADIENTCOLOR2ACI
1070
     2
1001
ACAD
1010
0.0
1020
0.0
1030
0.0
  0
LINE
  5
1770D
  8
0
  6
CONTINUOUS
 10
8839.2415592995912448
 20
2536.5573413567649368
 30
0.0
 11
8839.3694067913074832
 21
2536.685188848479811
 31
0.0
1001
GRADIENTCOLOR1ACI
1070
     5
1001
GRADIENTCOLOR2ACI
1070
     2
1001
ACAD
1010
0.0
1020
0.0
1030
0.0
  0
LINE
  5
1770E
  8
0
  6
CONTINUOUS
 10
8838.5976755162664631
 20
2535.8781022343800942
 30
0.0
 11
8839.2079117366665741
 21
2536.4883384547802052
 31
0.0
1001
GRADIENTCOLOR1ACI
1070
     5
1001
GRADIENTCOLOR2ACI
1070
     2
1001
ACAD
1010
0.0
1020
0.0
1030
0.0
  0
LINE
  5
1770F
  8
0
  6
CONTINUOUS
 10
8839.2415592995912448
 20
2536.5219860177048758
 30
0.0
 11
8839.3852600869904563
 21
2536.6656868051059064
 31
0.0
1001
GRADIENTCOLOR1ACI
1070
     5
1001
GRADIENTCOLOR2ACI
1070
     2
1001
ACAD
1010
0.0
1020
0.0
1030
0.0
  0
LINE
  5
17710
  8
0
  6
CONTINUOUS
 10
8838.6330308553260693
 20
2535.8781022343800942
 30
0.0
 11
8839.3852600869904563
 21
2536.6303314660458454
 31
0.0
1001
GRADIENTCOLOR1ACI
1070
     5
1001
GRADIENTCOLOR2ACI
1070
     2
1001
ACAD
1010
0.0
1020
0.0
1030
0.0
  0
LINE
  5
17711
  8
0
  6
CONTINUOUS
 10
8838.6683861943856755
 20
2535.8781022343800942
 30
0.0
 11
8839.3852600869904563
 21
2536.5949761269871487
 31
0.0
1001
GRADIENTCOLOR1ACI
1070
     5
1001
GRADIENTCOLOR2ACI
1070
     2
1001
ACAD
1010
0.0
1020
0.0
1030
0.0
  0
LINE
  5
17712
  8
0
  6
CONTINUOUS
 10
8838.7037415334452817
 20
2535.8781022343800942
 30
0.0
 11
8839.3852600869904563
 21
2536.5596207879279973
 31
0.0
1001
GRADIENTCOLOR1ACI
1070
     5
1001
GRADIENTCOLOR2ACI
1070
     2
1001
ACAD
1010
0.0
1020
0.0
1030
0.0
  0
LINE
  5
17713
  8
0
  6
CONTINUOUS
 10
8838.7390968725067069
 20
2535.8781022343800942
 30
0.0
 11
8839.3852600869904563
 21
2536.5242654488679364
 31
0.0
1001
GRADIENTCOLOR1ACI
1070
     5
1001
GRADIENTCOLOR2ACI
1070
     2
1001
ACAD
1010
0.0
1020
0.0
1030
0.0
  0
LINE
  5
17714
  8
0
  6
CONTINUOUS
 10
8838.7744522115644941
 20
2535.8781022343800942
 30
0.0
 11
8839.3852600869904563
 21
2536.4889101098087849
 31
0.0
1001
GRADIENTCOLOR1ACI
1070
     5
1001
GRADIENTCOLOR2ACI
1070
     2
1001
ACAD
1010
0.0
1020
0.0
1030
0.0
  0
LINE
  5
17715
  8
0
  6
CONTINUOUS
 10
8838.8098075506222813
 20
2535.8781022343800942
 30
0.0
 11
8839.3852600869904563
 21
2536.4535547707500882
 31
0.0
1001
GRADIENTCOLOR1ACI
1070
     5
1001
GRADIENTCOLOR2ACI
1070
     2
1001
ACAD
1010
0.0
1020
0.0
1030
0.0
  0
LINE
  5
17716
  8
0
  6
CONTINUOUS
 10
8838.8451628896818875
 20
2535.8781022343800942
 30
0.0
 11
8839.3852600869904563
 21
2536.4181994316900273
 31
0.0
1001
GRADIENTCOLOR1ACI
1070
     5
1001
GRADIENTCOLOR2ACI
1070
     2
1001
ACAD
1010
0.0
1020
0.0
1030
0.0
  0
LINE
  5
17717
  8
0
  6
CONTINUOUS
 10
8838.8805182287414937
 20
2535.8781022343800942
 30
0.0
 11
8839.3852600869904563
 21
2536.3828440926308758
 31
0.0
1001
GRADIENTCOLOR1ACI
1070
     5
1001
GRADIENTCOLOR2ACI
1070
     2
1001
ACAD
1010
0.0
1020
0.0
1030
0.0
  0
LINE
  5
17718
  8
0
  6
CONTINUOUS
 10
8838.9158735678010999
 20
2535.8781022343800942
 30
0.0
 11
8839.3852600869904563
 21
2536.3474887535708149
 31
0.0
1001
GRADIENTCOLOR1ACI
1070
     5
1001
GRADIENTCOLOR2ACI
1070
     2
1001
ACAD
1010
0.0
1020
0.0
1030
0.0
  0
LINE
  5
17719
  8
0
  6
CONTINUOUS
 10
8838.951228906860706
 20
2535.8781022343800942
 30
0.0
 11
8839.3852600869904563
 21
2536.3121334145121182
 31
0.0
1001
GRADIENTCOLOR1ACI
1070
     5
1001
GRADIENTCOLOR2ACI
1070
     2
1001
ACAD
1010
0.0
1020
0.0
1030
0.0
  0
LINE
  5
1771A
  8
0
  6
CONTINUOUS
 10
8838.9865842459203122
 20
2535.8781022343800942
 30
0.0
 11
8839.3852600869904563
 21
2536.2767780754520572
 31
0.0
1001
GRADIENTCOLOR1ACI
1070
     5
1001
GRADIENTCOLOR2ACI
1070
     2
1001
ACAD
1010
0.0
1020
0.0
1030
0.0
  0
LINE
  5
1771B
  8
0
  6
CONTINUOUS
 10
8839.0219395849780994
 20
2535.8781022343800942
 30
0.0
 11
8839.3852600869904563
 21
2536.2414227363938153
 31
0.0
1001
GRADIENTCOLOR1ACI
1070
     5
1001
GRADIENTCOLOR2ACI
1070
     2
1001
ACAD
1010
0.0
1020
0.0
1030
0.0
  0
LINE
  5
1771C
  8
0
  6
CONTINUOUS
 10
8839.0572949240377056
 20
2535.8781022343800942
 30
0.0
 11
8839.3852600869904563
 21
2536.2060673973342091
 31
0.0
1001
GRADIENTCOLOR1ACI
1070
     5
1001
GRADIENTCOLOR2ACI
1070
     2
1001
ACAD
1010
0.0
1020
0.0
1030
0.0
  0
LINE
  5
1771D
  8
0
  6
CONTINUOUS
 10
8839.0926502630973118
 20
2535.8781022343800942
 30
0.0
 11
8839.3852600869904563
 21
2536.1707120582750576
 31
0.0
1001
GRADIENTCOLOR1ACI
1070
     5
1001
GRADIENTCOLOR2ACI
1070
     2
1001
ACAD
1010
0.0
1020
0.0
1030
0.0
  0
LINE
  5
1771E
  8
0
  6
CONTINUOUS
 10
8839.128005602156918
 20
2535.8781022343800942
 30
0.0
 11
8839.3852600869904563
 21
2536.1353567192159062
 31
0.0
1001
GRADIENTCOLOR1ACI
1070
     5
1001
GRADIENTCOLOR2ACI
1070
     2
1001
ACAD
1010
0.0
1020
0.0
1030
0.0
  0
LINE
  5
1771F
  8
0
  6
CONTINUOUS
 10
8839.1633609412165242
 20
2535.8781022343800942
 30
0.0
 11
8839.3852600869904563
 21
2536.1000013801572095
 31
0.0
1001
GRADIENTCOLOR1ACI
1070
     5
1001
GRADIENTCOLOR2ACI
1070
     2
1001
ACAD
1010
0.0
1020
0.0
1030
0.0
  0
LINE
  5
17720
  8
0
  6
CONTINUOUS
 10
8839.1987162802761304
 20
2535.8781022343800942
 30
0.0
 11
8839.3852600869904563
 21
2536.0646460410971486
 31
0.0
1001
GRADIENTCOLOR1ACI
1070
     5
1001
GRADIENTCOLOR2ACI
1070
     2
1001
ACAD
1010
0.0
1020
0.0
1030
0.0
  0
LINE
  5
17721
  8
0
  6
CONTINUOUS
 10
8839.2340716193357366
 20
2535.8781022343800942
 30
0.0
 11
8839.3852600869904563
 21
2536.0292907020379971
 31
0.0
1001
GRADIENTCOLOR1ACI
1070
     5
1001
GRADIENTCOLOR2ACI
1070
     2
1001
ACAD
1010
0.0
1020
0.0
1030
0.0
  0
LINE
  5
17722
  8
0
  6
CONTINUOUS
 10
8839.2694269583935238
 20
2535.8781022343800942
 30
0.0
 11
8839.3852600869904563
 21
2535.9939353629779362
 31
0.0
1001
GRADIENTCOLOR1ACI
1070
     5
1001
GRADIENTCOLOR2ACI
1070
     2
1001
ACAD
1010
0.0
1020
0.0
1030
0.0
  0
LINE
  5
17723
  8
0
  6
CONTINUOUS
 10
8839.30478229745313
 20
2535.8781022343800942
 30
0.0
 11
8839.3852600869904563
 21
2535.9585800239187847
 31
0.0
1001
GRADIENTCOLOR1ACI
1070
     5
1001
GRADIENTCOLOR2ACI
1070
     2
1001
ACAD
1010
0.0
1020
0.0
1030
0.0
  0
LINE
  5
17724
  8
0
  6
CONTINUOUS
 10
8839.3401376365127362
 20
2535.8781022343800942
 30
0.0
 11
8839.3852600869904563
 21
2535.9232246848591785
 31
0.0
1001
GRADIENTCOLOR1ACI
1070
     5
1001
GRADIENTCOLOR2ACI
1070
     2
1001
ACAD
1010
0.0
1020
0.0
1030
0.0
  0
LINE
  5
17725
  8
0
  6
CONTINUOUS
 10
8839.3754929755723424
 20
2535.8781022343800942
 30
0.0
 11
8839.3852600869904563
 21
2535.8878693458000271
 31
0.0
1001
GRADIENTCOLOR1ACI
1070
     5
1001
GRADIENTCOLOR2ACI
1070
     2
1001
ACAD
1010
0.0
1020
0.0
1030
0.0
  0
LINE
  5
17726
  8
0
  6
CONTINUOUS
 10
8837.9749410513868497
 20
2535.8781022343800942
 30
0.0
 11
8837.9679372523933125
 21
2535.8851060333740861
 31
0.0
1001
GRADIENTCOLOR1ACI
1070
     5
1001
GRADIENTCOLOR2ACI
1070
     2
1001
ACAD
1010
0.0
1020
0.0
1030
0.0
  0
LINE
  5
17727
  8
0
  6
CONTINUOUS
 10
8838.0102963904464559
 20
2535.8781022343800942
 30
0.0
 11
8837.9679372523933125
 21
2535.9204613724327828
 31
0.0
1001
GRADIENTCOLOR1ACI
1070
     5
1001
GRADIENTCOLOR2ACI
1070
     2
1001
ACAD
1010
0.0
1020
0.0
1030
0.0
  0
LINE
  5
17728
  8
0
  6
CONTINUOUS
 10
8838.0456517295060621
 20
2535.8781022343800942
 30
0.0
 11
8837.9679372523933125
 21
2535.9558167114919343
 31
0.0
1001
GRADIENTCOLOR1ACI
1070
     5
1001
GRADIENTCOLOR2ACI
1070
     2
1001
ACAD
1010
0.0
1020
0.0
1030
0.0
  0
LINE
  5
17729
  8
0
  6
CONTINUOUS
 10
8838.0810070685656683
 20
2535.8781022343800942
 30
0.0
 11
8837.9679372523933125
 21
2535.9911720505510857
 31
0.0
1001
GRADIENTCOLOR1ACI
1070
     5
1001
GRADIENTCOLOR2ACI
1070
     2
1001
ACAD
1010
0.0
1020
0.0
1030
0.0
  0
LINE
  5
1772A
  8
0
  6
CONTINUOUS
 10
8838.1163624076234555
 20
2535.8781022343800942
 30
0.0
 11
8837.9679372523933125
 21
2536.0265273896111466
 31
0.0
1001
GRADIENTCOLOR1ACI
1070
     5
1001
GRADIENTCOLOR2ACI
1070
     2
1001
ACAD
1010
0.0
1020
0.0
1030
0.0
  0
LINE
  5
1772B
  8
0
  6
CONTINUOUS
 10
8838.1517177466830617
 20
2535.8781022343800942
 30
0.0
 11
8837.9679372523933125
 21
2536.0618827286698433
 31
0.0
1001
GRADIENTCOLOR1ACI
1070
     5
1001
GRADIENTCOLOR2ACI
1070
     2
1001
ACAD
1010
0.0
1020
0.0
1030
0.0
  0
LINE
  5
1772C
  8
0
  6
CONTINUOUS
 10
8838.1870730857426679
 20
2535.8781022343800942
 30
0.0
 11
8837.9679372523933125
 21
2536.0972380677299043
 31
0.0
1001
GRADIENTCOLOR1ACI
1070
     5
1001
GRADIENTCOLOR2ACI
1070
     2
1001
ACAD
1010
0.0
1020
0.0
1030
0.0
  0
LINE
  5
1772D
  8
0
  6
CONTINUOUS
 10
8838.2224284248022741
 20
2535.8781022343800942
 30
0.0
 11
8837.9679372523933125
 21
2536.1325934067890557
 31
0.0
1001
GRADIENTCOLOR1ACI
1070
     5
1001
GRADIENTCOLOR2ACI
1070
     2
1001
ACAD
1010
0.0
1020
0.0
1030
0.0
  0
LINE
  5
1772E
  8
0
  6
CONTINUOUS
 10
8838.2577837638636993
 20
2535.8781022343800942
 30
0.0
 11
8837.9679372523933125
 21
2536.1679487458482072
 31
0.0
1001
GRADIENTCOLOR1ACI
1070
     5
1001
GRADIENTCOLOR2ACI
1070
     2
1001
ACAD
1010
0.0
1020
0.0
1030
0.0
  0
LINE
  5
1772F
  8
0
  6
CONTINUOUS
 10
8838.2931391029214865
 20
2535.8781022343800942
 30
0.0
 11
8837.9679372523933125
 21
2536.2033040849069039
 31
0.0
1001
GRADIENTCOLOR1ACI
1070
     5
1001
GRADIENTCOLOR2ACI
1070
     2
1001
ACAD
1010
0.0
1020
0.0
1030
0.0
  0
LINE
  5
17730
  8
0
  6
CONTINUOUS
 10
8838.3284944419792737
 20
2535.8781022343800942
 30
0.0
 11
8837.9679372523933125
 21
2536.2386594239669648
 31
0.0
1001
GRADIENTCOLOR1ACI
1070
     5
1001
GRADIENTCOLOR2ACI
1070
     2
1001
ACAD
1010
0.0
1020
0.0
1030
0.0
  0
LINE
  5
17731
  8
0
  6
CONTINUOUS
 10
8838.3638497810388799
 20
2535.8781022343800942
 30
0.0
 11
8837.9679372523933125
 21
2536.2740147630261163
 31
0.0
1001
GRADIENTCOLOR1ACI
1070
     5
1001
GRADIENTCOLOR2ACI
1070
     2
1001
ACAD
1010
0.0
1020
0.0
1030
0.0
  0
LINE
  5
17732
  8
0
  6
CONTINUOUS
 10
8838.3992051200984861
 20
2535.8781022343800942
 30
0.0
 11
8837.9679372523933125
 21
2536.3093701020861772
 31
0.0
1001
GRADIENTCOLOR1ACI
1070
     5
1001
GRADIENTCOLOR2ACI
1070
     2
1001
ACAD
1010
0.0
1020
0.0
1030
0.0
  0
LINE
  5
17733
  8
0
  6
CONTINUOUS
 10
8838.4345604591580923
 20
2535.8781022343800942
 30
0.0
 11
8837.9679372523933125
 21
2536.3447254411448739
 31
0.0
1001
GRADIENTCOLOR1ACI
1070
     5
1001
GRADIENTCOLOR2ACI
1070
     2
1001
ACAD
1010
0.0
1020
0.0
1030
0.0
  0
LINE
  5
17734
  8
0
  6
CONTINUOUS
 10
8838.4699157982195175
 20
2535.8781022343800942
 30
0.0
 11
8837.9679372523933125
 21
2536.3800807802040254
 31
0.0
1001
GRADIENTCOLOR1ACI
1070
     5
1001
GRADIENTCOLOR2ACI
1070
     2
1001
ACAD
1010
0.0
1020
0.0
1030
0.0
  0
LINE
  5
17735
  8
0
  6
CONTINUOUS
 10
8838.5052711372773047
 20
2535.8781022343800942
 30
0.0
 11
8837.9679372523933125
 21
2536.4154361192631768
 31
0.0
1001
GRADIENTCOLOR1ACI
1070
     5
1001
GRADIENTCOLOR2ACI
1070
     2
1001
ACAD
1010
0.0
1020
0.0
1030
0.0
  0
LINE
  5
17736
  8
0
  6
CONTINUOUS
 10
8838.5406264763350919
 20
2535.8781022343800942
 30
0.0
 11
8837.9679372523933125
 21
2536.450791458322783
 31
0.0
1001
GRADIENTCOLOR1ACI
1070
     5
1001
GRADIENTCOLOR2ACI
1070
     2
1001
ACAD
1010
0.0
1020
0.0
1030
0.0
  0
LINE
  5
17737
  8
0
  6
CONTINUOUS
 10
8838.5759818153928791
 20
2535.8781022343800942
 30
0.0
 11
8837.9679372523933125
 21
2536.4861467973819344
 31
0.0
1001
GRADIENTCOLOR1ACI
1070
     5
1001
GRADIENTCOLOR2ACI
1070
     2
1001
ACAD
1010
0.0
1020
0.0
1030
0.0
  0
LINE
  5
17738
  8
0
  6
CONTINUOUS
 10
8838.6113371544524853
 20
2535.8781022343800942
 30
0.0
 11
8837.9679372523933125
 21
2536.5215021364410859
 31
0.0
1001
GRADIENTCOLOR1ACI
1070
     5
1001
GRADIENTCOLOR2ACI
1070
     2
1001
ACAD
1010
0.0
1020
0.0
1030
0.0
  0
LINE
  5
17739
  8
0
  6
CONTINUOUS
 10
8838.6466924935120915
 20
2535.8781022343800942
 30
0.0
 11
8837.9679372523933125
 21
2536.5568574755011468
 31
0.0
1001
GRADIENTCOLOR1ACI
1070
     5
1001
GRADIENTCOLOR2ACI
1070
     2
1001
ACAD
1010
0.0
1020
0.0
1030
0.0
  0
LINE
  5
1773A
  8
0
  6
CONTINUOUS
 10
8838.6820478325735166
 20
2535.8781022343800942
 30
0.0
 11
8837.9679372523933125
 21
2536.5922128145598435
 31
0.0
1001
GRADIENTCOLOR1ACI
1070
     5
1001
GRADIENTCOLOR2ACI
1070
     2
1001
ACAD
1010
0.0
1020
0.0
1030
0.0
  0
LINE
  5
1773B
  8
0
  6
CONTINUOUS
 10
8838.7174031716331228
 20
2535.8781022343800942
 30
0.0
 11
8837.9679372523933125
 21
2536.627568153618995
 31
0.0
1001
GRADIENTCOLOR1ACI
1070
     5
1001
GRADIENTCOLOR2ACI
1070
     2
1001
ACAD
1010
0.0
1020
0.0
1030
0.0
  0
LINE
  5
1773C
  8
0
  6
CONTINUOUS
 10
8838.75275851069091
 20
2535.8781022343800942
 30
0.0
 11
8838.142522290294437
 21
2536.4883384547802052
 31
0.0
1001
GRADIENTCOLOR1ACI
1070
     5
1001
GRADIENTCOLOR2ACI
1070
     2
1001
ACAD
1010
0.0
1020
0.0
1030
0.0
  0
LINE
  5
1773D
  8
0
  6
CONTINUOUS
 10
8838.1116380397925241
 20
2536.5192227052780254
 30
0.0
 11
8837.9679372523933125
 21
2536.6629234926790559
 31
0.0
1001
GRADIENTCOLOR1ACI
1070
     5
1001
GRADIENTCOLOR2ACI
1070
     2
1001
ACAD
1010
0.0
1020
0.0
1030
0.0
  0
LINE
  5
1773E
  8
0
  6
CONTINUOUS
 10
8838.7881138497505162
 20
2535.8781022343800942
 30
0.0
 11
8838.1778776293504052
 21
2536.4883384547802052
 31
0.0
1001
GRADIENTCOLOR1ACI
1070
     5
1001
GRADIENTCOLOR2ACI
1070
     2
1001
ACAD
1010
0.0
1020
0.0
1030
0.0
  0
LINE
  5
1773F
  8
0
  6
CONTINUOUS
 10
8838.1116380397925241
 20
2536.5545780443380863
 30
0.0
 11
8837.9810272356517089
 21
2536.685188848479811
 31
0.0
1001
GRADIENTCOLOR1ACI
1070
     5
1001
GRADIENTCOLOR2ACI
1070
     2
1001
ACAD
1010
0.0
1020
0.0
1030
0.0
  0
LINE
  5
17740
  8
0
  6
CONTINUOUS
 10
8838.8234691888101224
 20
2535.8781022343800942
 30
0.0
 11
8838.2132329684100114
 21
2536.4883384547802052
 31
0.0
1001
GRADIENTCOLOR1ACI
1070
     5
1001
GRADIENTCOLOR2ACI
1070
     2
1001
ACAD
1010
0.0
1020
0.0
1030
0.0
  0
LINE
  5
17741
  8
0
  6
CONTINUOUS
 10
8838.1116380397925241
 20
2536.589933383396783
 30
0.0
 11
8838.0163825747094961
 21
2536.685188848479811
 31
0.0
1001
GRADIENTCOLOR1ACI
1070
     5
1001
GRADIENTCOLOR2ACI
1070
     2
1001
ACAD
1010
0.0
1020
0.0
1030
0.0
  0
LINE
  5
17742
  8
0
  6
CONTINUOUS
 10
8838.8588245278697286
 20
2535.8781022343800942
 30
0.0
 11
8838.2485883074696176
 21
2536.4883384547802052
 31
0.0
1001
GRADIENTCOLOR1ACI
1070
     5
1001
GRADIENTCOLOR2ACI
1070
     2
1001
ACAD
1010
0.0
1020
0.0
1030
0.0
  0
LINE
  5
17743
  8
0
  6
CONTINUOUS
 10
8838.1116380397925241
 20
2536.6252887224559345
 30
0.0
 11
8838.0517379137691023
 21
2536.685188848479811
 31
0.0
1001
GRADIENTCOLOR1ACI
1070
     5
1001
GRADIENTCOLOR2ACI
1070
     2
1001
ACAD
1010
0.0
1020
0.0
1030
0.0
  0
LINE
  5
17744
  8
0
  6
CONTINUOUS
 10
8838.8941798669293348
 20
2535.8781022343800942
 30
0.0
 11
8838.2839436465274048
 21
2536.4883384547802052
 31
0.0
1001
GRADIENTCOLOR1ACI
1070
     5
1001
GRADIENTCOLOR2ACI
1070
     2
1001
ACAD
1010
0.0
1020
0.0
1030
0.0
  0
LINE
  5
17745
  8
0
  6
CONTINUOUS
 10
8838.1116380397925241
 20
2536.6606440615159954
 30
0.0
 11
8838.0870932528287085
 21
2536.685188848479811
 31
0.0
1001
GRADIENTCOLOR1ACI
1070
     5
1001
GRADIENTCOLOR2ACI
1070
     2
1001
ACAD
1010
0.0
1020
0.0
1030
0.0
  0
LINE
  5
17746
  8
0
  6
CONTINUOUS
 10
8838.92953520599076
 20
2535.8781022343800942
 30
0.0
 11
8838.31929898558883
 21
2536.4883384547802052
 31
0.0
1001
GRADIENTCOLOR1ACI
1070
     5
1001
GRADIENTCOLOR2ACI
1070
     2
1001
ACAD
1010
0.0
1020
0.0
1030
0.0
  0
LINE
  5
17747
  8
0
  6
CONTINUOUS
 10
8838.9648905450485472
 20
2535.8781022343800942
 30
0.0
 11
8838.3546543246484362
 21
2536.4883384547802052
 31
0.0
1001
GRADIENTCOLOR1ACI
1070
     5
1001
GRADIENTCOLOR2ACI
1070
     2
1001
ACAD
1010
0.0
1020
0.0
1030
0.0
  0
LINE
  5
17748
  8
0
  6
CONTINUOUS
 10
8839.0002458841063344
 20
2535.8781022343800942
 30
0.0
 11
8838.3900096637062234
 21
2536.4883384547802052
 31
0.0
1001
GRADIENTCOLOR1ACI
1070
     5
1001
GRADIENTCOLOR2ACI
1070
     2
1001
ACAD
1010
0.0
1020
0.0
1030
0.0
  0
LINE
  5
17749
  8
0
  6
CONTINUOUS
 10
8839.0356012231659406
 20
2535.8781022343800942
 30
0.0
 11
8838.4253650027658296
 21
2536.4883384547802052
 31
0.0
1001
GRADIENTCOLOR1ACI
1070
     5
1001
GRADIENTCOLOR2ACI
1070
     2
1001
ACAD
1010
0.0
1020
0.0
1030
0.0
  0
LINE
  5
1774A
  8
0
  6
CONTINUOUS
 10
8839.0709565622255468
 20
2535.8781022343800942
 30
0.0
 11
8838.4607203418254358
 21
2536.4883384547802052
 31
0.0
1001
GRADIENTCOLOR1ACI
1070
     5
1001
GRADIENTCOLOR2ACI
1070
     2
1001
ACAD
1010
0.0
1020
0.0
1030
0.0
  0
LINE
  5
1774B
  8
0
  6
CONTINUOUS
 10
8839.106311901285153
 20
2535.8781022343800942
 30
0.0
 11
8838.496075680883223
 21
2536.4883384547802052
 31
0.0
1001
GRADIENTCOLOR1ACI
1070
     5
1001
GRADIENTCOLOR2ACI
1070
     2
1001
ACAD
1010
0.0
1020
0.0
1030
0.0
  0
LINE
  5
1774C
  8
0
  6
CONTINUOUS
 10
8839.1416672403465782
 20
2535.8781022343800942
 30
0.0
 11
8838.5314310199446481
 21
2536.4883384547802052
 31
0.0
1001
GRADIENTCOLOR1ACI
1070
     5
1001
GRADIENTCOLOR2ACI
1070
     2
1001
ACAD
1010
0.0
1020
0.0
1030
0.0
  0
LINE
  5
1774D
  8
0
  6
CONTINUOUS
 10
8839.1770225794043654
 20
2535.8781022343800942
 30
0.0
 11
8838.5667863590042543
 21
2536.4883384547802052
 31
0.0
1001
GRADIENTCOLOR1ACI
1070
     5
1001
GRADIENTCOLOR2ACI
1070
     2
1001
ACAD
1010
0.0
1020
0.0
1030
0.0
  0
LINE
  5
1774E
  8
0
  6
CONTINUOUS
 10
8839.2123779184621526
 20
2535.8781022343800942
 30
0.0
 11
8838.6021416980638605
 21
2536.4883384547802052
 31
0.0
1001
GRADIENTCOLOR1ACI
1070
     5
1001
GRADIENTCOLOR2ACI
1070
     2
1001
ACAD
1010
0.0
1020
0.0
1030
0.0
  0
LINE
  5
1774F
  8
0
  6
CONTINUOUS
 10
8839.2477332575217588
 20
2535.8781022343800942
 30
0.0
 11
8838.6374970371216477
 21
2536.4883384547802052
 31
0.0
1001
GRADIENTCOLOR1ACI
1070
     5
1001
GRADIENTCOLOR2ACI
1070
     2
1001
ACAD
1010
0.0
1020
0.0
1030
0.0
  0
LINE
  5
17750
  8
0
  6
CONTINUOUS
 10
8839.283088596581365
 20
2535.8781022343800942
 30
0.0
 11
8838.6728523761812539
 21
2536.4883384547802052
 31
0.0
1001
GRADIENTCOLOR1ACI
1070
     5
1001
GRADIENTCOLOR2ACI
1070
     2
1001
ACAD
1010
0.0
1020
0.0
1030
0.0
  0
LINE
  5
17751
  8
0
  6
CONTINUOUS
 10
8839.3184439356427902
 20
2535.8781022343800942
 30
0.0
 11
8838.7082077152408601
 21
2536.4883384547802052
 31
0.0
1001
GRADIENTCOLOR1ACI
1070
     5
1001
GRADIENTCOLOR2ACI
1070
     2
1001
ACAD
1010
0.0
1020
0.0
1030
0.0
  0
LINE
  5
17752
  8
0
  6
CONTINUOUS
 10
8839.3537992747023964
 20
2535.8781022343800942
 30
0.0
 11
8838.7435630543004663
 21
2536.4883384547802052
 31
0.0
1001
GRADIENTCOLOR1ACI
1070
     5
1001
GRADIENTCOLOR2ACI
1070
     2
1001
ACAD
1010
0.0
1020
0.0
1030
0.0
  0
LINE
  5
17753
  8
0
  6
CONTINUOUS
 10
8839.3852600869904563
 20
2535.8819967611461834
 30
0.0
 11
8838.7789183933600725
 21
2536.4883384547802052
 31
0.0
1001
GRADIENTCOLOR1ACI
1070
     5
1001
GRADIENTCOLOR2ACI
1070
     2
1001
ACAD
1010
0.0
1020
0.0
1030
0.0
  0
LINE
  5
17754
  8
0
  6
CONTINUOUS
 10
8839.3852600869904563
 20
2535.9173521002057896
 30
0.0
 11
8838.8142737324196787
 21
2536.4883384547802052
 31
0.0
1001
GRADIENTCOLOR1ACI
1070
     5
1001
GRADIENTCOLOR2ACI
1070
     2
1001
ACAD
1010
0.0
1020
0.0
1030
0.0
  0
LINE
  5
17755
  8
0
  6
CONTINUOUS
 10
8839.3852600869904563
 20
2535.9527074392649411
 30
0.0
 11
8838.8496290714774659
 21
2536.4883384547802052
 31
0.0
1001
GRADIENTCOLOR1ACI
1070
     5
1001
GRADIENTCOLOR2ACI
1070
     2
1001
ACAD
1010
0.0
1020
0.0
1030
0.0
  0
LINE
  5
17756
  8
0
  6
CONTINUOUS
 10
8839.3852600869904563
 20
2535.9880627783240925
 30
0.0
 11
8838.8849844105370721
 21
2536.4883384547802052
 31
0.0
1001
GRADIENTCOLOR1ACI
1070
     5
1001
GRADIENTCOLOR2ACI
1070
     2
1001
ACAD
1010
0.0
1020
0.0
1030
0.0
  0
LINE
  5
17757
  8
0
  6
CONTINUOUS
 10
8839.3852600869904563
 20
2536.0234181173841534
 30
0.0
 11
8838.9203397495966783
 21
2536.4883384547802052
 31
0.0
1001
GRADIENTCOLOR1ACI
1070
     5
1001
GRADIENTCOLOR2ACI
1070
     2
1001
ACAD
1010
0.0
1020
0.0
1030
0.0
  0
LINE
  5
17758
  8
0
  6
CONTINUOUS
 10
8839.3852600869904563
 20
2536.0587734564428501
 30
0.0
 11
8838.9556950886544655
 21
2536.4883384547802052
 31
0.0
1001
GRADIENTCOLOR1ACI
1070
     5
1001
GRADIENTCOLOR2ACI
1070
     2
1001
ACAD
1010
0.0
1020
0.0
1030
0.0
  0
LINE
  5
17759
  8
0
  6
CONTINUOUS
 10
8839.3852600869904563
 20
2536.0941287955020016
 30
0.0
 11
8838.9910504277158907
 21
2536.4883384547802052
 31
0.0
1001
GRADIENTCOLOR1ACI
1070
     5
1001
GRADIENTCOLOR2ACI
1070
     2
1001
ACAD
1010
0.0
1020
0.0
1030
0.0
  0
LINE
  5
1775A
  8
0
  6
CONTINUOUS
 10
8839.3852600869904563
 20
2536.1294841345620625
 30
0.0
 11
8839.0264057667754969
 21
2536.4883384547802052
 31
0.0
1001
GRADIENTCOLOR1ACI
1070
     5
1001
GRADIENTCOLOR2ACI
1070
     2
1001
ACAD
1010
0.0
1020
0.0
1030
0.0
  0
LINE
  5
1775B
  8
0
  6
CONTINUOUS
 10
8839.3852600869904563
 20
2536.164839473621214
 30
0.0
 11
8839.0617611058351031
 21
2536.4883384547802052
 31
0.0
1001
GRADIENTCOLOR1ACI
1070
     5
1001
GRADIENTCOLOR2ACI
1070
     2
1001
ACAD
1010
0.0
1020
0.0
1030
0.0
  0
LINE
  5
1775C
  8
0
  6
CONTINUOUS
 10
8839.3852600869904563
 20
2536.2001948126808202
 30
0.0
 11
8839.0971164448928903
 21
2536.4883384547802052
 31
0.0
1001
GRADIENTCOLOR1ACI
1070
     5
1001
GRADIENTCOLOR2ACI
1070
     2
1001
ACAD
1010
0.0
1020
0.0
1030
0.0
  0
LINE
  5
1775D
  8
0
  6
CONTINUOUS
 10
8839.3852600869904563
 20
2536.2355501517399716
 30
0.0
 11
8839.1324717839524965
 21
2536.4883384547802052
 31
0.0
1001
GRADIENTCOLOR1ACI
1070
     5
1001
GRADIENTCOLOR2ACI
1070
     2
1001
ACAD
1010
0.0
1020
0.0
1030
0.0
  0
LINE
  5
1775E
  8
0
  6
CONTINUOUS
 10
8839.3852600869904563
 20
2536.2709054907991231
 30
0.0
 11
8839.1678271230102837
 21
2536.4883384547802052
 31
0.0
1001
GRADIENTCOLOR1ACI
1070
     5
1001
GRADIENTCOLOR2ACI
1070
     2
1001
ACAD
1010
0.0
1020
0.0
1030
0.0
  0
LINE
  5
1775F
  8
0
  6
CONTINUOUS
 10
8839.3852600869904563
 20
2536.306260829859184
 30
0.0
 11
8839.2031824620717089
 21
2536.4883384547802052
 31
0.0
1001
GRADIENTCOLOR1ACI
1070
     5
1001
GRADIENTCOLOR2ACI
1070
     2
1001
ACAD
1010
0.0
1020
0.0
1030
0.0
  0
LINE
  5
17760
  8
0
  6
CONTINUOUS
 10
8839.3852600869904563
 20
2536.3416161689169712
 30
0.0
 11
8839.2385378011313151
 21
2536.4883384547802052
 31
0.0
1001
GRADIENTCOLOR1ACI
1070
     5
1001
GRADIENTCOLOR2ACI
1070
     2
1001
ACAD
1010
0.0
1020
0.0
1030
0.0
  0
LINE
  5
17761
  8
0
  6
CONTINUOUS
 10
8839.3852600869904563
 20
2536.3769715079770322
 30
0.0
 11
8839.2415592995912448
 21
2536.5206722953771532
 31
0.0
1001
GRADIENTCOLOR1ACI
1070
     5
1001
GRADIENTCOLOR2ACI
1070
     2
1001
ACAD
1010
0.0
1020
0.0
1030
0.0
  0
LINE
  5
17762
  8
0
  6
CONTINUOUS
 10
8839.3852600869904563
 20
2536.4123268470361836
 30
0.0
 11
8839.2415592995912448
 21
2536.5560276344358499
 31
0.0
1001
GRADIENTCOLOR1ACI
1070
     5
1001
GRADIENTCOLOR2ACI
1070
     2
1001
ACAD
1010
0.0
1020
0.0
1030
0.0
  0
LINE
  5
17763
  8
0
  6
CONTINUOUS
 10
8839.3852600869904563
 20
2536.4476821860957898
 30
0.0
 11
8839.2415592995912448
 21
2536.5913829734959108
 31
0.0
1001
GRADIENTCOLOR1ACI
1070
     5
1001
GRADIENTCOLOR2ACI
1070
     2
1001
ACAD
1010
0.0
1020
0.0
1030
0.0
  0
LINE
  5
17764
  8
0
  6
CONTINUOUS
 10
8839.3852600869904563
 20
2536.4830375251549412
 30
0.0
 11
8839.2415592995912448
 21
2536.6267383125550623
 31
0.0
1001
GRADIENTCOLOR1ACI
1070
     5
1001
GRADIENTCOLOR2ACI
1070
     2
1001
ACAD
1010
0.0
1020
0.0
1030
0.0
  0
LINE
  5
17765
  8
0
  6
CONTINUOUS
 10
8839.3852600869904563
 20
2536.5183928642140927
 30
0.0
 11
8839.2415592995912448
 21
2536.6620936516142137
 31
0.0
1001
GRADIENTCOLOR1ACI
1070
     5
1001
GRADIENTCOLOR2ACI
1070
     2
1001
ACAD
1010
0.0
1020
0.0
1030
0.0
  0
LINE
  5
17766
  8
0
  6
CONTINUOUS
 10
8839.3852600869904563
 20
2536.5537482032741536
 30
0.0
 11
8839.253819441786618
 21
2536.685188848479811
 31
0.0
1001
GRADIENTCOLOR1ACI
1070
     5
1001
GRADIENTCOLOR2ACI
1070
     2
1001
ACAD
1010
0.0
1020
0.0
1030
0.0
  0
LINE
  5
17767
  8
0
  6
CONTINUOUS
 10
8839.3852600869904563
 20
2536.5891035423328503
 30
0.0
 11
8839.2891747808462242
 21
2536.685188848479811
 31
0.0
1001
GRADIENTCOLOR1ACI
1070
     5
1001
GRADIENTCOLOR2ACI
1070
     2
1001
ACAD
1010
0.0
1020
0.0
1030
0.0
  0
LINE
  5
17768
  8
0
  6
CONTINUOUS
 10
8839.3852600869904563
 20
2536.6244588813929113
 30
0.0
 11
8839.3245301199058304
 21
2536.685188848479811
 31
0.0
1001
GRADIENTCOLOR1ACI
1070
     5
1001
GRADIENTCOLOR2ACI
1070
     2
1001
ACAD
1010
0.0
1020
0.0
1030
0.0
  0
LINE
  5
17769
  8
0
  6
CONTINUOUS
 10
8839.3852600869904563
 20
2536.6598142204520627
 30
0.0
 11
8839.3598854589654366
 21
2536.685188848479811
 31
0.0
1001
GRADIENTCOLOR1ACI
1070
     5
1001
GRADIENTCOLOR2ACI
1070
     2
1001
ACAD
1010
0.0
1020
0.0
1030
0.0
  0
LINE
  5
1776A
  8
0
 10
8837.9679372523933125
 20
2535.8781022343800942
 30
0.0
 11
8837.9679372523933125
 21
2536.685188848479811
 31
0.0
  0
LINE
  5
1776B
  8
0
 10
8837.9679372523933125
 20
2535.7318441789798271
 30
0.0
 11
8837.9679372523933125
 21
2527.8578284309801347
 31
0.0
  0
LINE
  5
1776C
  8
0
 10
8839.3852600869904563
 20
2535.8781022343800942
 30
0.0
 11
8837.9679372523933125
 21
2535.8781022343800942
 31
0.0
  0
LINE
  5
1776D
  8
0
 10
8837.7021892208922509
 20
2527.8460284309799135
 30
0.0
 11
8837.7021892208922509
 21
2527.7003481159799776
 31
0.0
  0
ARC
  5
1776E
  8
0
 10
8837.7139892208924721
 20
2527.8460284309799135
 30
0.0
 40
0.0118
 50
90.0
 51
180.0
  0
LINE
  5
1776F
  8
0
 10
8838.1254175672947895
 20
2536.685188848479811
 30
0.0
 11
8837.9679372523933125
 21
2536.685188848479811
 31
0.0
  0
LINE
  5
17770
  8
0
 10
8838.1254175672947895
 20
2536.508038454780035
 30
0.0
 11
8838.1254175672947895
 21
2537.2380360863908209
 31
0.0
  0
LINE
  5
17771
  8
0
 10
8838.1116380397925241
 20
2536.4883384547802052
 30
0.0
 11
8838.1116380397925241
 21
2536.685188848479811
 31
0.0
  0
LINE
  5
17772
  8
0
 10
8838.1116380397925241
 20
2536.4883384547802052
 30
0.0
 11
8839.2415592995912448
 21
2536.4883384547802052
 31
0.0
  0
ARC
  5
17773
  8
0
 10
8838.1451175672937097
 20
2536.508038454780035
 30
0.0
 40
0.0197
 50
180.0
 51
270.0
  0
LINE
  5
17774
  8
0
 10
8838.0171498507934302
 20
2535.7442046580599708
 30
0.0
 11
8838.0171498507934302
 21
2535.7358441789801873
 31
0.0
  0
LINE
  5
17775
  8
0
 10
8838.1409617569934198
 20
2535.8781022343800942
 30
0.0
 11
8838.0375946441436099
 21
2535.788864439074132
 31
0.0
  0
ARC
  5
17776
  8
0
 10
8838.0761498507927172
 20
2535.7442046580599708
 30
0.0
 40
0.059
 50
130.8043503209869129
 51
180.0
  0
ARC
  5
17777
  8
0
 10
8838.0211498507942451
 20
2535.7358441789801873
 30
0.0
 40
0.004
 50
180.0
 51
270.0
  0
LINE
  5
17778
  8
0
 10
8838.0375946441436099
 20
2535.788864439074132
 30
0.0
 11
8839.3156026952419779
 21
2535.788864439074132
 31
0.0
  0
LINE
  5
17779
  8
0
 10
8839.3852600869904563
 20
2535.8781022343800942
 30
0.0
 11
8839.3852600869904563
 21
2536.685188848479811
 31
0.0
  0
LINE
  5
1777A
  8
0
 10
8839.3852600869904563
 20
2535.7318441789798271
 30
0.0
 11
8839.3852600869904563
 21
2527.8578284309801347
 31
0.0
  0
LINE
  5
1777B
  8
0
 10
8839.651008118491518
 20
2527.8460284309799135
 30
0.0
 11
8839.651008118491518
 21
2527.7003481159799776
 31
0.0
  0
ARC
  5
1777C
  8
0
 10
8839.6392081184931158
 20
2527.8460284309799135
 30
0.0
 40
0.0118
 50
0.0
 51
90.0
  0
LINE
  5
1777D
  8
0
 10
8839.2277797720926173
 20
2536.685188848479811
 30
0.0
 11
8839.3852600869904563
 21
2536.685188848479811
 31
0.0
  0
LINE
  5
1777E
  8
0
 10
8839.2415592995912448
 20
2536.4883384547802052
 30
0.0
 11
8839.2415592995912448
 21
2536.685188848479811
 31
0.0
  0
ARC
  5
1777F
  8
0
 10
8839.2080797720936971
 20
2536.508038454780035
 30
0.0
 40
0.0197
 50
270.0
 51
0.0
  0
LINE
  5
17780
  8
0
 10
8839.3360474885921576
 20
2535.7442046580599708
 30
0.0
 11
8839.3360474885921576
 21
2535.7358441789801873
 31
0.0
  0
LINE
  5
17781
  8
0
 10
8839.212235582392168
 20
2535.8781022343800942
 30
0.0
 11
8839.3156026952419779
 21
2535.788864439074132
 31
0.0
  0
ARC
  5
17782
  8
0
 10
8839.2770474885928706
 20
2535.7442046580599708
 30
0.0
 40
0.059
 50
0.0
 51
49.1956496790130586
  0
ARC
  5
17783
  8
0
 10
8839.3320474885949807
 20
2535.7358441789801873
 30
0.0
 40
0.004
 50
270.0
 51
0.0
  0
LINE
  5
17784
  8
0
 10
8839.2277797720926173
 20
2536.508038454780035
 30
0.0
 11
8839.2277797720926173
 21
2537.2380360863908209
 31
0.0
  0
LINE
  5
17785
  8
0
  6
CONTINUOUS
 10
8838.2938805512767431
 20
2534.372225741371949
 30
0.0
 11
8838.4371505367998907
 21
2534.5154957268941871
 31
0.0
1001
GRADIENTCOLOR1ACI
1070
     5
1001
GRADIENTCOLOR2ACI
1070
     2
1001
ACAD
1010
0.0
1020
0.0
1030
0.0
  0
LINE
  5
17786
  8
0
  6
CONTINUOUS
 10
8838.2828983986928506
 20
2534.3258882497289051
 30
0.0
 11
8838.4992014938670764
 21
2534.5421913449031308
 31
0.0
1001
GRADIENTCOLOR1ACI
1070
     5
1001
GRADIENTCOLOR2ACI
1070
     2
1001
ACAD
1010
0.0
1020
0.0
1030
0.0
  0
LINE
  5
17787
  8
0
  6
CONTINUOUS
 10
8838.2828983986928506
 20
2534.2905329106702084
 30
0.0
 11
8838.5483027196078183
 21
2534.5559372315838118
 31
0.0
1001
GRADIENTCOLOR1ACI
1070
     5
1001
GRADIENTCOLOR2ACI
1070
     2
1001
ACAD
1010
0.0
1020
0.0
1030
0.0
  0
LINE
  5
17788
  8
0
  6
CONTINUOUS
 10
8838.2828983986928506
 20
2534.2551775716110569
 30
0.0
 11
8838.5919517013062432
 21
2534.5642308742239948
 31
0.0
1001
GRADIENTCOLOR1ACI
1070
     5
1001
GRADIENTCOLOR2ACI
1070
     2
1001
ACAD
1010
0.0
1020
0.0
1030
0.0
  0
LINE
  5
17789
  8
0
  6
CONTINUOUS
 10
8838.2828983986928506
 20
2534.219822232550996
 30
0.0
 11
8838.6321741455903975
 21
2534.5690979794489976
 31
0.0
1001
GRADIENTCOLOR1ACI
1070
     5
1001
GRADIENTCOLOR2ACI
1070
     2
1001
ACAD
1010
0.0
1020
0.0
1030
0.0
  0
LINE
  5
1778A
  8
0
  6
CONTINUOUS
 10
8838.2828983986928506
 20
2534.1844668934918445
 30
0.0
 11
8838.6697278255269339
 21
2534.5712963203259278
 31
0.0
1001
GRADIENTCOLOR1ACI
1070
     5
1001
GRADIENTCOLOR2ACI
1070
     2
1001
ACAD
1010
0.0
1020
0.0
1030
0.0
  0
LINE
  5
1778B
  8
0
  6
CONTINUOUS
 10
8838.2828983986928506
 20
2534.1491115544331478
 30
0.0
 11
8838.704150663674227
 21
2534.5703638194140694
 31
0.0
1001
GRADIENTCOLOR1ACI
1070
     5
1001
GRADIENTCOLOR2ACI
1070
     2
1001
ACAD
1010
0.0
1020
0.0
1030
0.0
  0
LINE
  5
1778C
  8
0
  6
CONTINUOUS
 10
8838.2828983986928506
 20
2534.1137562153730869
 30
0.0
 11
8838.736659386957399
 21
2534.5675172036371805
 31
0.0
1001
GRADIENTCOLOR1ACI
1070
     5
1001
GRADIENTCOLOR2ACI
1070
     2
1001
ACAD
1010
0.0
1020
0.0
1030
0.0
  0
LINE
  5
1778D
  8
0
  6
CONTINUOUS
 10
8838.2828983986928506
 20
2534.0784008763139354
 30
0.0
 11
8838.7677016060824826
 21
2534.5632040837031127
 31
0.0
1001
GRADIENTCOLOR1ACI
1070
     5
1001
GRADIENTCOLOR2ACI
1070
     2
1001
ACAD
1010
0.0
1020
0.0
1030
0.0
  0
LINE
  5
1778E
  8
0
  6
CONTINUOUS
 10
8838.2828983986928506
 20
2534.0430455372538745
 30
0.0
 11
8838.7974343973055511
 21
2534.5575815358661202
 31
0.0
1001
GRADIENTCOLOR1ACI
1070
     5
1001
GRADIENTCOLOR2ACI
1070
     2
1001
ACAD
1010
0.0
1020
0.0
1030
0.0
  0
LINE
  5
1778F
  8
0
  6
CONTINUOUS
 10
8838.2828983986928506
 20
2534.0076901981951778
 30
0.0
 11
8838.8259806959158595
 21
2534.5507724954181867
 31
0.0
1001
GRADIENTCOLOR1ACI
1070
     5
1001
GRADIENTCOLOR2ACI
1070
     2
1001
ACAD
1010
0.0
1020
0.0
1030
0.0
  0
LINE
  5
17790
  8
0
  6
CONTINUOUS
 10
8838.2828983986928506
 20
2533.9723348591360264
 30
0.0
 11
8838.853079713502666
 21
2534.5425161739458417
 31
0.0
1001
GRADIENTCOLOR1ACI
1070
     5
1001
GRADIENTCOLOR2ACI
1070
     2
1001
ACAD
1010
0.0
1020
0.0
1030
0.0
  0
LINE
  5
17791
  8
0
  6
CONTINUOUS
 10
8838.2828983986928506
 20
2533.9369795200759654
 30
0.0
 11
8838.8786394774324435
 21
2534.5327205988141941
 31
0.0
1001
GRADIENTCOLOR1ACI
1070
     5
1001
GRADIENTCOLOR2ACI
1070
     2
1001
ACAD
1010
0.0
1020
0.0
1030
0.0
  0
LINE
  5
17792
  8
0
  6
CONTINUOUS
 10
8838.2828983986928506
 20
2533.901624181016814
 30
0.0
 11
8838.90312569240632
 21
2534.5218514747298286
 31
0.0
1001
GRADIENTCOLOR1ACI
1070
     5
1001
GRADIENTCOLOR2ACI
1070
     2
1001
ACAD
1010
0.0
1020
0.0
1030
0.0
  0
LINE
  5
17793
  8
0
  6
CONTINUOUS
 10
8838.2829292395817902
 20
2533.8662996828461473
 30
0.0
 11
8838.3149575566985732
 21
2533.8983279999638398
 31
0.0
1001
GRADIENTCOLOR1ACI
1070
     5
1001
GRADIENTCOLOR2ACI
1070
     2
1001
ACAD
1010
0.0
1020
0.0
1030
0.0
  0
LINE
  5
17794
  8
0
  6
CONTINUOUS
 10
8838.460775257597561
 20
2534.0441457008619182
 30
0.0
 11
8838.9266002683325496
 21
2534.5099707115969068
 31
0.0
1001
GRADIENTCOLOR1ACI
1070
     5
1001
GRADIENTCOLOR2ACI
1070
     2
1001
ACAD
1010
0.0
1020
0.0
1030
0.0
  0
LINE
  5
17795
  8
0
  6
CONTINUOUS
 10
8838.2867173743852618
 20
2533.8347324785900128
 30
0.0
 11
8838.3071747158792277
 21
2533.8551898200839787
 31
0.0
1001
GRADIENTCOLOR1ACI
1070
     5
1001
GRADIENTCOLOR2ACI
1070
     2
1001
ACAD
1010
0.0
1020
0.0
1030
0.0
  0
LINE
  5
17796
  8
0
  6
CONTINUOUS
 10
8838.5174453110557806
 20
2534.0654604152609863
 30
0.0
 11
8838.9491122068375262
 21
2534.4971273110450056
 31
0.0
1001
GRADIENTCOLOR1ACI
1070
     5
1001
GRADIENTCOLOR2ACI
1070
     2
1001
ACAD
1010
0.0
1020
0.0
1030
0.0
  0
LINE
  5
17797
  8
0
  6
CONTINUOUS
 10
8838.2947672571553994
 20
2533.8074270223009989
 30
0.0
 11
8838.3099690010494669
 21
2533.8226287661950664
 31
0.0
1001
GRADIENTCOLOR1ACI
1070
     5
1001
GRADIENTCOLOR2ACI
1070
     2
1001
ACAD
1010
0.0
1020
0.0
1030
0.0
  0
LINE
  5
17798
  8
0
  6
CONTINUOUS
 10
8838.5639178354085743
 20
2534.0765776005541738
 30
0.0
 11
8838.9709664822621562
 21
2534.48362624740912
 31
0.0
1001
GRADIENTCOLOR1ACI
1070
     5
1001
GRADIENTCOLOR2ACI
1070
     2
1001
ACAD
1010
0.0
1020
0.0
1030
0.0
  0
LINE
  5
17799
  8
0
  6
CONTINUOUS
 10
8838.3060726672283636
 20
2533.7833770933179949
 30
0.0
 11
8838.3182196025954909
 21
2533.7955240286828484
 31
0.0
1001
GRADIENTCOLOR1ACI
1070
     5
1001
GRADIENTCOLOR2ACI
1070
     2
1001
ACAD
1010
0.0
1020
0.0
1030
0.0
  0
LINE
  5
1779A
  8
0
  6
CONTINUOUS
 10
8838.606285493591713
 20
2534.0835899196781611
 30
0.0
 11
8838.9909570856616483
 21
2534.4682615117480964
 31
0.0
1001
GRADIENTCOLOR1ACI
1070
     5
1001
GRADIENTCOLOR2ACI
1070
     2
1001
ACAD
1010
0.0
1020
0.0
1030
0.0
  0
LINE
  5
1779B
  8
0
  6
CONTINUOUS
 10
8838.3201404534884205
 20
2533.7620895405129886
 30
0.0
 11
8838.3295105456181773
 21
2533.7714596326482024
 31
0.0
1001
GRADIENTCOLOR1ACI
1070
     5
1001
GRADIENTCOLOR2ACI
1070
     2
1001
ACAD
1010
0.0
1020
0.0
1030
0.0
  0
LINE
  5
1779C
  8
0
  6
CONTINUOUS
 10
8838.6455714494059066
 20
2534.0875205364332032
 30
0.0
 11
8839.0091072315681231
 21
2534.451056318594965
 31
0.0
1001
GRADIENTCOLOR1ACI
1070
     5
1001
GRADIENTCOLOR2ACI
1070
     2
1001
ACAD
1010
0.0
1020
0.0
1030
0.0
  0
LINE
  5
1779D
  8
0
  6
CONTINUOUS
 10
8838.3367358192281245
 20
2533.7433295671958149
 30
0.0
 11
8838.3432212681291276
 21
2533.749815016096818
 31
0.0
1001
GRADIENTCOLOR1ACI
1070
     5
1001
GRADIENTCOLOR2ACI
1070
     2
1001
ACAD
1010
0.0
1020
0.0
1030
0.0
  0
LINE
  5
1779E
  8
0
  6
CONTINUOUS
 10
8838.6821758999030862
 20
2534.0887696478721409
 30
0.0
 11
8839.0254322274831793
 21
2534.4320259754499602
 31
0.0
1001
GRADIENTCOLOR1ACI
1070
     5
1001
GRADIENTCOLOR2ACI
1070
     2
1001
ACAD
1010
0.0
1020
0.0
1030
0.0
  0
LINE
  5
1779F
  8
0
  6
CONTINUOUS
 10
8838.355793690392602
 20
2533.727032099301141
 30
0.0
 11
8838.3591551156951027
 21
2533.7303935246040965
 31
0.0
1001
GRADIENTCOLOR1ACI
1070
     5
1001
GRADIENTCOLOR2ACI
1070
     2
1001
ACAD
1010
0.0
1020
0.0
1030
0.0
  0
LINE
  5
177A0
  8
0
  6
CONTINUOUS
 10
8838.715675530684166
 20
2534.0869139395931597
 30
0.0
 11
8839.0398877837451437
 21
2534.4111261926550469
 31
0.0
1001
GRADIENTCOLOR1ACI
1070
     5
1001
GRADIENTCOLOR2ACI
1070
     2
1001
ACAD
1010
0.0
1020
0.0
1030
0.0
  0
LINE
  5
177A1
  8
0
  6
CONTINUOUS
 10
8838.7476142520063149
 20
2534.0834973218570667
 30
0.0
 11
8839.0523623938988749
 21
2534.3882454637468982
 31
0.0
1001
GRADIENTCOLOR1ACI
1070
     5
1001
GRADIENTCOLOR2ACI
1070
     2
1001
ACAD
1010
0.0
1020
0.0
1030
0.0
  0
LINE
  5
177A2
  8
0
  6
CONTINUOUS
 10
8838.7781712972373498
 20
2534.0786990280271311
 30
0.0
 11
8839.0626562062461744
 21
2534.3631839370368652
 31
0.0
1001
GRADIENTCOLOR1ACI
1070
     5
1001
GRADIENTCOLOR2ACI
1070
     2
1001
ACAD
1010
0.0
1020
0.0
1030
0.0
  0
LINE
  5
177A3
  8
0
  6
CONTINUOUS
 10
8838.8074856013536191
 20
2534.0726579930837943
 30
0.0
 11
8839.0702989406927372
 21
2534.3354713324238219
 31
0.0
1001
GRADIENTCOLOR1ACI
1070
     5
1001
GRADIENTCOLOR2ACI
1070
     2
1001
ACAD
1010
0.0
1020
0.0
1030
0.0
  0
LINE
  5
177A4
  8
0
  6
CONTINUOUS
 10
8838.8356670624398248
 20
2534.0654841151122127
 30
0.0
 11
8839.0702989406927372
 21
2534.3001159933642157
 31
0.0
1001
GRADIENTCOLOR1ACI
1070
     5
1001
GRADIENTCOLOR2ACI
1070
     2
1001
ACAD
1010
0.0
1020
0.0
1030
0.0
  0
LINE
  5
177A5
  8
0
  6
CONTINUOUS
 10
8838.8623008638842293
 20
2534.0567625774970111
 30
0.0
 11
8839.0702989406927372
 21
2534.2647606543050642
 31
0.0
1001
GRADIENTCOLOR1ACI
1070
     5
1001
GRADIENTCOLOR2ACI
1070
     2
1001
ACAD
1010
0.0
1020
0.0
1030
0.0
  0
LINE
  5
177A6
  8
0
  6
CONTINUOUS
 10
8838.8873587549624062
 20
2534.046465129515127
 30
0.0
 11
8839.0702989406927372
 21
2534.2294053152459128
 31
0.0
1001
GRADIENTCOLOR1ACI
1070
     5
1001
GRADIENTCOLOR2ACI
1070
     2
1001
ACAD
1010
0.0
1020
0.0
1030
0.0
  0
LINE
  5
177A7
  8
0
  6
CONTINUOUS
 10
8838.9111016465776629
 20
2534.0348526820730513
 30
0.0
 11
8839.0702989406927372
 21
2534.1940499761872161
 31
0.0
1001
GRADIENTCOLOR1ACI
1070
     5
1001
GRADIENTCOLOR2ACI
1070
     2
1001
ACAD
1010
0.0
1020
0.0
1030
0.0
  0
LINE
  5
177A8
  8
0
  6
CONTINUOUS
 10
8838.9335715060296934
 20
2534.0219672024650208
 30
0.0
 11
8839.0702989406927372
 21
2534.1586946371271551
 31
0.0
1001
GRADIENTCOLOR1ACI
1070
     5
1001
GRADIENTCOLOR2ACI
1070
     2
1001
ACAD
1010
0.0
1020
0.0
1030
0.0
  0
LINE
  5
177A9
  8
0
  6
CONTINUOUS
 10
8838.9545673660995817
 20
2534.0076077234748482
 30
0.0
 11
8839.0702989406927372
 21
2534.1233392980680037
 31
0.0
1001
GRADIENTCOLOR1ACI
1070
     5
1001
GRADIENTCOLOR2ACI
1070
     2
1001
ACAD
1010
0.0
1020
0.0
1030
0.0
  0
LINE
  5
177AA
  8
0
  6
CONTINUOUS
 10
8838.9741063742731058
 20
2533.9917913925878565
 30
0.0
 11
8839.0702989406927372
 21
2534.0879839590079428
 31
0.0
1001
GRADIENTCOLOR1ACI
1070
     5
1001
GRADIENTCOLOR2ACI
1070
     2
1001
ACAD
1010
0.0
1020
0.0
1030
0.0
  0
LINE
  5
177AB
  8
0
  6
CONTINUOUS
 10
8838.9922252154447051
 20
2533.9745548947012139
 30
0.0
 11
8839.0702989406927372
 21
2534.0526286199487913
 31
0.0
1001
GRADIENTCOLOR1ACI
1070
     5
1001
GRADIENTCOLOR2ACI
1070
     2
1001
ACAD
1010
0.0
1020
0.0
1030
0.0
  0
LINE
  5
177AC
  8
0
  6
CONTINUOUS
 10
8839.0086068213840917
 20
2533.9555811615828134
 30
0.0
 11
8839.0702989406927372
 21
2534.0172732808900946
 31
0.0
1001
GRADIENTCOLOR1ACI
1070
     5
1001
GRADIENTCOLOR2ACI
1070
     2
1001
ACAD
1010
0.0
1020
0.0
1030
0.0
  0
LINE
  5
177AD
  8
0
  6
CONTINUOUS
 10
8839.0226068266583752
 20
2533.9342258277961264
 30
0.0
 11
8839.0702989406927372
 21
2533.9819179418309432
 31
0.0
1001
GRADIENTCOLOR1ACI
1070
     5
1001
GRADIENTCOLOR2ACI
1070
     2
1001
ACAD
1010
0.0
1020
0.0
1030
0.0
  0
LINE
  5
177AE
  8
0
  6
CONTINUOUS
 10
8839.0340010772106325
 20
2533.9102647392901417
 30
0.0
 11
8839.0702989406927372
 21
2533.9465626027708822
 31
0.0
1001
GRADIENTCOLOR1ACI
1070
     5
1001
GRADIENTCOLOR2ACI
1070
     2
1001
ACAD
1010
0.0
1020
0.0
1030
0.0
  0
LINE
  5
177AF
  8
0
  6
CONTINUOUS
 10
8839.0423613748262142
 20
2533.8832696978470267
 30
0.0
 11
8839.0702989406927372
 21
2533.9112072637121855
 31
0.0
1001
GRADIENTCOLOR1ACI
1070
     5
1001
GRADIENTCOLOR2ACI
1070
     2
1001
ACAD
1010
0.0
1020
0.0
1030
0.0
  0
LINE
  5
177B0
  8
0
  6
CONTINUOUS
 10
8839.0460840668602032
 20
2533.8516370508191358
 30
0.0
 11
8839.0702989406927372
 21
2533.8758519246530341
 31
0.0
1001
GRADIENTCOLOR1ACI
1070
     5
1001
GRADIENTCOLOR2ACI
1070
     2
1001
ACAD
1010
0.0
1020
0.0
1030
0.0
  0
LINE
  5
177B1
  8
0
  6
CONTINUOUS
 10
8839.0401487820108741
 20
2533.81034642691111
 30
0.0
 11
8839.0669769905252906
 21
2533.8371746354259813
 31
0.0
1001
GRADIENTCOLOR1ACI
1070
     5
1001
GRADIENTCOLOR2ACI
1070
     2
1001
ACAD
1010
0.0
1020
0.0
1030
0.0
  0
LINE
  5
177B2
  8
0
  6
CONTINUOUS
 10
8838.9818813841247902
 20
2533.7167236899667841
 30
0.0
 11
8839.0451957040659181
 21
2533.7800380099060931
 31
0.0
1001
GRADIENTCOLOR1ACI
1070
     5
1001
GRADIENTCOLOR2ACI
1070
     2
1001
ACAD
1010
0.0
1020
0.0
1030
0.0
  0
LINE
  5
177B3
  8
0
  6
CONTINUOUS
 10
8838.3639458949928667
 20
2533.7213304378060457
 30
0.0
 11
8838.312608383159386
 21
2533.7726679496390716
 31
0.0
1001
GRADIENTCOLOR1ACI
1070
     5
1001
GRADIENTCOLOR2ACI
1070
     2
1001
ACAD
1010
0.0
1020
0.0
1030
0.0
  0
LINE
  5
177B4
  8
0
  6
CONTINUOUS
 10
8838.3143193257019448
 20
2533.8063123461570285
 30
0.0
 11
8838.2869398817711044
 21
2533.8336917900878689
 31
0.0
1001
GRADIENTCOLOR1ACI
1070
     5
1001
GRADIENTCOLOR2ACI
1070
     2
1001
ACAD
1010
0.0
1020
0.0
1030
0.0
  0
LINE
  5
177B5
  8
0
  6
CONTINUOUS
 10
8838.3071272045581281
 20
2533.8488598063609061
 30
0.0
 11
8838.2828983986928506
 21
2533.8730886122261836
 31
0.0
1001
GRADIENTCOLOR1ACI
1070
     5
1001
GRADIENTCOLOR2ACI
1070
     2
1001
ACAD
1010
0.0
1020
0.0
1030
0.0
  0
LINE
  5
177B6
  8
0
  6
CONTINUOUS
 10
8838.3103306493667333
 20
2533.8810117006109977
 30
0.0
 11
8838.2828983986928506
 21
2533.9084439512848803
 31
0.0
1001
GRADIENTCOLOR1ACI
1070
     5
1001
GRADIENTCOLOR2ACI
1070
     2
1001
ACAD
1010
0.0
1020
0.0
1030
0.0
  0
LINE
  5
177B7
  8
0
  6
CONTINUOUS
 10
8838.3184260204488965
 20
2533.9082716685911691
 30
0.0
 11
8838.2828983986928506
 21
2533.9437992903440318
 31
0.0
1001
GRADIENTCOLOR1ACI
1070
     5
1001
GRADIENTCOLOR2ACI
1070
     2
1001
ACAD
1010
0.0
1020
0.0
1030
0.0
  0
LINE
  5
177B8
  8
0
  6
CONTINUOUS
 10
8838.3296021598725929
 20
2533.9324508682248052
 30
0.0
 11
8838.2828983986928506
 21
2533.9791546294040927
 31
0.0
1001
GRADIENTCOLOR1ACI
1070
     5
1001
GRADIENTCOLOR2ACI
1070
     2
1001
ACAD
1010
0.0
1020
0.0
1030
0.0
  0
LINE
  5
177B9
  8
0
  6
CONTINUOUS
 10
8838.3434083454303618
 20
2533.9540000217261877
 30
0.0
 11
8838.2828983986928506
 21
2534.0145099684627894
 31
0.0
1001
GRADIENTCOLOR1ACI
1070
     5
1001
GRADIENTCOLOR2ACI
1070
     2
1001
ACAD
1010
0.0
1020
0.0
1030
0.0
  0
LINE
  5
177BA
  8
0
  6
CONTINUOUS
 10
8838.3596153921826044
 20
2533.9731483140330965
 30
0.0
 11
8838.2828983986928506
 21
2534.0498653075228503
 31
0.0
1001
GRADIENTCOLOR1ACI
1070
     5
1001
GRADIENTCOLOR2ACI
1070
     2
1001
ACAD
1010
0.0
1020
0.0
1030
0.0
  0
LINE
  5
177BB
  8
0
  6
CONTINUOUS
 10
8838.3776239463695674
 20
2533.990495098907104
 30
0.0
 11
8838.2828983986928506
 21
2534.0852206465820018
 31
0.0
1001
GRADIENTCOLOR1ACI
1070
     5
1001
GRADIENTCOLOR2ACI
1070
     2
1001
ACAD
1010
0.0
1020
0.0
1030
0.0
  0
LINE
  5
177BC
  8
0
  6
CONTINUOUS
 10
8838.3970510150447808
 20
2534.006423369289223
 30
0.0
 11
8838.2828983986928506
 21
2534.1205759856411532
 31
0.0
1001
GRADIENTCOLOR1ACI
1070
     5
1001
GRADIENTCOLOR2ACI
1070
     2
1001
ACAD
1010
0.0
1020
0.0
1030
0.0
  0
LINE
  5
177BD
  8
0
  6
CONTINUOUS
 10
8838.417930987152431
 20
2534.020898736241179
 30
0.0
 11
8838.2828983986928506
 21
2534.1559313247012142
 31
0.0
1001
GRADIENTCOLOR1ACI
1070
     5
1001
GRADIENTCOLOR2ACI
1070
     2
1001
ACAD
1010
0.0
1020
0.0
1030
0.0
  0
LINE
  5
177BE
  8
0
  6
CONTINUOUS
 10
8838.4402927650116908
 20
2534.0338922974401612
 30
0.0
 11
8838.2828983986928506
 21
2534.1912866637599109
 31
0.0
1001
GRADIENTCOLOR1ACI
1070
     5
1001
GRADIENTCOLOR2ACI
1070
     2
1001
ACAD
1010
0.0
1020
0.0
1030
0.0
  0
LINE
  5
177BF
  8
0
  6
CONTINUOUS
 10
8838.463936761900186
 20
2534.0456036396108175
 30
0.0
 11
8838.2828983986928506
 21
2534.2266420028190623
 31
0.0
1001
GRADIENTCOLOR1ACI
1070
     5
1001
GRADIENTCOLOR2ACI
1070
     2
1001
ACAD
1010
0.0
1020
0.0
1030
0.0
  0
LINE
  5
177C0
  8
0
  6
CONTINUOUS
 10
8838.4888882128761907
 20
2534.0560075276939642
 30
0.0
 11
8838.2828983986928506
 21
2534.2619973418782138
 31
0.0
1001
GRADIENTCOLOR1ACI
1070
     5
1001
GRADIENTCOLOR2ACI
1070
     2
1001
ACAD
1010
0.0
1020
0.0
1030
0.0
  0
LINE
  5
177C1
  8
0
  6
CONTINUOUS
 10
8838.5153726939151966
 20
2534.0648783857150192
 30
0.0
 11
8838.2828983986928506
 21
2534.2973526809369105
 31
0.0
1001
GRADIENTCOLOR1ACI
1070
     5
1001
GRADIENTCOLOR2ACI
1070
     2
1001
ACAD
1010
0.0
1020
0.0
1030
0.0
  0
LINE
  5
177C2
  8
0
  6
CONTINUOUS
 10
8838.5434695751919207
 20
2534.0721368434979013
 30
0.0
 11
8838.2828983986928506
 21
2534.3327080199969714
 31
0.0
1001
GRADIENTCOLOR1ACI
1070
     5
1001
GRADIENTCOLOR2ACI
1070
     2
1001
ACAD
1010
0.0
1020
0.0
1030
0.0
  0
LINE
  5
177C3
  8
0
  6
CONTINUOUS
 10
8838.5726916975727363
 20
2534.0782700601757824
 30
0.0
 11
8838.2898370064704068
 21
2534.3611247512781119
 31
0.0
1001
GRADIENTCOLOR1ACI
1070
     5
1001
GRADIENTCOLOR2ACI
1070
     2
1001
ACAD
1010
0.0
1020
0.0
1030
0.0
  0
LINE
  5
177C4
  8
0
  6
CONTINUOUS
 10
8838.6031470408433961
 20
2534.0831700559651836
 30
0.0
 11
8838.2999485130840185
 21
2534.3863685837250159
 31
0.0
1001
GRADIENTCOLOR1ACI
1070
     5
1001
GRADIENTCOLOR2ACI
1070
     2
1001
ACAD
1010
0.0
1020
0.0
1030
0.0
  0
LINE
  5
177C5
  8
0
  6
CONTINUOUS
 10
8838.9958089732008375
 20
2533.7258634626659841
 30
0.0
 11
8838.9927061897506064
 21
2533.7289662461162152
 31
0.0
1001
GRADIENTCOLOR1ACI
1070
     5
1001
GRADIENTCOLOR2ACI
1070
     2
1001
ACAD
1010
0.0
1020
0.0
1030
0.0
  0
LINE
  5
177C6
  8
0
  6
CONTINUOUS
 10
8838.6349719266745524
 20
2534.0867005091940882
 30
0.0
 11
8838.3122612382703664
 21
2534.4094111975991837
 31
0.0
1001
GRADIENTCOLOR1ACI
1070
     5
1001
GRADIENTCOLOR2ACI
1070
     2
1001
ACAD
1010
0.0
1020
0.0
1030
0.0
  0
LINE
  5
177C7
  8
0
  6
CONTINUOUS
 10
8839.0150608487983845
 20
2533.7419669261280433
 30
0.0
 11
8839.0088091223315132
 21
2533.7482186525980978
 31
0.0
1001
GRADIENTCOLOR1ACI
1070
     5
1001
GRADIENTCOLOR2ACI
1070
     2
1001
ACAD
1010
0.0
1020
0.0
1030
0.0
  0
LINE
  5
177C8
  8
0
  6
CONTINUOUS
 10
8838.6683419064593181
 20
2534.0886858684671097
 30
0.0
 11
8838.3265669532011088
 21
2534.4304608217257737
 31
0.0
1001
GRADIENTCOLOR1ACI
1070
     5
1001
GRADIENTCOLOR2ACI
1070
     2
1001
ACAD
1010
0.0
1020
0.0
1030
0.0
  0
LINE
  5
177C9
  8
0
  6
CONTINUOUS
 10
8839.0318490954850859
 20
2533.7605340185009482
 30
0.0
 11
8839.0226989454804425
 21
2533.7696841685069558
 31
0.0
1001
GRADIENTCOLOR1ACI
1070
     5
1001
GRADIENTCOLOR2ACI
1070
     2
1001
ACAD
1010
0.0
1020
0.0
1030
0.0
  0
LINE
  5
177CA
  8
0
  6
CONTINUOUS
 10
8838.7046650852298626
 20
2534.0877180287570809
 30
0.0
 11
8838.3427482272381894
 21
2534.4496348867492088
 31
0.0
1001
GRADIENTCOLOR1ACI
1070
     5
1001
GRADIENTCOLOR2ACI
1070
     2
1001
ACAD
1010
0.0
1020
0.0
1030
0.0
  0
LINE
  5
177CB
  8
0
  6
CONTINUOUS
 10
8839.0461203731356363
 20
2533.7816180799100039
 30
0.0
 11
8839.0341895430447039
 21
2533.7935489100000268
 31
0.0
1001
GRADIENTCOLOR1ACI
1070
     5
1001
GRADIENTCOLOR2ACI
1070
     2
1001
ACAD
1010
0.0
1020
0.0
1030
0.0
  0
LINE
  5
177CC
  8
0
  6
CONTINUOUS
 10
8838.7437402514879068
 20
2534.0839982015568239
 30
0.0
 11
8838.3607559332976962
 21
2534.4669825197470345
 31
0.0
1001
GRADIENTCOLOR1ACI
1070
     5
1001
GRADIENTCOLOR2ACI
1070
     2
1001
ACAD
1010
0.0
1020
0.0
1030
0.0
  0
LINE
  5
177CD
  8
0
  6
CONTINUOUS
 10
8839.0576551787999051
 20
2533.8054386133048865
 30
0.0
 11
8839.0427443315511482
 21
2533.8203494605540982
 31
0.0
1001
GRADIENTCOLOR1ACI
1070
     5
1001
GRADIENTCOLOR2ACI
1070
     2
1001
ACAD
1010
0.0
1020
0.0
1030
0.0
  0
LINE
  5
177CE
  8
0
  6
CONTINUOUS
 10
8838.7858370161739003
 20
2534.077256775933165
 30
0.0
 11
8838.3806007560051512
 21
2534.4824930361000952
 31
0.0
1001
GRADIENTCOLOR1ACI
1070
     5
1001
GRADIENTCOLOR2ACI
1070
     2
1001
ACAD
1010
0.0
1020
0.0
1030
0.0
  0
LINE
  5
177CF
  8
0
  6
CONTINUOUS
 10
8839.0659863896817114
 20
2533.8324627414831411
 30
0.0
 11
8839.0460786723142519
 21
2533.852370458850146
 31
0.0
1001
GRADIENTCOLOR1ACI
1070
     5
1001
GRADIENTCOLOR2ACI
1070
     2
1001
ACAD
1010
0.0
1020
0.0
1030
0.0
  0
LINE
  5
177D0
  8
0
  6
CONTINUOUS
 10
8838.8319369655873743
 20
2534.0665121655752046
 30
0.0
 11
8838.4023549935591291
 21
2534.496094137604814
 31
0.0
1001
GRADIENTCOLOR1ACI
1070
     5
1001
GRADIENTCOLOR2ACI
1070
     2
1001
ACAD
1010
0.0
1020
0.0
1030
0.0
  0
LINE
  5
177D1
  8
0
  6
CONTINUOUS
 10
8839.0701654594377032
 20
2533.8636390107872103
 30
0.0
 11
8839.0394593705223087
 21
2533.89434509970215
 31
0.0
1001
GRADIENTCOLOR1ACI
1070
     5
1001
GRADIENTCOLOR2ACI
1070
     2
1001
ACAD
1010
0.0
1020
0.0
1030
0.0
  0
LINE
  5
177D2
  8
0
  6
CONTINUOUS
 10
8838.8873234644033801
 20
2534.0464810058228977
 30
0.0
 11
8838.4248034563406691
 21
2534.5090010138828802
 31
0.0
1001
GRADIENTCOLOR1ACI
1070
     5
1001
GRADIENTCOLOR2ACI
1070
     2
1001
ACAD
1010
0.0
1020
0.0
1030
0.0
  0
LINE
  5
177D3
  8
0
  6
CONTINUOUS
 10
8839.0702989406927372
 20
2533.8988608685899635
 30
0.0
 11
8838.4482011780164612
 21
2534.520958631267149
 31
0.0
1001
GRADIENTCOLOR1ACI
1070
     5
1001
GRADIENTCOLOR2ACI
1070
     2
1001
ACAD
1010
0.0
1020
0.0
1030
0.0
  0
LINE
  5
177D4
  8
0
  6
CONTINUOUS
 10
8839.0702989406927372
 20
2533.9342162076491149
 30
0.0
 11
8838.4726062796926271
 21
2534.5319088686501345
 31
0.0
1001
GRADIENTCOLOR1ACI
1070
     5
1001
GRADIENTCOLOR2ACI
1070
     2
1001
ACAD
1010
0.0
1020
0.0
1030
0.0
  0
LINE
  5
177D5
  8
0
  6
CONTINUOUS
 10
8839.0702989406927372
 20
2533.9695715467091759
 30
0.0
 11
8838.4980795567116729
 21
2534.5417909306879665
 31
0.0
1001
GRADIENTCOLOR1ACI
1070
     5
1001
GRADIENTCOLOR2ACI
1070
     2
1001
ACAD
1010
0.0
1020
0.0
1030
0.0
  0
LINE
  5
177D6
  8
0
  6
CONTINUOUS
 10
8839.0702989406927372
 20
2534.0049268857678726
 30
0.0
 11
8838.5250325067536323
 21
2534.550193319707887
 31
0.0
1001
GRADIENTCOLOR1ACI
1070
     5
1001
GRADIENTCOLOR2ACI
1070
     2
1001
ACAD
1010
0.0
1020
0.0
1030
0.0
  0
LINE
  5
177D7
  8
0
  6
CONTINUOUS
 10
8839.0702989406927372
 20
2534.0402822248279335
 30
0.0
 11
8838.5534904739979538
 21
2534.5570906915231717
 31
0.0
1001
GRADIENTCOLOR1ACI
1070
     5
1001
GRADIENTCOLOR2ACI
1070
     2
1001
ACAD
1010
0.0
1020
0.0
1030
0.0
  0
LINE
  5
177D8
  8
0
  6
CONTINUOUS
 10
8839.0702989406927372
 20
2534.075637563887085
 30
0.0
 11
8838.5831264731841657
 21
2534.5628100313952018
 31
0.0
1001
GRADIENTCOLOR1ACI
1070
     5
1001
GRADIENTCOLOR2ACI
1070
     2
1001
ACAD
1010
0.0
1020
0.0
1030
0.0
  0
LINE
  5
177D9
  8
0
  6
CONTINUOUS
 10
8839.0702989406927372
 20
2534.1109929029471459
 30
0.0
 11
8838.6140612046565366
 21
2534.5672306389828918
 31
0.0
1001
GRADIENTCOLOR1ACI
1070
     5
1001
GRADIENTCOLOR2ACI
1070
     2
1001
ACAD
1010
0.0
1020
0.0
1030
0.0
  0
LINE
  5
177DA
  8
0
  6
CONTINUOUS
 10
8839.0702989406927372
 20
2534.1463482420058426
 30
0.0
 11
8838.6464486489676347
 21
2534.5701985337309452
 31
0.0
1001
GRADIENTCOLOR1ACI
1070
     5
1001
GRADIENTCOLOR2ACI
1070
     2
1001
ACAD
1010
0.0
1020
0.0
1030
0.0
  0
LINE
  5
177DB
  8
0
  6
CONTINUOUS
 10
8839.0702989406927372
 20
2534.1817035810649941
 30
0.0
 11
8838.6806312636908842
 21
2534.5713712580691208
 31
0.0
1001
GRADIENTCOLOR1ACI
1070
     5
1001
GRADIENTCOLOR2ACI
1070
     2
1001
ACAD
1010
0.0
1020
0.0
1030
0.0
  0
LINE
  5
177DC
  8
0
  6
CONTINUOUS
 10
8839.0702989406927372
 20
2534.2170589201241455
 30
0.0
 11
8838.7179995368787786
 21
2534.5693583239381041
 31
0.0
1001
GRADIENTCOLOR1ACI
1070
     5
1001
GRADIENTCOLOR2ACI
1070
     2
1001
ACAD
1010
0.0
1020
0.0
1030
0.0
  0
LINE
  5
177DD
  8
0
  6
CONTINUOUS
 10
8839.0702989406927372
 20
2534.2524142591842065
 30
0.0
 11
8838.7579905994243745
 21
2534.5647226004498407
 31
0.0
1001
GRADIENTCOLOR1ACI
1070
     5
1001
GRADIENTCOLOR2ACI
1070
     2
1001
ACAD
1010
0.0
1020
0.0
1030
0.0
  0
LINE
  5
177DE
  8
0
  6
CONTINUOUS
 10
8839.0702989406927372
 20
2534.2877695982429032
 30
0.0
 11
8838.8013348897966353
 21
2534.5567336491421884
 31
0.0
1001
GRADIENTCOLOR1ACI
1070
     5
1001
GRADIENTCOLOR2ACI
1070
     2
1001
ACAD
1010
0.0
1020
0.0
1030
0.0
  0
LINE
  5
177DF
  8
0
  6
CONTINUOUS
 10
8839.0702989406927372
 20
2534.3231249373020546
 30
0.0
 11
8838.8497396029360971
 21
2534.5436842750591495
 31
0.0
1001
GRADIENTCOLOR1ACI
1070
     5
1001
GRADIENTCOLOR2ACI
1070
     2
1001
ACAD
1010
0.0
1020
0.0
1030
0.0
  0
LINE
  5
177E0
  8
0
  6
CONTINUOUS
 10
8839.0610158119943662
 20
2534.3677634050609413
 30
0.0
 11
8838.9105017938927631
 21
2534.5182774231629992
 31
0.0
1001
GRADIENTCOLOR1ACI
1070
     5
1001
GRADIENTCOLOR2ACI
1070
     2
1001
ACAD
1010
0.0
1020
0.0
1030
0.0
  0
LINE
  5
177E1
  8
0
 10
8838.2828983986928506
 20
2534.7672777662801309
 30
0.0
 11
8838.2828983986928506
 21
2533.8673954898758893
 31
0.0
  0
ARC
  5
177E2
  8
0
 10
8838.6765986696937034
 20
2534.7672777662801309
 30
0.0
 40
0.3937002710000001
 50
0.0
 51
180.0
  0
ARC
  5
177E3
  8
0
 10
8838.6877946218282887
 20
2533.9408069863329729
 30
0.0
 40
0.6307481346846407
 50
91.0170691912902754
 51
106.169778980564999
  0
ARC
  5
177E4
  8
0
 10
8838.6744508461015357
 20
2534.0493809265640266
 30
0.0
 40
0.5230434435890016
 50
108.0784005388437947
 51
121.3095512714366038
  0
ARC
  5
177E5
  8
0
 10
8838.520125221910348
 20
2534.2835290060170337
 30
0.0
 40
0.2430097978531856
 50
118.9101226865570027
 51
167.4753263947945072
  0
ARC
  5
177E6
  8
0
 10
8838.6962417996528529
 20
2533.8667469142110349
 30
0.0
 40
0.7207931655825482
 50
91.5616238517971937
 51
105.948377491251307
  0
ARC
  5
177E7
  8
0
 10
8838.6293706684482459
 20
2534.150024568506069
 30
0.0
 40
0.4302577877920785
 50
107.7516508788013994
 51
125.2674922736612046
  0
ARC
  5
177E8
  8
0
 10
8838.5303056568791362
 20
2534.2901075594149916
 30
0.0
 40
0.2586852933213377
 50
125.2674922736612046
 51
153.1287010675304998
  0
ARC
  5
177E9
  8
0
 10
8838.4529792686716974
 20
2534.3315195374821087
 30
0.0
 40
0.1710021590396088
 50
153.7954452007764985
 51
174.0498218731771942
  0
ARC
  5
177EA
  8
0
 10
8838.6897140913333715
 20
2533.4480270235080752
 30
0.0
 40
0.6410152306384101
 50
91.1723758044390706
 51
106.3678439382364047
  0
ARC
  5
177EB
  8
0
 10
8838.6348593643815548
 20
2533.6708053902448228
 30
0.0
 40
0.4119323533862766
 50
107.7794783475728053
 51
119.7799186564417937
  0
ARC
  5
177EC
  8
0
 10
8838.5860557943178719
 20
2533.756090525280797
 30
0.0
 40
0.3136707499543072
 50
119.7799186564417937
 51
136.5710784523157031
  0
ARC
  5
177ED
  8
0
 10
8838.4969754105641186
 20
2533.8404148739359698
 30
0.0
 40
0.1910089769950178
 50
136.5710784523157031
 51
167.6038633308693875
  0
ARC
  5
177EE
  8
0
 10
8838.4489973010586255
 20
2533.8509601540567928
 30
0.0
 40
0.1418856431847643
 50
167.6038633308693875
 51
198.1836285699899918
  0
ARC
  5
177EF
  8
0
 10
8838.5112202329546562
 20
2533.8713983137840842
 30
0.0
 40
0.2073792430755967
 50
198.1836285699899918
 51
227.5254297270311099
  0
ARC
  5
177F0
  8
0
 10
8838.6105331105445657
 20
2533.9798759216628241
 30
0.0
 40
0.3544521469912358
 50
227.5254297270311099
 51
253.3679771091507007
  0
ARC
  5
177F1
  8
0
 10
8838.6991077090442559
 20
2534.316157897559151
 30
0.0
 40
0.7021094615848849
 50
254.2969353717062972
 51
268.1628306591599085
  0
ARC
  5
177F2
  8
0
 10
8838.4631995754953095
 20
2533.8719216301419692
 30
0.0
 40
0.1803579782050717
 50
181.4380065955575958
 51
241.1611530299250035
  0
LINE
  5
177F3
  8
0
 10
8839.0702989406927372
 20
2534.7672777662801309
 30
0.0
 11
8839.0702989406927372
 21
2533.8673954898758893
 31
0.0
  0
ARC
  5
177F4
  8
0
 10
8838.6654027175572992
 20
2533.9408069863329729
 30
0.0
 40
0.6307481346846407
 50
73.83022101943493
 51
88.982930808709753
  0
ARC
  5
177F5
  8
0
 10
8838.6787464932858711
 20
2534.0493809265640266
 30
0.0
 40
0.5230434435890016
 50
58.690448728563382
 51
71.9215994611561484
  0
ARC
  5
177F6
  8
0
 10
8838.8330721174752398
 20
2534.2835290060170337
 30
0.0
 40
0.2430097978531856
 50
12.5246736052054199
 51
61.0898773134429973
  0
ARC
  5
177F7
  8
0
 10
8838.6569555397345539
 20
2533.8667469142110349
 30
0.0
 40
0.7207931655825482
 50
74.0516225087486788
 51
88.4383761482028063
  0
ARC
  5
177F8
  8
0
 10
8838.723826670939161
 20
2534.150024568506069
 30
0.0
 40
0.4302577877920785
 50
54.7325077263388167
 51
72.248349121198558
  0
ARC
  5
177F9
  8
0
 10
8838.8228916825064516
 20
2534.2901075594149916
 30
0.0
 40
0.2586852933213377
 50
26.8712989324694398
 51
54.7325077263388167
  0
ARC
  5
177FA
  8
0
 10
8838.9002180707157095
 20
2534.3315195374821087
 30
0.0
 40
0.1710021590396088
 50
5.9501781268228253
 51
26.2045547992235512
  0
ARC
  5
177FB
  8
0
 10
8838.6634832480522164
 20
2533.4480270235080752
 30
0.0
 40
0.6410152306384101
 50
73.6321560617635242
 51
88.8276241955609436
  0
ARC
  5
177FC
  8
0
 10
8838.7183379750040331
 20
2533.6708053902448228
 30
0.0
 40
0.4119323533862766
 50
60.2200813435581495
 51
72.2205216524272089
  0
ARC
  5
177FD
  8
0
 10
8838.7671415450677159
 20
2533.756090525280797
 30
0.0
 40
0.3136707499543072
 50
43.4289215476842472
 51
60.2200813435581495
  0
ARC
  5
177FE
  8
0
 10
8838.8562219288196502
 20
2533.8404148739359698
 30
0.0
 40
0.1910089769950178
 50
12.3961366691305894
 51
43.4289215476842472
  0
ARC
  5
177FF
  8
0
 10
8838.9042000383251434
 20
2533.8509601540567928
 30
0.0
 40
0.1418856431847643
 50
341.8163714300098945
 51
12.3961366691305894
  0
ARC
  5
17800
  8
0
 10
8838.8419771064309316
 20
2533.8713983137840842
 30
0.0
 40
0.2073792430755967
 50
312.4745702729688901
 51
341.8163714300098945
  0
ARC
  5
17801
  8
0
 10
8838.7426642288428411
 20
2533.9798759216628241
 30
0.0
 40
0.3544521469912358
 50
286.6320228908493277
 51
312.4745702729688901
  0
ARC
  5
17802
  8
0
 10
8838.6540896303413319
 20
2534.316157897559151
 30
0.0
 40
0.7021094615848849
 50
271.8371693408400915
 51
285.7030646282935891
  0
ARC
  5
17803
  8
0
 10
8838.8899977638902783
 20
2533.8719216301419692
 30
0.0
 40
0.1803579782050717
 50
298.8388469700749965
 51
358.5619934044423189
  0
ARC
  5
17804
  8
0
 10
8838.6736907082558901
 20
2533.5642003031389322
 30
0.0
 40
0.5067065507255815
 50
89.8355910874243051
 51
105.8123620029422938
  0
ARC
  5
17805
  8
0
 10
8838.6457076464048441
 20
2533.6633279248658255
 30
0.0
 40
0.4037049601598818
 50
105.8246968495445941
 51
117.8559925772178048
  0
ARC
  5
17806
  8
0
 10
8838.5986842335387337
 20
2533.7523048881998875
 30
0.0
 40
0.3030664915623313
 50
117.8559925772178048
 51
132.5031935360158002
  0
ARC
  5
17807
  8
0
 10
8838.4940235910944466
 20
2533.8665091567750096
 30
0.0
 40
0.1481585671756076
 50
132.5031935360158002
 51
162.1606179916236954
  0
ARC
  5
17808
  8
0
 10
8838.4837185697579116
 20
2533.8668180851900615
 30
0.0
 40
0.138284018765604
 50
160.9743507126173085
 51
189.5756126831147128
  0
ARC
  5
17809
  8
0
 10
8838.5132899354175606
 20
2533.8757384821201413
 30
0.0
 40
0.1689717468387119
 50
190.8903400465767106
 51
224.6266069693544978
  0
ARC
  5
1780A
  8
0
 10
8838.5954094884018559
 20
2533.9532465926868099
 30
0.0
 40
0.2818757141148062
 50
224.1133274439152103
 51
243.8337657579278925
  0
ARC
  5
1780B
  8
0
 10
8838.6604626258031203
 20
2534.0841153553287768
 30
0.0
 40
0.4280203087216256
 50
243.7432381840484936
 51
261.784224718615917
  0
ARC
  5
1780C
  8
0
 10
8838.6804295124347846
 20
2534.2345656498750941
 30
0.0
 40
0.5797824210692136
 50
261.9559395848658028
 51
269.4777311937078252
  0
ARC
  5
1780D
  8
0
 10
8838.4881682301074761
 20
2533.8493969201272193
 30
0.0
 40
0.1542675531718776
 50
138.1744989105822867
 51
174.3774291642438925
  0
ARC
  5
1780E
  8
0
 10
8838.481658265902297
 20
2533.8519867004952175
 30
0.0
 40
0.1475479234762561
 50
175.1305999056488929
 51
207.4417890464937102
  0
ARC
  5
1780F
  8
0
 10
8838.5417847560984228
 20
2533.8850620472471746
 30
0.0
 40
0.2161578878799214
 50
207.8777097581049986
 51
232.7326948615055926
  0
ARC
  5
17810
  8
0
 10
8838.625907619645659
 20
2533.9942601684128931
 30
0.0
 40
0.3540000870727697
 50
232.5994304209089023
 51
251.8378866902259006
  0
ARC
  5
17811
  8
0
 10
8838.6906776058167452
 20
2534.2437368793230235
 30
0.0
 40
0.6114518860970442
 50
253.3580001838246858
 51
268.5443395510072833
  0
ARC
  5
17812
  8
0
 10
8838.5990740216220729
 20
2534.0055390743232238
 30
0.0
 40
0.0160110396745522
 50
110.5027135218960979
 51
147.4789890360432878
  0
ARC
  5
17813
  8
0
 10
8838.6046431137783657
 20
2533.9906460109950785
 30
0.0
 40
0.0319112951044679
 50
81.7892372249050652
 51
110.5027135218960979
  0
ARC
  5
17814
  8
0
 10
8838.605984648107551
 20
2533.9999432428007822
 30
0.0
 40
0.022517774273113
 50
43.7767275863769783
 51
81.7892372249050652
  0
ARC
  5
17815
  8
0
 10
8838.6155602823673689
 20
2534.0097929885191661
 30
0.0
 40
0.0088027075911182
 50
327.6969789751918825
 51
40.6051453455524296
  0
ARC
  5
17816
  8
0
 10
8838.6061165090141003
 20
2534.018493718694117
 30
0.0
 40
0.021558385429943
 50
269.2039115643327136
 51
321.5527555505814234
  0
ARC
  5
17817
  8
0
 10
8838.6036838679701759
 20
2534.0214195263829424
 30
0.0
 40
0.0245748647672942
 50
227.4687963348414996
 51
274.9795688202539736
  0
ARC
  5
17818
  8
0
 10
8838.5933302311314037
 20
2534.0096970303998205
 30
0.0
 40
0.0089423312418758
 50
150.1585341483120999
 51
225.5807627768452903
  0
ARC
  5
17819
  8
0
 10
8838.57422120782212
 20
2534.044106330923114
 30
0.0
 40
0.0160110396745522
 50
110.5027135218960979
 51
147.4789890360432878
  0
ARC
  5
1781A
  8
0
 10
8838.5797902999784128
 20
2534.0292132675949688
 30
0.0
 40
0.0319112951044679
 50
81.7892372249050652
 51
110.5027135218960979
  0
ARC
  5
1781B
  8
0
 10
8838.5811318343075982
 20
2534.0385104994002177
 30
0.0
 40
0.022517774273113
 50
43.7767275863769783
 51
81.7892372249050652
  0
ARC
  5
1781C
  8
0
 10
8838.5907074685674161
 20
2534.0483602451190563
 30
0.0
 40
0.0088027075911182
 50
327.6969789751918825
 51
40.6051453455524296
  0
ARC
  5
1781D
  8
0
 10
8838.5812636952141474
 20
2534.0570609752940072
 30
0.0
 40
0.021558385429943
 50
269.2039115643327136
 51
321.5527555505814234
  0
ARC
  5
1781E
  8
0
 10
8838.578831054173861
 20
2534.0599867829819232
 30
0.0
 40
0.0245748647672942
 50
227.4687963348414996
 51
274.9795688202539736
  0
ARC
  5
1781F
  8
0
 10
8838.5684774173296319
 20
2534.0482642870001655
 30
0.0
 40
0.0089423312418758
 50
150.1585341483120999
 51
225.5807627768452903
  0
ARC
  5
17820
  8
0
 10
8838.50574289789256
 20
2533.9896872839949538
 30
0.0
 40
0.0319112951044679
 50
81.7892372249050652
 51
92.3171832001650614
  0
ARC
  5
17821
  8
0
 10
8838.5070844322217454
 20
2533.9989845158011121
 30
0.0
 40
0.022517774273113
 50
43.7767275863769783
 51
81.7892372249050652
  0
ARC
  5
17822
  8
0
 10
8838.5166600664779253
 20
2534.0088342615199508
 30
0.0
 40
0.0088027075911182
 50
327.6969789751918825
 51
40.6051453455524296
  0
ARC
  5
17823
  8
0
 10
8838.5072162931264756
 20
2534.0175349916939922
 30
0.0
 40
0.021558385429943
 50
269.2039115643327136
 51
321.5527555505814234
  0
ARC
  5
17824
  8
0
 10
8838.5047836520843703
 20
2534.0204607993828176
 30
0.0
 40
0.0245748647672942
 50
227.4687963348414996
 51
274.9795688202539736
  0
ARC
  5
17825
  8
0
 10
8838.4944300152437791
 20
2534.00873830340106
 30
0.0
 40
0.0089423312418758
 50
155.0759650076109892
 51
225.5807627768452903
  0
ARC
  5
17826
  8
0
 10
8838.5426424919878627
 20
2533.9773096642948076
 30
0.0
 40
0.0160110396745522
 50
110.5027135218960979
 51
147.4789890360432878
  0
ARC
  5
17827
  8
0
 10
8838.5482115841441555
 20
2533.9624166009662076
 30
0.0
 40
0.0319112951044679
 50
81.7892372249050652
 51
110.5027135218960979
  0
ARC
  5
17828
  8
0
 10
8838.5495531184751599
 20
2533.9717138327728208
 30
0.0
 40
0.022517774273113
 50
43.7767275863769783
 51
81.7892372249050652
  0
ARC
  5
17829
  8
0
 10
8838.5591287527313398
 20
2533.9815635784912047
 30
0.0
 40
0.0088027075911182
 50
327.6969789751918825
 51
40.6051453455524296
  0
ARC
  5
1782A
  8
0
 10
8838.5496849793798901
 20
2533.9902643086661556
 30
0.0
 40
0.021558385429943
 50
269.2039115643327136
 51
321.5527555505814234
  0
ARC
  5
1782B
  8
0
 10
8838.5472523383377847
 20
2533.993190116354981
 30
0.0
 40
0.0245748647672942
 50
227.4687963348414996
 51
274.9795688202539736
  0
ARC
  5
1782C
  8
0
 10
8838.5368987014953746
 20
2533.9814676203718591
 30
0.0
 40
0.0089423312418758
 50
150.1585341483120999
 51
225.5807627768452903
  0
ARC
  5
1782D
  8
0
 10
8838.6239268353238003
 20
2533.9669718177228788
 30
0.0
 40
0.0160110396745522
 50
110.5027135218960979
 51
147.4789890360432878
  0
ARC
  5
1782E
  8
0
 10
8838.6294959274764551
 20
2533.9520787543938241
 30
0.0
 40
0.0319112951044679
 50
81.7892372249050652
 51
110.5027135218960979
  0
ARC
  5
1782F
  8
0
 10
8838.6308374618074595
 20
2533.9613759861999824
 30
0.0
 40
0.022517774273113
 50
43.7767275863769783
 51
81.7892372249050652
  0
ARC
  5
17830
  8
0
 10
8838.6404130960654584
 20
2533.9712257319188211
 30
0.0
 40
0.0088027075911182
 50
327.6969789751918825
 51
40.6051453455524296
  0
ARC
  5
17831
  8
0
 10
8838.6309693227140087
 20
2533.9799264620928625
 30
0.0
 40
0.021558385429943
 50
269.2039115643327136
 51
321.5527555505814234
  0
ARC
  5
17832
  8
0
 10
8838.6285366816737223
 20
2533.9828522697821427
 30
0.0
 40
0.0245748647672942
 50
227.4687963348414996
 51
274.9795688202539736
  0
ARC
  5
17833
  8
0
 10
8838.6181830448313121
 20
2533.9711297737999303
 30
0.0
 40
0.0089423312418758
 50
150.1585341483120999
 51
225.5807627768452903
  0
ARC
  5
17834
  8
0
 10
8838.5854987283346418
 20
2533.9500391024980672
 30
0.0
 40
0.0160110396745522
 50
110.5027135218960979
 51
147.4789890360432878
  0
ARC
  5
17835
  8
0
 10
8838.5910678204891155
 20
2533.9351460391690125
 30
0.0
 40
0.0319112951044679
 50
81.7892372249050652
 51
110.5027135218960979
  0
ARC
  5
17836
  8
0
 10
8838.5924093548201199
 20
2533.9444432709751709
 30
0.0
 40
0.022517774273113
 50
43.7767275863769783
 51
81.7892372249050652
  0
ARC
  5
17837
  8
0
 10
8838.6019849890744808
 20
2533.9542930166940096
 30
0.0
 40
0.0088027075911182
 50
327.6969789751918825
 51
40.6051453455524296
  0
ARC
  5
17838
  8
0
 10
8838.5925412157248502
 20
2533.9629937468689604
 30
0.0
 40
0.021558385429943
 50
269.2039115643327136
 51
321.5527555505814234
  0
ARC
  5
17839
  8
0
 10
8838.5901085746827448
 20
2533.9659195545568764
 30
0.0
 40
0.0245748647672942
 50
227.4687963348414996
 51
274.9795688202539736
  0
ARC
  5
1783A
  8
0
 10
8838.5797549378421536
 20
2533.9541970585751187
 30
0.0
 40
0.0089423312418758
 50
150.1585341483120999
 51
225.5807627768452903
  0
ARC
  5
1783B
  8
0
 10
8838.6277985336546408
 20
2533.9227683898898249
 30
0.0
 40
0.0160110396745522
 50
110.5027135218960979
 51
147.4789890360432878
  0
ARC
  5
1783C
  8
0
 10
8838.6333676258072956
 20
2533.9078753265621344
 30
0.0
 40
0.0319112951044679
 50
81.7892372249050652
 51
110.5027135218960979
  0
ARC
  5
1783D
  8
0
 10
8838.6347091601401189
 20
2533.9171725583678381
 30
0.0
 40
0.022517774273113
 50
43.7767275863769783
 51
81.7892372249050652
  0
ARC
  5
1783E
  8
0
 10
8838.6442847943962988
 20
2533.927022304086222
 30
0.0
 40
0.0088027075911182
 50
327.6969789751918825
 51
40.6051453455524296
  0
ARC
  5
1783F
  8
0
 10
8838.6348410210448492
 20
2533.9357230342611729
 30
0.0
 40
0.021558385429943
 50
269.2039115643327136
 51
321.5527555505814234
  0
ARC
  5
17840
  8
0
 10
8838.6324083800045628
 20
2533.9386488419490888
 30
0.0
 40
0.0245748647672942
 50
227.4687963348414996
 51
274.9795688202539736
  0
ARC
  5
17841
  8
0
 10
8838.6220547431603336
 20
2533.9269263459668764
 30
0.0
 40
0.0089423312418758
 50
150.1585341483120999
 51
225.5807627768452903
  0
ARC
  5
17842
  8
0
 10
8838.5589694440041058
 20
2533.925226444711825
 30
0.0
 40
0.0160110396745522
 50
110.5027135218960979
 51
147.4789890360432878
  0
ARC
  5
17843
  8
0
 10
8838.5645385361585795
 20
2533.9103333813841346
 30
0.0
 40
0.0319112951044679
 50
81.7892372249050652
 51
110.5027135218960979
  0
ARC
  5
17844
  8
0
 10
8838.5658800704895839
 20
2533.9196306131898382
 30
0.0
 40
0.022517774273113
 50
43.7767275863769783
 51
81.7892372249050652
  0
ARC
  5
17845
  8
0
 10
8838.5754557047475828
 20
2533.9294803589091316
 30
0.0
 40
0.0088027075911182
 50
327.6969789751918825
 51
40.6051453455524296
  0
ARC
  5
17846
  8
0
 10
8838.5660119313961331
 20
2533.938181089083173
 30
0.0
 40
0.021558385429943
 50
269.2039115643327136
 51
321.5527555505814234
  0
ARC
  5
17847
  8
0
 10
8838.5635792903540278
 20
2533.9411068967719984
 30
0.0
 40
0.0245748647672942
 50
227.4687963348414996
 51
274.9795688202539736
  0
ARC
  5
17848
  8
0
 10
8838.5532256535134366
 20
2533.9293844007888765
 30
0.0
 40
0.0089423312418758
 50
150.1585341483120999
 51
225.5807627768452903
  0
ARC
  5
17849
  8
0
 10
8838.6103134685236
 20
2533.8957069680282075
 30
0.0
 40
0.0160110396745522
 50
110.5027135218960979
 51
147.4789890360432878
  0
ARC
  5
1784A
  8
0
 10
8838.6158825606798928
 20
2533.8808139047000623
 30
0.0
 40
0.0319112951044679
 50
81.7892372249050652
 51
110.5027135218960979
  0
ARC
  5
1784B
  8
0
 10
8838.6172240950127161
 20
2533.8901111365062206
 30
0.0
 40
0.022517774273113
 50
43.7767275863769783
 51
81.7892372249050652
  0
ARC
  5
1784C
  8
0
 10
8838.6267997292670771
 20
2533.8999608822250593
 30
0.0
 40
0.0088027075911182
 50
327.6969789751918825
 51
40.6051453455524296
  0
ARC
  5
1784D
  8
0
 10
8838.6173559559156274
 20
2533.9086616123991007
 30
0.0
 40
0.021558385429943
 50
269.2039115643327136
 51
321.5527555505814234
  0
ARC
  5
1784E
  8
0
 10
8838.614923314873522
 20
2533.9115874200879261
 30
0.0
 40
0.0245748647672942
 50
227.4687963348414996
 51
274.9795688202539736
  0
ARC
  5
1784F
  8
0
 10
8838.6045696780311118
 20
2533.8998649241061685
 30
0.0
 40
0.0089423312418758
 50
150.1585341483120999
 51
225.5807627768452903
  0
ARC
  5
17850
  8
0
 10
8838.6278540757248265
 20
2533.8686483195219807
 30
0.0
 40
0.0160110396745522
 50
110.5027135218960979
 51
147.4789890360432878
  0
ARC
  5
17851
  8
0
 10
8838.6334231678811193
 20
2533.8537552561938355
 30
0.0
 40
0.0319112951044679
 50
81.7892372249050652
 51
110.5027135218960979
  0
ARC
  5
17852
  8
0
 10
8838.6347647022103047
 20
2533.8630524879999939
 30
0.0
 40
0.022517774273113
 50
43.7767275863769783
 51
81.7892372249050652
  0
ARC
  5
17853
  8
0
 10
8838.6443403364683036
 20
2533.8729022337179231
 30
0.0
 40
0.0088027075911182
 50
327.6969789751918825
 51
40.6051453455524296
  0
ARC
  5
17854
  8
0
 10
8838.6348965631168539
 20
2533.881602963892874
 30
0.0
 40
0.021558385429943
 50
269.2039115643327136
 51
321.5527555505814234
  0
ARC
  5
17855
  8
0
 10
8838.6324639220747486
 20
2533.8845287715821541
 30
0.0
 40
0.0245748647672942
 50
227.4687963348414996
 51
274.9795688202539736
  0
ARC
  5
17856
  8
0
 10
8838.6221102852341573
 20
2533.8728062755999417
 30
0.0
 40
0.0089423312418758
 50
150.1585341483120999
 51
225.5807627768452903
  0
ARC
  5
17857
  8
0
 10
8838.498722177460877
 20
2533.941200447582105
 30
0.0
 40
0.0160110396745522
 50
110.5027135218960979
 51
147.4789890360432878
  0
ARC
  5
17858
  8
0
 10
8838.5042912696153508
 20
2533.9263073842539598
 30
0.0
 40
0.0319112951044679
 50
81.7892372249050652
 51
110.5027135218960979
  0
ARC
  5
17859
  8
0
 10
8838.5056328039463551
 20
2533.9356046160592086
 30
0.0
 40
0.022517774273113
 50
43.7767275863769783
 51
81.7892372249050652
  0
ARC
  5
1785A
  8
0
 10
8838.515208438202535
 20
2533.9454543617780473
 30
0.0
 40
0.0088027075911182
 50
327.6969789751918825
 51
40.6051453455524296
  0
ARC
  5
1785B
  8
0
 10
8838.5057646648510854
 20
2533.9541550919529982
 30
0.0
 40
0.021558385429943
 50
269.2039115643327136
 51
321.5527555505814234
  0
ARC
  5
1785C
  8
0
 10
8838.503332023810799
 20
2533.9570808996418236
 30
0.0
 40
0.0245748647672942
 50
227.4687963348414996
 51
274.9795688202539736
  0
ARC
  5
1785D
  8
0
 10
8838.4929783869683888
 20
2533.9453584036591565
 30
0.0
 40
0.0089423312418758
 50
150.1585341483120999
 51
225.5807627768452903
  0
ARC
  5
1785E
  8
0
 10
8838.4387452016835596
 20
2533.9571757166459065
 30
0.0
 40
0.0160110396745522
 50
110.5027135218960979
 51
147.4789890360432878
  0
ARC
  5
1785F
  8
0
 10
8838.4443142938380333
 20
2533.9422826533168518
 30
0.0
 40
0.0319112951044679
 50
81.7892372249050652
 51
110.5027135218960979
  0
ARC
  5
17860
  8
0
 10
8838.4456558281653997
 20
2533.9515798851230102
 30
0.0
 40
0.022517774273113
 50
43.7767275863769783
 51
81.7892372249050652
  0
ARC
  5
17861
  8
0
 10
8838.4552314624252176
 20
2533.9614296308418488
 30
0.0
 40
0.0088027075911182
 50
327.6969789751918825
 51
40.6051453455524296
  0
ARC
  5
17862
  8
0
 10
8838.445787689073768
 20
2533.9701303610158902
 30
0.0
 40
0.021558385429943
 50
269.2039115643327136
 51
321.5527555505814234
  0
ARC
  5
17863
  8
0
 10
8838.4433550480334816
 20
2533.9730561687051704
 30
0.0
 40
0.0245748647672942
 50
227.4687963348414996
 51
274.9795688202539736
  0
ARC
  5
17864
  8
0
 10
8838.4330014111910714
 20
2533.961333672722958
 30
0.0
 40
0.0089423312418758
 50
150.1585341483120999
 51
225.5807627768452903
  0
ARC
  5
17865
  8
0
 10
8838.430313468525128
 20
2533.8957069680282075
 30
0.0
 40
0.0160110396745522
 50
110.5027135218960979
 51
147.4789890360432878
  0
ARC
  5
17866
  8
0
 10
8838.4358825606796017
 20
2533.8808139047000623
 30
0.0
 40
0.0319112951044679
 50
81.7892372249050652
 51
110.5027135218960979
  0
ARC
  5
17867
  8
0
 10
8838.4372240950106061
 20
2533.8901111365062206
 30
0.0
 40
0.022517774273113
 50
43.7767275863769783
 51
81.7892372249050652
  0
ARC
  5
17868
  8
0
 10
8838.446799729266786
 20
2533.8999608822250593
 30
0.0
 40
0.0088027075911182
 50
327.6969789751918825
 51
40.6051453455524296
  0
ARC
  5
17869
  8
0
 10
8838.4373559559153364
 20
2533.9086616123991007
 30
0.0
 40
0.021558385429943
 50
269.2039115643327136
 51
321.5527555505814234
  0
ARC
  5
1786A
  8
0
 10
8838.434923314873231
 20
2533.9115874200879261
 30
0.0
 40
0.0245748647672942
 50
227.4687963348414996
 51
274.9795688202539736
  0
ARC
  5
1786B
  8
0
 10
8838.4245696780326398
 20
2533.8998649241061685
 30
0.0
 40
0.0089423312418758
 50
150.1585341483120999
 51
225.5807627768452903
  0
ARC
  5
1786C
  8
0
 10
8838.4903134685246187
 20
2533.8957069680282075
 30
0.0
 40
0.0160110396745522
 50
110.5027135218960979
 51
147.4789890360432878
  0
ARC
  5
1786D
  8
0
 10
8838.4958825606772734
 20
2533.8808139047000623
 30
0.0
 40
0.0319112951044679
 50
81.7892372249050652
 51
110.5027135218960979
  0
ARC
  5
1786E
  8
0
 10
8838.4972240950100968
 20
2533.8901111365062206
 30
0.0
 40
0.022517774273113
 50
43.7767275863769783
 51
81.7892372249050652
  0
ARC
  5
1786F
  8
0
 10
8838.5067997292680957
 20
2533.8999608822250593
 30
0.0
 40
0.0088027075911182
 50
327.6969789751918825
 51
40.6051453455524296
  0
ARC
  5
17870
  8
0
 10
8838.4973559559148271
 20
2533.9086616123991007
 30
0.0
 40
0.021558385429943
 50
269.2039115643327136
 51
321.5527555505814234
  0
ARC
  5
17871
  8
0
 10
8838.4949233148745407
 20
2533.9115874200879261
 30
0.0
 40
0.0245748647672942
 50
227.4687963348414996
 51
274.9795688202539736
  0
ARC
  5
17872
  8
0
 10
8838.4845696780357684
 20
2533.8998649241061685
 30
0.0
 40
0.0089423312418758
 50
150.1585341483120999
 51
225.5807627768452903
  0
ARC
  5
17873
  8
0
 10
8838.5503134685222903
 20
2533.8957069680282075
 30
0.0
 40
0.0160110396745522
 50
110.5027135218960979
 51
147.4789890360432878
  0
ARC
  5
17874
  8
0
 10
8838.5558825606804021
 20
2533.8808139047000623
 30
0.0
 40
0.0319112951044679
 50
81.7892372249050652
 51
110.5027135218960979
  0
ARC
  5
17875
  8
0
 10
8838.5572240950095875
 20
2533.8901111365062206
 30
0.0
 40
0.022517774273113
 50
43.7767275863769783
 51
81.7892372249050652
  0
ARC
  5
17876
  8
0
 10
8838.5667997292675864
 20
2533.8999608822250593
 30
0.0
 40
0.0088027075911182
 50
327.6969789751918825
 51
40.6051453455524296
  0
ARC
  5
17877
  8
0
 10
8838.5573559559161367
 20
2533.9086616123991007
 30
0.0
 40
0.021558385429943
 50
269.2039115643327136
 51
321.5527555505814234
  0
ARC
  5
17878
  8
0
 10
8838.5549233148722124
 20
2533.9115874200879261
 30
0.0
 40
0.0245748647672942
 50
227.4687963348414996
 51
274.9795688202539736
  0
ARC
  5
17879
  8
0
 10
8838.5445696780334401
 20
2533.8998649241061685
 30
0.0
 40
0.0089423312418758
 50
150.1585341483120999
 51
225.5807627768452903
  0
ARC
  5
1787A
  8
0
 10
8838.5589833577323589
 20
2533.8661888677511342
 30
0.0
 40
0.0160110396745522
 50
110.5027135218960979
 51
147.4789890360432878
  0
ARC
  5
1787B
  8
0
 10
8838.5645524498868326
 20
2533.851295804422989
 30
0.0
 40
0.0319112951044679
 50
81.7892372249050652
 51
110.5027135218960979
  0
ARC
  5
1787C
  8
0
 10
8838.565893984217837
 20
2533.8605930362291474
 30
0.0
 40
0.022517774273113
 50
43.7767275863769783
 51
81.7892372249050652
  0
ARC
  5
1787D
  8
0
 10
8838.5754696184740169
 20
2533.8704427819470766
 30
0.0
 40
0.0088027075911182
 50
327.6969789751918825
 51
40.6051453455524296
  0
ARC
  5
1787E
  8
0
 10
8838.5660258451225673
 20
2533.8791435121220275
 30
0.0
 40
0.021558385429943
 50
269.2039115643327136
 51
321.5527555505814234
  0
ARC
  5
1787F
  8
0
 10
8838.5635932040822809
 20
2533.8820693198099434
 30
0.0
 40
0.0245748647672942
 50
227.4687963348414996
 51
274.9795688202539736
  0
ARC
  5
17880
  8
0
 10
8838.5532395672398707
 20
2533.8703468238281857
 30
0.0
 40
0.0089423312418758
 50
150.1585341483120999
 51
225.5807627768452903
  0
ARC
  5
17881
  8
0
 10
8838.5853332153637893
 20
2533.8413772380099545
 30
0.0
 40
0.0160110396745522
 50
110.5027135218960979
 51
147.4789890360432878
  0
ARC
  5
17882
  8
0
 10
8838.5909023075182631
 20
2533.8264841746818092
 30
0.0
 40
0.0319112951044679
 50
81.7892372249050652
 51
110.5027135218960979
  0
ARC
  5
17883
  8
0
 10
8838.5922438418492675
 20
2533.8357814064879676
 30
0.0
 40
0.022517774273113
 50
43.7767275863769783
 51
81.7892372249050652
  0
ARC
  5
17884
  8
0
 10
8838.6018194761054474
 20
2533.8456311522068063
 30
0.0
 40
0.0088027075911182
 50
327.6969789751918825
 51
40.6051453455524296
  0
ARC
  5
17885
  8
0
 10
8838.5923757027539978
 20
2533.8543318823808477
 30
0.0
 40
0.021558385429943
 50
269.2039115643327136
 51
321.5527555505814234
  0
ARC
  5
17886
  8
0
 10
8838.5899430617118924
 20
2533.8572576900701279
 30
0.0
 40
0.0245748647672942
 50
227.4687963348414996
 51
274.9795688202539736
  0
ARC
  5
17887
  8
0
 10
8838.5795894248713012
 20
2533.8455351940879154
 30
0.0
 40
0.0089423312418758
 50
150.1585341483120999
 51
225.5807627768452903
  0
ARC
  5
17888
  8
0
 10
8838.6239200061281736
 20
2533.8244455674939672
 30
0.0
 40
0.0160110396745522
 50
110.5027135218960979
 51
147.4789890360432878
  0
ARC
  5
17889
  8
0
 10
8838.6294890982862853
 20
2533.809552504165822
 30
0.0
 40
0.0319112951044679
 50
81.7892372249050652
 51
110.5027135218960979
  0
ARC
  5
1788A
  8
0
 10
8838.6308306326154707
 20
2533.8188497359710709
 30
0.0
 40
0.022517774273113
 50
43.7767275863769783
 51
81.7892372249050652
  0
ARC
  5
1788B
  8
0
 10
8838.6404062668716506
 20
2533.8286994816899096
 30
0.0
 40
0.0088027075911182
 50
327.6969789751918825
 51
40.6051453455524296
  0
ARC
  5
1788C
  8
0
 10
8838.630962493520201
 20
2533.8374002118648605
 30
0.0
 40
0.021558385429943
 50
269.2039115643327136
 51
321.5527555505814234
  0
ARC
  5
1788D
  8
0
 10
8838.6285298524780956
 20
2533.8403260195541407
 30
0.0
 40
0.0245748647672942
 50
227.4687963348414996
 51
274.9795688202539736
  0
ARC
  5
1788E
  8
0
 10
8838.6181762156375044
 20
2533.8286035235710187
 30
0.0
 40
0.0089423312418758
 50
150.1585341483120999
 51
225.5807627768452903
  0
ARC
  5
1788F
  8
0
 10
8838.4989833577037643
 20
2533.850213787028224
 30
0.0
 40
0.0160110396745522
 50
110.5027135218960979
 51
147.4789890360432878
  0
ARC
  5
17890
  8
0
 10
8838.5045524498600571
 20
2533.8353207237000788
 30
0.0
 40
0.0319112951044679
 50
81.7892372249050652
 51
110.5027135218960979
  0
ARC
  5
17891
  8
0
 10
8838.5058939841892425
 20
2533.8446179555057824
 30
0.0
 40
0.022517774273113
 50
43.7767275863769783
 51
81.7892372249050652
  0
ARC
  5
17892
  8
0
 10
8838.5154696184472414
 20
2533.8544677012250759
 30
0.0
 40
0.0088027075911182
 50
327.6969789751918825
 51
40.6051453455524296
  0
ARC
  5
17893
  8
0
 10
8838.5060258450976107
 20
2533.8631684313991173
 30
0.0
 40
0.021558385429943
 50
269.2039115643327136
 51
321.5527555505814234
  0
ARC
  5
17894
  8
0
 10
8838.5035932040536863
 20
2533.8660942390879427
 30
0.0
 40
0.0245748647672942
 50
227.4687963348414996
 51
274.9795688202539736
  0
ARC
  5
17895
  8
0
 10
8838.4932395672130951
 20
2533.854371743106185
 30
0.0
 40
0.0089423312418758
 50
150.1585341483120999
 51
225.5807627768452903
  0
ARC
  5
17896
  8
0
 10
8838.4389833577170066
 20
2533.8342387062730268
 30
0.0
 40
0.0160110396745522
 50
110.5027135218960979
 51
147.4789890360432878
  0
ARC
  5
17897
  8
0
 10
8838.4445524498714803
 20
2533.8193456429448815
 30
0.0
 40
0.0319112951044679
 50
81.7892372249050652
 51
110.5027135218960979
  0
ARC
  5
17898
  8
0
 10
8838.4458939842024847
 20
2533.8286428747501304
 30
0.0
 40
0.022517774273113
 50
43.7767275863769783
 51
81.7892372249050652
  0
ARC
  5
17899
  8
0
 10
8838.4554696184586646
 20
2533.8384926204698786
 30
0.0
 40
0.0088027075911182
 50
327.6969789751918825
 51
40.6051453455524296
  0
ARC
  5
1789A
  8
0
 10
8838.446025845105396
 20
2533.84719335064392
 30
0.0
 40
0.021558385429943
 50
269.2039115643327136
 51
321.5527555505814234
  0
ARC
  5
1789B
  8
0
 10
8838.4435932040669286
 20
2533.8501191583332002
 30
0.0
 40
0.0245748647672942
 50
227.4687963348414996
 51
274.9795688202539736
  0
ARC
  5
1789C
  8
0
 10
8838.4332395672245184
 20
2533.8383966623500783
 30
0.0
 40
0.0089423312418758
 50
150.1585341483120999
 51
225.5807627768452903
  0
ARC
  5
1789D
  8
0
 10
8838.5004308715797379
 20
2533.7868350237840787
 30
0.0
 40
0.0160110396745522
 50
110.5027135218960979
 51
147.4789890360432878
  0
ARC
  5
1789E
  8
0
 10
8838.5059999637342116
 20
2533.7719419604550239
 30
0.0
 40
0.0319112951044679
 50
81.7892372249050652
 51
110.5027135218960979
  0
ARC
  5
1789F
  8
0
 10
8838.507341498065216
 20
2533.7812391922611823
 30
0.0
 40
0.022517774273113
 50
43.7767275863769783
 51
81.7892372249050652
  0
ARC
  5
178A0
  8
0
 10
8838.5169171323213959
 20
2533.791088937980021
 30
0.0
 40
0.0088027075911182
 50
327.6969789751918825
 51
40.6051453455524296
  0
ARC
  5
178A1
  8
0
 10
8838.5074733589717653
 20
2533.7997896681549719
 30
0.0
 40
0.021558385429943
 50
269.2039115643327136
 51
321.5527555505814234
  0
ARC
  5
178A2
  8
0
 10
8838.5050407179278409
 20
2533.8027154758437973
 30
0.0
 40
0.0245748647672942
 50
227.4687963348414996
 51
274.9795688202539736
  0
ARC
  5
178A3
  8
0
 10
8838.4946870810872497
 20
2533.7909929798611302
 30
0.0
 40
0.0089423312418758
 50
150.1585341483120999
 51
225.5807627768452903
  0
ARC
  5
178A4
  8
0
 10
8838.5423111682976014
 20
2533.8141007006511245
 30
0.0
 40
0.0160110396745522
 50
110.5027135218960979
 51
147.4789890360432878
  0
ARC
  5
178A5
  8
0
 10
8838.5478802604538942
 20
2533.7992076373229793
 30
0.0
 40
0.0319112951044679
 50
81.7892372249050652
 51
110.5027135218960979
  0
ARC
  5
178A6
  8
0
 10
8838.5492217947830795
 20
2533.8085048691277734
 30
0.0
 40
0.022517774273113
 50
43.7767275863769783
 51
81.7892372249050652
  0
ARC
  5
178A7
  8
0
 10
8838.5587974290392594
 20
2533.8183546148470668
 30
0.0
 40
0.0088027075911182
 50
327.6969789751918825
 51
40.6051453455524296
  0
ARC
  5
178A8
  8
0
 10
8838.5493536556878098
 20
2533.8270553450211082
 30
0.0
 40
0.021558385429943
 50
269.2039115643327136
 51
321.5527555505814234
  0
ARC
  5
178A9
  8
0
 10
8838.5469210146457044
 20
2533.8299811527099337
 30
0.0
 40
0.0245748647672942
 50
227.4687963348414996
 51
274.9795688202539736
  0
ARC
  5
178AA
  8
0
 10
8838.5365673778051132
 20
2533.818258656728176
 30
0.0
 40
0.0089423312418758
 50
150.1585341483120999
 51
225.5807627768452903
  0
ARC
  5
178AB
  8
0
 10
8838.5990701862738206
 20
2533.7858782647749649
 30
0.0
 40
0.0160110396745522
 50
110.5027135218960979
 51
147.4789890360432878
  0
ARC
  5
178AC
  8
0
 10
8838.6046392784264754
 20
2533.7709852014468197
 30
0.0
 40
0.0319112951044679
 50
81.7892372249050652
 51
110.5027135218960979
  0
ARC
  5
178AD
  8
0
 10
8838.6059808127556607
 20
2533.7802824332529781
 30
0.0
 40
0.022517774273113
 50
43.7767275863769783
 51
81.7892372249050652
  0
ARC
  5
178AE
  8
0
 10
8838.6155564470154786
 20
2533.7901321789709073
 30
0.0
 40
0.0088027075911182
 50
327.6969789751918825
 51
40.6051453455524296
  0
ARC
  5
178AF
  8
0
 10
8838.60611267366221
 20
2533.7988329091458581
 30
0.0
 40
0.021558385429943
 50
269.2039115643327136
 51
321.5527555505814234
  0
ARC
  5
178B0
  8
0
 10
8838.6036800326201046
 20
2533.8017587168351383
 30
0.0
 40
0.0245748647672942
 50
227.4687963348414996
 51
274.9795688202539736
  0
ARC
  5
178B1
  8
0
 10
8838.5933263957795134
 20
2533.7900362208529259
 30
0.0
 40
0.0089423312418758
 50
150.1585341483120999
 51
225.5807627768452903
  0
ARC
  5
178B2
  8
0
 10
8838.5743016754786368
 20
2533.7473108924277767
 30
0.0
 40
0.0160110396745522
 50
110.5027135218960979
 51
147.4789890360432878
  0
ARC
  5
178B3
  8
0
 10
8838.5798707676331105
 20
2533.7324178291000862
 30
0.0
 40
0.0319112951044679
 50
81.7892372249050652
 51
110.5027135218960979
  0
ARC
  5
178B4
  8
0
 10
8838.5812123019641149
 20
2533.7417150609057899
 30
0.0
 40
0.022517774273113
 50
43.7767275863769783
 51
81.7892372249050652
  0
ARC
  5
178B5
  8
0
 10
8838.5907879362202948
 20
2533.7515648066250833
 30
0.0
 40
0.0088027075911182
 50
327.6969789751918825
 51
40.6051453455524296
  0
ARC
  5
178B6
  8
0
 10
8838.5813441628688452
 20
2533.7602655367991247
 30
0.0
 40
0.021558385429943
 50
269.2039115643327136
 51
321.5527555505814234
  0
ARC
  5
178B7
  8
0
 10
8838.5789115218267398
 20
2533.7631913444879501
 30
0.0
 40
0.0245748647672942
 50
227.4687963348414996
 51
274.9795688202539736
  0
ARC
  5
178B8
  8
0
 10
8838.5685578849861486
 20
2533.7514688485048282
 30
0.0
 40
0.0089423312418758
 50
150.1585341483120999
 51
225.5807627768452903
  0
ARC
  5
178B9
  8
0
 10
8838.6143729445902864
 20
2533.7790578072022072
 30
0.0
 40
0.266262716729369
 50
113.608411093423598
 51
131.856403218689394
  0
LINE
  5
178BA
  8
0
 10
8838.507739106174995
 20
2534.0230353857300543
 30
0.0
 11
8838.507739106174995
 21
2534.0427253112097787
 31
0.0
  0
LINE
  5
178BB
  8
0
 10
8838.507739106173176
 20
2534.0230353857300543
 30
0.0
 11
8838.4941900465746585
 21
2534.0354733662297804
 31
0.0
  0
LINE
  5
178BC
  8
0
 10
8838.4941900465746585
 20
2534.0354733662297804
 30
0.0
 11
8838.4941900465746585
 21
2534.0375205381001251
 31
0.0
  0
LINE
  5
178BD
  8
0
 10
8838.4173548214748735
 20
2533.9951401052258007
 30
0.0
 11
8838.4173548214748735
 21
2533.9860846355300055
 31
0.0
  0
LINE
  5
178BE
  8
0
 10
8838.4173548214748735
 20
2533.9860846355300055
 30
0.0
 11
8838.4367048839721974
 21
2533.97737546792996
 31
0.0
  0
ARC
  5
178BF
  8
0
 10
8838.611178525887226
 20
2533.7690100410200102
 30
0.0
 40
0.2910137590802226
 50
113.7034716902529965
 51
131.7613427482419013
  0
LINE
  5
178C0
  8
0
 10
8838.3674987881022389
 20
2533.943596349325162
 30
0.0
 11
8838.3649054707748292
 21
2533.9348515699580275
 31
0.0
  0
LINE
  5
178C1
  8
0
 10
8838.3649054707748292
 20
2533.9348515699580275
 30
0.0
 11
8838.3881686631739285
 21
2533.9322149010299654
 31
0.0
  0
LINE
  5
178C2
  8
0
 10
8838.3881686631739285
 20
2533.9322149010299654
 30
0.0
 11
8838.3881686631739285
 21
2533.9020556710302117
 31
0.0
  0
LINE
  5
178C3
  8
0
 10
8838.3881686631739285
 20
2533.9020556710302117
 30
0.0
 11
8838.3649054707748292
 21
2533.9046923396540478
 31
0.0
  0
LINE
  5
178C4
  8
0
 10
8838.3649054707748292
 20
2533.9046923396540478
 30
0.0
 11
8838.3649054707384494
 21
2533.9348515698338815
 31
0.0
  0
LINE
  5
178C5
  8
0
 10
8838.3846165944942186
 20
2533.8837906058902263
 30
0.0
 11
8838.3881686631739285
 21
2533.8676420259671431
 31
0.0
  0
LINE
  5
178C6
  8
0
 10
8838.3881686631739285
 20
2533.8676420259671431
 30
0.0
 11
8838.3881686631739285
 21
2533.8374827959301001
 31
0.0
  0
LINE
  5
178C7
  8
0
 10
8838.3881686631739285
 20
2533.8374827959301001
 30
0.0
 11
8838.3649054707748292
 21
2533.834846127129822
 31
0.0
  0
ARC
  5
178C8
  8
0
 10
8838.4917035240723635
 20
2533.8697692333921623
 30
0.0
 40
0.1315194649891431
 50
164.6012165338599118
 51
195.3987834661400029
  0
ARC
  5
178C9
  8
0
 10
8838.5054521462297998
 20
2533.8697692334799285
 30
0.0
 40
0.1216463293616492
 50
164.6085441556836884
 51
195.3914558443163116
  0
LINE
  5
178CA
  8
0
 10
8838.3601840590818028
 20
2533.8697692333921623
 30
0.0
 11
8838.3601840590818028
 21
2533.9300539496271085
 31
0.0
  0
LINE
  5
178CB
  8
0
 10
8838.4173548214748735
 20
2533.7534538314298516
 30
0.0
 11
8838.4173548214748735
 21
2533.78361306143006
 31
0.0
  0
LINE
  5
178CC
  8
0
 10
8838.4173548214748735
 20
2533.78361306143006
 30
0.0
 11
8838.4367048839721974
 21
2533.7923222291301499
 31
0.0
  0
LINE
  5
178CD
  8
0
 10
8838.4367048839721974
 20
2533.7923222291301499
 30
0.0
 11
8838.4367048839721974
 21
2533.762162999029897
 31
0.0
  0
LINE
  5
178CE
  8
0
 10
8838.4367048839721974
 20
2533.762162999029897
 30
0.0
 11
8838.4173548214748735
 21
2533.7534538314298516
 31
0.0
  0
LINE
  5
178CF
  8
0
 10
8838.507739106174995
 20
2533.7466623112300113
 30
0.0
 11
8838.507739106174995
 21
2533.7165030811302131
 31
0.0
  0
LINE
  5
178D0
  8
0
 10
8838.507739106174995
 20
2533.7165030811302131
 30
0.0
 11
8838.4941900465746585
 21
2533.7040651007300767
 31
0.0
  0
ARC
  5
178D1
  8
0
 10
8838.6159746036282741
 20
2533.9931316284528293
 30
0.0
 40
0.2691877546275869
 50
228.2435722141572967
 51
246.2916133596185944
  0
ARC
  5
178D2
  8
0
 10
8838.6159746049779642
 20
2533.9629724004507807
 30
0.0
 40
0.2691877570919918
 50
228.2435722975139925
 51
246.2916132763056964
  0
ARC
  5
178D3
  8
0
 10
8838.6111785257708107
 20
2533.9705284257561289
 30
0.0
 40
0.291013758864638
 50
228.2386572450417077
 51
246.2965283164664925
  0
ARC
  5
178D4
  8
0
 10
8838.6829155371924571
 20
2534.3030884665340636
 30
0.0
 40
0.5904808718889242
 50
264.3630583113020975
 51
269.2459541364644906
  0
LINE
  5
178D5
  8
0
 10
8838.6249158155005716
 20
2533.7154629970809765
 30
0.0
 11
8838.6249159087747103
 21
2533.6853045998300331
 31
0.0
  0
LINE
  5
178D6
  8
0
 10
8838.6249159087747103
 20
2533.6853045998300331
 30
0.0
 11
8838.6208139803748054
 21
2533.6703513080301491
 31
0.0
  0
LINE
  5
178D7
  8
0
 10
8838.6208139803748054
 20
2533.6703513080301491
 30
0.0
 11
8838.6208139803748054
 21
2533.7005105380299028
 31
0.0
  0
LINE
  5
178D8
  8
0
 10
8838.6208139803748054
 20
2533.7005105380299028
 30
0.0
 11
8838.6249158155005716
 21
2533.7154629970809765
 31
0.0
  0
ARC
  5
178D9
  8
0
 10
8838.6968914300960023
 20
2534.5230084546119542
 30
0.0
 40
0.8407902378042367
 50
265.0892067388926989
 51
268.5178997153612954
  0
ARC
  5
178DA
  8
0
 10
8838.6766981467171718
 20
2534.1827972048649826
 30
0.0
 40
0.5154840804823607
 50
263.7762727952372757
 51
269.8273337420415032
  0
ARC
  5
178DB
  8
0
 10
8838.5470626530131995
 20
2533.9279045624421087
 30
0.0
 40
0.1940210267653384
 50
208.2341548181886992
 51
228.0467045099005929
  0
ARC
  5
178DC
  8
0
 10
8838.6680870942909678
 20
2534.1359856716348986
 30
0.0
 40
0.4380334910565335
 50
248.5269649391833013
 51
263.8045024872449176
  0
ARC
  5
178DD
  8
0
 10
8838.6765986696937034
 20
2533.5642003031389322
 30
0.0
 40
0.5067065507255815
 50
74.1876379970576636
 51
90.1644089125756949
  0
ARC
  5
178DE
  8
0
 10
8838.7045817315411114
 20
2533.6633279248658255
 30
0.0
 40
0.4037049601598818
 50
62.1440074227822095
 51
74.1753031504553491
  0
ARC
  5
178DF
  8
0
 10
8838.7516051444090408
 20
2533.7523048881998875
 30
0.0
 40
0.3030664915623313
 50
47.4968064639841785
 51
62.1440074227822095
  0
ARC
  5
178E0
  8
0
 10
8838.8562657868551469
 20
2533.8665091567750096
 30
0.0
 40
0.1481585671756076
 50
17.8393820083763295
 51
47.4968064639841785
  0
ARC
  5
178E1
  8
0
 10
8838.8665708081916819
 20
2533.8668180851900615
 30
0.0
 40
0.138284018765604
 50
350.4243873168852019
 51
19.0256492873826915
  0
ARC
  5
178E2
  8
0
 10
8838.8369994425283949
 20
2533.8757384821201413
 30
0.0
 40
0.1689717468387119
 50
315.3733930306456159
 51
349.1096599534233178
  0
ARC
  5
178E3
  8
0
 10
8838.7548798895477375
 20
2533.9532465926868099
 30
0.0
 40
0.2818757141148062
 50
296.1662342420721075
 51
315.8866725560848181
  0
ARC
  5
178E4
  8
0
 10
8838.6898267521446542
 20
2534.0841153553287768
 30
0.0
 40
0.4280203087216256
 50
278.215775281384083
 51
296.2567618159516201
  0
ARC
  5
178E5
  8
0
 10
8838.6698598655148089
 20
2534.2345656498750941
 30
0.0
 40
0.5797824210692136
 50
270.5222688062921748
 51
278.0440604151341972
  0
ARC
  5
178E6
  8
0
 10
8838.8621211478421174
 20
2533.8493969201272193
 30
0.0
 40
0.1542675531718776
 50
5.6225708357561039
 51
41.8255010894176706
  0
ARC
  5
178E7
  8
0
 10
8838.8686311120454775
 20
2533.8519867004952175
 30
0.0
 40
0.1475479234762561
 50
332.5582109535063751
 51
4.869400094351116
  0
ARC
  5
178E8
  8
0
 10
8838.8085046218493517
 20
2533.8850620472471746
 30
0.0
 40
0.2161578878799214
 50
307.2673051384942937
 51
332.122290241894973
  0
ARC
  5
178E9
  8
0
 10
8838.7243817583021155
 20
2533.9942601684128931
 30
0.0
 40
0.3540000870727697
 50
288.1621133097742131
 51
307.4005695790910977
  0
ARC
  5
178EA
  8
0
 10
8838.6596117721328483
 20
2534.2437368793230235
 30
0.0
 40
0.6114518860970442
 50
271.4556604489926031
 51
286.6419998161753142
  0
ARC
  5
178EB
  8
0
 10
8838.7512153563257016
 20
2534.0055390743232238
 30
0.0
 40
0.0160110396745522
 50
32.5210109639566625
 51
69.4972864781038737
  0
ARC
  5
178EC
  8
0
 10
8838.7456462641694088
 20
2533.9906460109950785
 30
0.0
 40
0.0319112951044679
 50
69.4972864781038737
 51
98.2107627750949348
  0
ARC
  5
178ED
  8
0
 10
8838.7443047298402234
 20
2533.9999432428007822
 30
0.0
 40
0.022517774273113
 50
98.2107627750949348
 51
136.2232724136229933
  0
ARC
  5
178EE
  8
0
 10
8838.7347290955822245
 20
2534.0097929885191661
 30
0.0
 40
0.0088027075911182
 50
139.394854654447613
 51
212.3030210248080891
  0
ARC
  5
178EF
  8
0
 10
8838.7441728689354932
 20
2534.018493718694117
 30
0.0
 40
0.021558385429943
 50
218.447244449418605
 51
270.7960884356671727
  0
ARC
  5
178F0
  8
0
 10
8838.7466055099757796
 20
2534.0214195263829424
 30
0.0
 40
0.0245748647672942
 50
265.0204311797460832
 51
312.5312036651586141
  0
ARC
  5
178F1
  8
0
 10
8838.7569591468181898
 20
2534.0096970303998205
 30
0.0
 40
0.0089423312418758
 50
314.4192372231547097
 51
29.8414658516879499
  0
ARC
  5
178F2
  8
0
 10
8838.7760681701238354
 20
2534.044106330923114
 30
0.0
 40
0.0160110396745522
 50
32.5210109639566625
 51
69.4972864781038737
  0
ARC
  5
178F3
  8
0
 10
8838.7704990779711807
 20
2534.0292132675949688
 30
0.0
 40
0.0319112951044679
 50
69.4972864781038737
 51
98.2107627750949348
  0
ARC
  5
178F4
  8
0
 10
8838.7691575436401763
 20
2534.0385104994002177
 30
0.0
 40
0.022517774273113
 50
98.2107627750949348
 51
136.2232724136229933
  0
ARC
  5
178F5
  8
0
 10
8838.7595819093821774
 20
2534.0483602451190563
 30
0.0
 40
0.0088027075911182
 50
139.394854654447613
 51
212.3030210248080891
  0
ARC
  5
178F6
  8
0
 10
8838.769025682735446
 20
2534.0570609752940072
 30
0.0
 40
0.021558385429943
 50
218.447244449418605
 51
270.7960884356671727
  0
ARC
  5
178F7
  8
0
 10
8838.7714583237739134
 20
2534.0599867829819232
 30
0.0
 40
0.0245748647672942
 50
265.0204311797460832
 51
312.5312036651586141
  0
ARC
  5
178F8
  8
0
 10
8838.7818119606181426
 20
2534.0482642870001655
 30
0.0
 40
0.0089423312418758
 50
314.4192372231547097
 51
29.8414658516879499
  0
ARC
  5
178F9
  8
0
 10
8838.8445464800570335
 20
2533.9896872839949538
 30
0.0
 40
0.0319112951044679
 50
87.6828167998349244
 51
98.2107627750949348
  0
ARC
  5
178FA
  8
0
 10
8838.8432049457260291
 20
2533.9989845158011121
 30
0.0
 40
0.022517774273113
 50
98.2107627750949348
 51
136.2232724136229933
  0
ARC
  5
178FB
  8
0
 10
8838.8336293114716682
 20
2534.0088342615199508
 30
0.0
 40
0.0088027075911182
 50
139.394854654447613
 51
212.3030210248080891
  0
ARC
  5
178FC
  8
0
 10
8838.8430730848212988
 20
2534.0175349916939922
 30
0.0
 40
0.021558385429943
 50
218.447244449418605
 51
270.7960884356671727
  0
ARC
  5
178FD
  8
0
 10
8838.8455057258634042
 20
2534.0204607993828176
 30
0.0
 40
0.0245748647672942
 50
265.0204311797460832
 51
312.5312036651586141
  0
ARC
  5
178FE
  8
0
 10
8838.8558593627039954
 20
2534.00873830340106
 30
0.0
 40
0.0089423312418758
 50
314.4192372231547097
 51
24.9240349923890108
  0
ARC
  5
178FF
  8
0
 10
8838.8076468859580928
 20
2533.9773096642948076
 30
0.0
 40
0.0160110396745522
 50
32.5210109639566625
 51
69.4972864781038737
  0
ARC
  5
17900
  8
0
 10
8838.802077793803619
 20
2533.9624166009662076
 30
0.0
 40
0.0319112951044679
 50
69.4972864781038737
 51
98.2107627750949348
  0
ARC
  5
17901
  8
0
 10
8838.8007362594744336
 20
2533.9717138327728208
 30
0.0
 40
0.022517774273113
 50
98.2107627750949348
 51
136.2232724136229933
  0
ARC
  5
17902
  8
0
 10
8838.7911606252164347
 20
2533.9815635784912047
 30
0.0
 40
0.0088027075911182
 50
139.394854654447613
 51
212.3030210248080891
  0
ARC
  5
17903
  8
0
 10
8838.8006043985697033
 20
2533.9902643086661556
 30
0.0
 40
0.021558385429943
 50
218.447244449418605
 51
270.7960884356671727
  0
ARC
  5
17904
  8
0
 10
8838.8030370396081707
 20
2533.993190116354981
 30
0.0
 40
0.0245748647672942
 50
265.0204311797460832
 51
312.5312036651586141
  0
ARC
  5
17905
  8
0
 10
8838.8133906764505809
 20
2533.9814676203718591
 30
0.0
 40
0.0089423312418758
 50
314.4192372231547097
 51
29.8414658516879499
  0
ARC
  5
17906
  8
0
 10
8838.7263625426257931
 20
2533.9669718177228788
 30
0.0
 40
0.0160110396745522
 50
32.5210109639566625
 51
69.4972864781038737
  0
ARC
  5
17907
  8
0
 10
8838.7207934504695004
 20
2533.9520787543938241
 30
0.0
 40
0.0319112951044679
 50
69.4972864781038737
 51
98.2107627750949348
  0
ARC
  5
17908
  8
0
 10
8838.719451916140315
 20
2533.9613759861999824
 30
0.0
 40
0.022517774273113
 50
98.2107627750949348
 51
136.2232724136229933
  0
ARC
  5
17909
  8
0
 10
8838.7098762818823161
 20
2533.9712257319188211
 30
0.0
 40
0.0088027075911182
 50
139.394854654447613
 51
212.3030210248080891
  0
ARC
  5
1790A
  8
0
 10
8838.7193200552355847
 20
2533.9799264620928625
 30
0.0
 40
0.021558385429943
 50
218.447244449418605
 51
270.7960884356671727
  0
ARC
  5
1790B
  8
0
 10
8838.7217526962758711
 20
2533.9828522697821427
 30
0.0
 40
0.0245748647672942
 50
265.0204311797460832
 51
312.5312036651586141
  0
ARC
  5
1790C
  8
0
 10
8838.7321063331164623
 20
2533.9711297737999303
 30
0.0
 40
0.0089423312418758
 50
314.4192372231547097
 51
29.8414658516879499
  0
ARC
  5
1790D
  8
0
 10
8838.7647906496167707
 20
2533.9500391024980672
 30
0.0
 40
0.0160110396745522
 50
32.5210109639566625
 51
69.4972864781038737
  0
ARC
  5
1790E
  8
0
 10
8838.7592215574586589
 20
2533.9351460391690125
 30
0.0
 40
0.0319112951044679
 50
69.4972864781038737
 51
98.2107627750949348
  0
ARC
  5
1790F
  8
0
 10
8838.7578800231294736
 20
2533.9444432709751709
 30
0.0
 40
0.022517774273113
 50
98.2107627750949348
 51
136.2232724136229933
  0
ARC
  5
17910
  8
0
 10
8838.7483043888714747
 20
2533.9542930166940096
 30
0.0
 40
0.0088027075911182
 50
139.394854654447613
 51
212.3030210248080891
  0
ARC
  5
17911
  8
0
 10
8838.7577481622229243
 20
2533.9629937468689604
 30
0.0
 40
0.021558385429943
 50
218.447244449418605
 51
270.7960884356671727
  0
ARC
  5
17912
  8
0
 10
8838.7601808032668487
 20
2533.9659195545568764
 30
0.0
 40
0.0245748647672942
 50
265.0204311797460832
 51
312.5312036651586141
  0
ARC
  5
17913
  8
0
 10
8838.7705344401056209
 20
2533.9541970585751187
 30
0.0
 40
0.0089423312418758
 50
314.4192372231547097
 51
29.8414658516879499
  0
ARC
  5
17914
  8
0
 10
8838.7224908442931337
 20
2533.9227683898898249
 30
0.0
 40
0.0160110396745522
 50
32.5210109639566625
 51
69.4972864781038737
  0
ARC
  5
17915
  8
0
 10
8838.7169217521386599
 20
2533.9078753265621344
 30
0.0
 40
0.0319112951044679
 50
69.4972864781038737
 51
98.2107627750949348
  0
ARC
  5
17916
  8
0
 10
8838.7155802178058366
 20
2533.9171725583678381
 30
0.0
 40
0.022517774273113
 50
98.2107627750949348
 51
136.2232724136229933
  0
ARC
  5
17917
  8
0
 10
8838.7060045835514757
 20
2533.927022304086222
 30
0.0
 40
0.0088027075911182
 50
139.394854654447613
 51
212.3030210248080891
  0
ARC
  5
17918
  8
0
 10
8838.7154483569047443
 20
2533.9357230342611729
 30
0.0
 40
0.021558385429943
 50
218.447244449418605
 51
270.7960884356671727
  0
ARC
  5
17919
  8
0
 10
8838.7178809979450307
 20
2533.9386488419490888
 30
0.0
 40
0.0245748647672942
 50
265.0204311797460832
 51
312.5312036651586141
  0
ARC
  5
1791A
  8
0
 10
8838.7282346347856219
 20
2533.9269263459668764
 30
0.0
 40
0.0089423312418758
 50
314.4192372231547097
 51
29.8414658516879499
  0
ARC
  5
1791B
  8
0
 10
8838.7913199339436687
 20
2533.925226444711825
 30
0.0
 40
0.0160110396745522
 50
32.5210109639566625
 51
69.4972864781038737
  0
ARC
  5
1791C
  8
0
 10
8838.785750841787376
 20
2533.9103333813841346
 30
0.0
 40
0.0319112951044679
 50
69.4972864781038737
 51
98.2107627750949348
  0
ARC
  5
1791D
  8
0
 10
8838.7844093074563716
 20
2533.9196306131898382
 30
0.0
 40
0.022517774273113
 50
98.2107627750949348
 51
136.2232724136229933
  0
ARC
  5
1791E
  8
0
 10
8838.7748336732001917
 20
2533.9294803589091316
 30
0.0
 40
0.0088027075911182
 50
139.394854654447613
 51
212.3030210248080891
  0
ARC
  5
1791F
  8
0
 10
8838.7842774465516413
 20
2533.938181089083173
 30
0.0
 40
0.021558385429943
 50
218.447244449418605
 51
270.7960884356671727
  0
ARC
  5
17920
  8
0
 10
8838.7867100875937467
 20
2533.9411068967719984
 30
0.0
 40
0.0245748647672942
 50
265.0204311797460832
 51
312.5312036651586141
  0
ARC
  5
17921
  8
0
 10
8838.7970637244343379
 20
2533.9293844007888765
 30
0.0
 40
0.0089423312418758
 50
314.4192372231547097
 51
29.8414658516879499
  0
ARC
  5
17922
  8
0
 10
8838.7399759094241745
 20
2533.8957069680282075
 30
0.0
 40
0.0160110396745522
 50
32.5210109639566625
 51
69.4972864781038737
  0
ARC
  5
17923
  8
0
 10
8838.7344068172678817
 20
2533.8808139047000623
 30
0.0
 40
0.0319112951044679
 50
69.4972864781038737
 51
98.2107627750949348
  0
ARC
  5
17924
  8
0
 10
8838.7330652829386963
 20
2533.8901111365062206
 30
0.0
 40
0.022517774273113
 50
98.2107627750949348
 51
136.2232724136229933
  0
ARC
  5
17925
  8
0
 10
8838.7234896486806974
 20
2533.8999608822250593
 30
0.0
 40
0.0088027075911182
 50
139.394854654447613
 51
212.3030210248080891
  0
ARC
  5
17926
  8
0
 10
8838.7329334220321471
 20
2533.9086616123991007
 30
0.0
 40
0.021558385429943
 50
218.447244449418605
 51
270.7960884356671727
  0
ARC
  5
17927
  8
0
 10
8838.7353660630742525
 20
2533.9115874200879261
 30
0.0
 40
0.0245748647672942
 50
265.0204311797460832
 51
312.5312036651586141
  0
ARC
  5
17928
  8
0
 10
8838.7457196999148437
 20
2533.8998649241061685
 30
0.0
 40
0.0089423312418758
 50
314.4192372231547097
 51
29.8414658516879499
  0
ARC
  5
17929
  8
0
 10
8838.7224353022229479
 20
2533.8686483195219807
 30
0.0
 40
0.0160110396745522
 50
32.5210109639566625
 51
69.4972864781038737
  0
ARC
  5
1792A
  8
0
 10
8838.7168662100666552
 20
2533.8537552561938355
 30
0.0
 40
0.0319112951044679
 50
69.4972864781038737
 51
98.2107627750949348
  0
ARC
  5
1792B
  8
0
 10
8838.7155246757374698
 20
2533.8630524879999939
 30
0.0
 40
0.022517774273113
 50
98.2107627750949348
 51
136.2232724136229933
  0
ARC
  5
1792C
  8
0
 10
8838.7059490414794709
 20
2533.8729022337179231
 30
0.0
 40
0.0088027075911182
 50
139.394854654447613
 51
212.3030210248080891
  0
ARC
  5
1792D
  8
0
 10
8838.7153928148309205
 20
2533.881602963892874
 30
0.0
 40
0.021558385429943
 50
218.447244449418605
 51
270.7960884356671727
  0
ARC
  5
1792E
  8
0
 10
8838.7178254558730259
 20
2533.8845287715821541
 30
0.0
 40
0.0245748647672942
 50
265.0204311797460832
 51
312.5312036651586141
  0
ARC
  5
1792F
  8
0
 10
8838.7281790927136171
 20
2533.8728062755999417
 30
0.0
 40
0.0089423312418758
 50
314.4192372231547097
 51
29.8414658516879499
  0
ARC
  5
17930
  8
0
 10
8838.8515672004887165
 20
2533.941200447582105
 30
0.0
 40
0.0160110396745522
 50
32.5210109639566625
 51
69.4972864781038737
  0
ARC
  5
17931
  8
0
 10
8838.8459981083324237
 20
2533.9263073842539598
 30
0.0
 40
0.0319112951044679
 50
69.4972864781038737
 51
98.2107627750949348
  0
ARC
  5
17932
  8
0
 10
8838.8446565740032383
 20
2533.9356046160592086
 30
0.0
 40
0.022517774273113
 50
98.2107627750949348
 51
136.2232724136229933
  0
ARC
  5
17933
  8
0
 10
8838.8350809397452394
 20
2533.9454543617780473
 30
0.0
 40
0.0088027075911182
 50
139.394854654447613
 51
212.3030210248080891
  0
ARC
  5
17934
  8
0
 10
8838.8445247130966891
 20
2533.9541550919529982
 30
0.0
 40
0.021558385429943
 50
218.447244449418605
 51
270.7960884356671727
  0
ARC
  5
17935
  8
0
 10
8838.8469573541387945
 20
2533.9570808996418236
 30
0.0
 40
0.0245748647672942
 50
265.0204311797460832
 51
312.5312036651586141
  0
ARC
  5
17936
  8
0
 10
8838.8573109909793857
 20
2533.9453584036591565
 30
0.0
 40
0.0089423312418758
 50
314.4192372231547097
 51
29.8414658516879499
  0
ARC
  5
17937
  8
0
 10
8838.9115441762660339
 20
2533.9571757166459065
 30
0.0
 40
0.0160110396745522
 50
32.5210109639566625
 51
69.4972864781038737
  0
ARC
  5
17938
  8
0
 10
8838.9059750841115601
 20
2533.9422826533168518
 30
0.0
 40
0.0319112951044679
 50
69.4972864781038737
 51
98.2107627750949348
  0
ARC
  5
17939
  8
0
 10
8838.9046335497805558
 20
2533.9515798851230102
 30
0.0
 40
0.022517774273113
 50
98.2107627750949348
 51
136.2232724136229933
  0
ARC
  5
1793A
  8
0
 10
8838.8950579155225569
 20
2533.9614296308418488
 30
0.0
 40
0.0088027075911182
 50
139.394854654447613
 51
212.3030210248080891
  0
ARC
  5
1793B
  8
0
 10
8838.9045016888758255
 20
2533.9701303610158902
 30
0.0
 40
0.021558385429943
 50
218.447244449418605
 51
270.7960884356671727
  0
ARC
  5
1793C
  8
0
 10
8838.9069343299179309
 20
2533.9730561687051704
 30
0.0
 40
0.0245748647672942
 50
265.0204311797460832
 51
312.5312036651586141
  0
ARC
  5
1793D
  8
0
 10
8838.9172879667567031
 20
2533.961333672722958
 30
0.0
 40
0.0089423312418758
 50
314.4192372231547097
 51
29.8414658516879499
  0
ARC
  5
1793E
  8
0
 10
8838.9199759094244655
 20
2533.8957069680282075
 30
0.0
 40
0.0160110396745522
 50
32.5210109639566625
 51
69.4972864781038737
  0
ARC
  5
1793F
  8
0
 10
8838.9144068172681727
 20
2533.8808139047000623
 30
0.0
 40
0.0319112951044679
 50
69.4972864781038737
 51
98.2107627750949348
  0
ARC
  5
17940
  8
0
 10
8838.9130652829389874
 20
2533.8901111365062206
 30
0.0
 40
0.022517774273113
 50
98.2107627750949348
 51
136.2232724136229933
  0
ARC
  5
17941
  8
0
 10
8838.9034896486791695
 20
2533.8999608822250593
 30
0.0
 40
0.0088027075911182
 50
139.394854654447613
 51
212.3030210248080891
  0
ARC
  5
17942
  8
0
 10
8838.9129334220324381
 20
2533.9086616123991007
 30
0.0
 40
0.021558385429943
 50
218.447244449418605
 51
270.7960884356671727
  0
ARC
  5
17943
  8
0
 10
8838.9153660630745435
 20
2533.9115874200879261
 30
0.0
 40
0.0245748647672942
 50
265.0204311797460832
 51
312.5312036651586141
  0
ARC
  5
17944
  8
0
 10
8838.9257196999151347
 20
2533.8998649241061685
 30
0.0
 40
0.0089423312418758
 50
314.4192372231547097
 51
29.8414658516879499
  0
ARC
  5
17945
  8
0
 10
8838.8599759094231558
 20
2533.8957069680282075
 30
0.0
 40
0.0160110396745522
 50
32.5210109639566625
 51
69.4972864781038737
  0
ARC
  5
17946
  8
0
 10
8838.8544068172686821
 20
2533.8808139047000623
 30
0.0
 40
0.0319112951044679
 50
69.4972864781038737
 51
98.2107627750949348
  0
ARC
  5
17947
  8
0
 10
8838.8530652829376777
 20
2533.8901111365062206
 30
0.0
 40
0.022517774273113
 50
98.2107627750949348
 51
136.2232724136229933
  0
ARC
  5
17948
  8
0
 10
8838.8434896486814978
 20
2533.8999608822250593
 30
0.0
 40
0.0088027075911182
 50
139.394854654447613
 51
212.3030210248080891
  0
ARC
  5
17949
  8
0
 10
8838.8529334220347664
 20
2533.9086616123991007
 30
0.0
 40
0.021558385429943
 50
218.447244449418605
 51
270.7960884356671727
  0
ARC
  5
1794A
  8
0
 10
8838.8553660630750528
 20
2533.9115874200879261
 30
0.0
 40
0.0245748647672942
 50
265.0204311797460832
 51
312.5312036651586141
  0
ARC
  5
1794B
  8
0
 10
8838.865719699915644
 20
2533.8998649241061685
 30
0.0
 40
0.0089423312418758
 50
314.4192372231547097
 51
29.8414658516879499
  0
ARC
  5
1794C
  8
0
 10
8838.7999759094236651
 20
2533.8957069680282075
 30
0.0
 40
0.0160110396745522
 50
32.5210109639566625
 51
69.4972864781038737
  0
ARC
  5
1794D
  8
0
 10
8838.7944068172673724
 20
2533.8808139047000623
 30
0.0
 40
0.0319112951044679
 50
69.4972864781038737
 51
98.2107627750949348
  0
ARC
  5
1794E
  8
0
 10
8838.793065282938187
 20
2533.8901111365062206
 30
0.0
 40
0.022517774273113
 50
98.2107627750949348
 51
136.2232724136229933
  0
ARC
  5
1794F
  8
0
 10
8838.7834896486801881
 20
2533.8999608822250593
 30
0.0
 40
0.0088027075911182
 50
139.394854654447613
 51
212.3030210248080891
  0
ARC
  5
17950
  8
0
 10
8838.7929334220316377
 20
2533.9086616123991007
 30
0.0
 40
0.021558385429943
 50
218.447244449418605
 51
270.7960884356671727
  0
ARC
  5
17951
  8
0
 10
8838.7953660630737431
 20
2533.9115874200879261
 30
0.0
 40
0.0245748647672942
 50
265.0204311797460832
 51
312.5312036651586141
  0
ARC
  5
17952
  8
0
 10
8838.8057196999143343
 20
2533.8998649241061685
 30
0.0
 40
0.0089423312418758
 50
314.4192372231547097
 51
29.8414658516879499
  0
ARC
  5
17953
  8
0
 10
8838.7913060202172346
 20
2533.8661888677511342
 30
0.0
 40
0.0160110396745522
 50
32.5210109639566625
 51
69.4972864781038737
  0
ARC
  5
17954
  8
0
 10
8838.7857369280609419
 20
2533.851295804422989
 30
0.0
 40
0.0319112951044679
 50
69.4972864781038737
 51
98.2107627750949348
  0
ARC
  5
17955
  8
0
 10
8838.7843953937317565
 20
2533.8605930362291474
 30
0.0
 40
0.022517774273113
 50
98.2107627750949348
 51
136.2232724136229933
  0
ARC
  5
17956
  8
0
 10
8838.7748197594755766
 20
2533.8704427819470766
 30
0.0
 40
0.0088027075911182
 50
139.394854654447613
 51
212.3030210248080891
  0
ARC
  5
17957
  8
0
 10
8838.7842635328252072
 20
2533.8791435121220275
 30
0.0
 40
0.021558385429943
 50
218.447244449418605
 51
270.7960884356671727
  0
ARC
  5
17958
  8
0
 10
8838.7866961738673126
 20
2533.8820693198099434
 30
0.0
 40
0.0245748647672942
 50
265.0204311797460832
 51
312.5312036651586141
  0
ARC
  5
17959
  8
0
 10
8838.7970498107079038
 20
2533.8703468238281857
 30
0.0
 40
0.0089423312418758
 50
314.4192372231547097
 51
29.8414658516879499
  0
ARC
  5
1795A
  8
0
 10
8838.7649561625858041
 20
2533.8413772380099545
 30
0.0
 40
0.0160110396745522
 50
32.5210109639566625
 51
69.4972864781038737
  0
ARC
  5
1795B
  8
0
 10
8838.7593870704295114
 20
2533.8264841746818092
 30
0.0
 40
0.0319112951044679
 50
69.4972864781038737
 51
98.2107627750949348
  0
ARC
  5
1795C
  8
0
 10
8838.758045536098507
 20
2533.8357814064879676
 30
0.0
 40
0.022517774273113
 50
98.2107627750949348
 51
136.2232724136229933
  0
ARC
  5
1795D
  8
0
 10
8838.7484699018423271
 20
2533.8456311522068063
 30
0.0
 40
0.0088027075911182
 50
139.394854654447613
 51
212.3030210248080891
  0
ARC
  5
1795E
  8
0
 10
8838.7579136751937767
 20
2533.8543318823808477
 30
0.0
 40
0.021558385429943
 50
218.447244449418605
 51
270.7960884356671727
  0
ARC
  5
1795F
  8
0
 10
8838.7603463162358821
 20
2533.8572576900701279
 30
0.0
 40
0.0245748647672942
 50
265.0204311797460832
 51
312.5312036651586141
  0
ARC
  5
17960
  8
0
 10
8838.7706999530764733
 20
2533.8455351940879154
 30
0.0
 40
0.0089423312418758
 50
314.4192372231547097
 51
29.8414658516879499
  0
ARC
  5
17961
  8
0
 10
8838.7263693718196009
 20
2533.8244455674939672
 30
0.0
 40
0.0160110396745522
 50
32.5210109639566625
 51
69.4972864781038737
  0
ARC
  5
17962
  8
0
 10
8838.7208002796651272
 20
2533.809552504165822
 30
0.0
 40
0.0319112951044679
 50
69.4972864781038737
 51
98.2107627750949348
  0
ARC
  5
17963
  8
0
 10
8838.7194587453341228
 20
2533.8188497359710709
 30
0.0
 40
0.022517774273113
 50
98.2107627750949348
 51
136.2232724136229933
  0
ARC
  5
17964
  8
0
 10
8838.7098831110761239
 20
2533.8286994816899096
 30
0.0
 40
0.0088027075911182
 50
139.394854654447613
 51
212.3030210248080891
  0
ARC
  5
17965
  8
0
 10
8838.7193268844293925
 20
2533.8374002118648605
 30
0.0
 40
0.021558385429943
 50
218.447244449418605
 51
270.7960884356671727
  0
ARC
  5
17966
  8
0
 10
8838.7217595254714979
 20
2533.8403260195541407
 30
0.0
 40
0.0245748647672942
 50
265.0204311797460832
 51
312.5312036651586141
  0
ARC
  5
17967
  8
0
 10
8838.7321131623139081
 20
2533.8286035235710187
 30
0.0
 40
0.0089423312418758
 50
314.4192372231547097
 51
29.8414658516879499
  0
ARC
  5
17968
  8
0
 10
8838.8513060202421912
 20
2533.850213787028224
 30
0.0
 40
0.0160110396745522
 50
32.5210109639566625
 51
69.4972864781038737
  0
ARC
  5
17969
  8
0
 10
8838.8457369280895364
 20
2533.8353207237000788
 30
0.0
 40
0.0319112951044679
 50
69.4972864781038737
 51
98.2107627750949348
  0
ARC
  5
1796A
  8
0
 10
8838.844395393758532
 20
2533.8446179555057824
 30
0.0
 40
0.022517774273113
 50
98.2107627750949348
 51
136.2232724136229933
  0
ARC
  5
1796B
  8
0
 10
8838.8348197595005331
 20
2533.8544677012250759
 30
0.0
 40
0.0088027075911182
 50
139.394854654447613
 51
212.3030210248080891
  0
ARC
  5
1796C
  8
0
 10
8838.8442635328538017
 20
2533.8631684313991173
 30
0.0
 40
0.021558385429943
 50
218.447244449418605
 51
270.7960884356671727
  0
ARC
  5
1796D
  8
0
 10
8838.8466961738922691
 20
2533.8660942390879427
 30
0.0
 40
0.0245748647672942
 50
265.0204311797460832
 51
312.5312036651586141
  0
ARC
  5
1796E
  8
0
 10
8838.8570498107346793
 20
2533.854371743106185
 30
0.0
 40
0.0089423312418758
 50
314.4192372231547097
 51
29.8414658516879499
  0
ARC
  5
1796F
  8
0
 10
8838.9113060202307679
 20
2533.8342387062730268
 30
0.0
 40
0.0160110396745522
 50
32.5210109639566625
 51
69.4972864781038737
  0
ARC
  5
17970
  8
0
 10
8838.9057369280762941
 20
2533.8193456429448815
 30
0.0
 40
0.0319112951044679
 50
69.4972864781038737
 51
98.2107627750949348
  0
ARC
  5
17971
  8
0
 10
8838.9043953937452898
 20
2533.8286428747501304
 30
0.0
 40
0.022517774273113
 50
98.2107627750949348
 51
136.2232724136229933
  0
ARC
  5
17972
  8
0
 10
8838.8948197594891099
 20
2533.8384926204698786
 30
0.0
 40
0.0088027075911182
 50
139.394854654447613
 51
212.3030210248080891
  0
ARC
  5
17973
  8
0
 10
8838.9042635328405595
 20
2533.84719335064392
 30
0.0
 40
0.021558385429943
 50
218.447244449418605
 51
270.7960884356671727
  0
ARC
  5
17974
  8
0
 10
8838.9066961738844839
 20
2533.8501191583332002
 30
0.0
 40
0.0245748647672942
 50
265.0204311797460832
 51
312.5312036651586141
  0
ARC
  5
17975
  8
0
 10
8838.9170498107232561
 20
2533.8383966623500783
 30
0.0
 40
0.0089423312418758
 50
314.4192372231547097
 51
29.8414658516879499
  0
ARC
  5
17976
  8
0
 10
8838.8498585063698556
 20
2533.7868350237840787
 30
0.0
 40
0.0160110396745522
 50
32.5210109639566625
 51
69.4972864781038737
  0
ARC
  5
17977
  8
0
 10
8838.8442894142135628
 20
2533.7719419604550239
 30
0.0
 40
0.0319112951044679
 50
69.4972864781038737
 51
98.2107627750949348
  0
ARC
  5
17978
  8
0
 10
8838.8429478798825585
 20
2533.7812391922611823
 30
0.0
 40
0.022517774273113
 50
98.2107627750949348
 51
136.2232724136229933
  0
ARC
  5
17979
  8
0
 10
8838.8333722456263786
 20
2533.791088937980021
 30
0.0
 40
0.0088027075911182
 50
139.394854654447613
 51
212.3030210248080891
  0
ARC
  5
1797A
  8
0
 10
8838.8428160189778282
 20
2533.7997896681549719
 30
0.0
 40
0.021558385429943
 50
218.447244449418605
 51
270.7960884356671727
  0
ARC
  5
1797B
  8
0
 10
8838.8452486600181146
 20
2533.8027154758437973
 30
0.0
 40
0.0245748647672942
 50
265.0204311797460832
 51
312.5312036651586141
  0
ARC
  5
1797C
  8
0
 10
8838.8556022968605248
 20
2533.7909929798611302
 30
0.0
 40
0.0089423312418758
 50
314.4192372231547097
 51
29.8414658516879499
  0
ARC
  5
1797D
  8
0
 10
8838.8079782096519921
 20
2533.8141007006511245
 30
0.0
 40
0.0160110396745522
 50
32.5210109639566625
 51
69.4972864781038737
  0
ARC
  5
1797E
  8
0
 10
8838.8024091174956993
 20
2533.7992076373229793
 30
0.0
 40
0.0319112951044679
 50
69.4972864781038737
 51
98.2107627750949348
  0
ARC
  5
1797F
  8
0
 10
8838.8010675831665139
 20
2533.8085048691277734
 30
0.0
 40
0.022517774273113
 50
98.2107627750949348
 51
136.2232724136229933
  0
ARC
  5
17980
  8
0
 10
8838.791491948908515
 20
2533.8183546148470668
 30
0.0
 40
0.0088027075911182
 50
139.394854654447613
 51
212.3030210248080891
  0
ARC
  5
17981
  8
0
 10
8838.8009357222581457
 20
2533.8270553450211082
 30
0.0
 40
0.021558385429943
 50
218.447244449418605
 51
270.7960884356671727
  0
ARC
  5
17982
  8
0
 10
8838.8033683633020701
 20
2533.8299811527099337
 30
0.0
 40
0.0245748647672942
 50
265.0204311797460832
 51
312.5312036651586141
  0
ARC
  5
17983
  8
0
 10
8838.8137220001426613
 20
2533.818258656728176
 30
0.0
 40
0.0089423312418758
 50
314.4192372231547097
 51
29.8414658516879499
  0
ARC
  5
17984
  8
0
 10
8838.7512191916757729
 20
2533.7858782647749649
 30
0.0
 40
0.0160110396745522
 50
32.5210109639566625
 51
69.4972864781038737
  0
ARC
  5
17985
  8
0
 10
8838.7456500995212991
 20
2533.7709852014468197
 30
0.0
 40
0.0319112951044679
 50
69.4972864781038737
 51
98.2107627750949348
  0
ARC
  5
17986
  8
0
 10
8838.7443085651902948
 20
2533.7802824332529781
 30
0.0
 40
0.022517774273113
 50
98.2107627750949348
 51
136.2232724136229933
  0
ARC
  5
17987
  8
0
 10
8838.7347329309359338
 20
2533.7901321789709073
 30
0.0
 40
0.0088027075911182
 50
139.394854654447613
 51
212.3030210248080891
  0
ARC
  5
17988
  8
0
 10
8838.7441767042855645
 20
2533.7988329091458581
 30
0.0
 40
0.021558385429943
 50
218.447244449418605
 51
270.7960884356671727
  0
ARC
  5
17989
  8
0
 10
8838.7466093453276699
 20
2533.8017587168351383
 30
0.0
 40
0.0245748647672942
 50
265.0204311797460832
 51
312.5312036651586141
  0
ARC
  5
1798A
  8
0
 10
8838.7569629821682611
 20
2533.7900362208529259
 30
0.0
 40
0.0089423312418758
 50
314.4192372231547097
 51
29.8414658516879499
  0
ARC
  5
1798B
  8
0
 10
8838.7759877024691377
 20
2533.7473108924277767
 30
0.0
 40
0.0160110396745522
 50
32.5210109639566625
 51
69.4972864781038737
  0
ARC
  5
1798C
  8
0
 10
8838.770418610314664
 20
2533.7324178291000862
 30
0.0
 40
0.0319112951044679
 50
69.4972864781038737
 51
98.2107627750949348
  0
ARC
  5
1798D
  8
0
 10
8838.7690770759854786
 20
2533.7417150609057899
 30
0.0
 40
0.022517774273113
 50
98.2107627750949348
 51
136.2232724136229933
  0
ARC
  5
1798E
  8
0
 10
8838.7595014417256607
 20
2533.7515648066250833
 30
0.0
 40
0.0088027075911182
 50
139.394854654447613
 51
212.3030210248080891
  0
ARC
  5
1798F
  8
0
 10
8838.7689452150789293
 20
2533.7602655367991247
 30
0.0
 40
0.021558385429943
 50
218.447244449418605
 51
270.7960884356671727
  0
ARC
  5
17990
  8
0
 10
8838.7713778561192157
 20
2533.7631913444879501
 30
0.0
 40
0.0245748647672942
 50
265.0204311797460832
 51
312.5312036651586141
  0
ARC
  5
17991
  8
0
 10
8838.7817314929634449
 20
2533.7514688485048282
 30
0.0
 40
0.0089423312418758
 50
314.4192372231547097
 51
29.8414658516879499
  0
ARC
  5
17992
  8
0
 10
8838.7359164333574881
 20
2533.7790578072022072
 30
0.0
 40
0.266262716729369
 50
48.1435967813105634
 51
66.3915889065763878
  0
LINE
  5
17993
  8
0
 10
8838.8425502717764175
 20
2534.0230353857300543
 30
0.0
 11
8838.8425502717764175
 21
2534.0427253112097787
 31
0.0
  0
LINE
  5
17994
  8
0
 10
8838.8425502717764175
 20
2534.0230353857300543
 30
0.0
 11
8838.856099331373116
 21
2534.0354733662297804
 31
0.0
  0
LINE
  5
17995
  8
0
 10
8838.856099331373116
 20
2534.0354733662297804
 30
0.0
 11
8838.856099331373116
 21
2534.0375205381001251
 31
0.0
  0
LINE
  5
17996
  8
0
 10
8838.93293455647472
 20
2533.9951401052258007
 30
0.0
 11
8838.93293455647472
 21
2533.9860846355300055
 31
0.0
  0
LINE
  5
17997
  8
0
 10
8838.93293455647472
 20
2533.9860846355300055
 30
0.0
 11
8838.9135844939737581
 21
2533.97737546792996
 31
0.0
  0
ARC
  5
17998
  8
0
 10
8838.7391108520623675
 20
2533.7690100410200102
 30
0.0
 40
0.2910137590802226
 50
48.2386572517580632
 51
66.2965283097469467
  0
LINE
  5
17999
  8
0
 10
8838.9827905898473546
 20
2533.943596349325162
 30
0.0
 11
8838.9853839071747643
 21
2533.9348515699580275
 31
0.0
  0
LINE
  5
1799A
  8
0
 10
8838.9853839071747643
 20
2533.9348515699580275
 30
0.0
 11
8838.962120714773846
 21
2533.9322149010299654
 31
0.0
  0
LINE
  5
1799B
  8
0
 10
8838.962120714773846
 20
2533.9322149010299654
 30
0.0
 11
8838.962120714773846
 21
2533.9020556710302117
 31
0.0
  0
LINE
  5
1799C
  8
0
 10
8838.962120714773846
 20
2533.9020556710302117
 30
0.0
 11
8838.9853839071747643
 21
2533.9046923396540478
 31
0.0
  0
LINE
  5
1799D
  8
0
 10
8838.9853839071747643
 20
2533.9046923396540478
 30
0.0
 11
8838.9853839072111441
 21
2533.9348515698338815
 31
0.0
  0
LINE
  5
1799E
  8
0
 10
8838.9656727834535559
 20
2533.8837906058902263
 30
0.0
 11
8838.962120714773846
 21
2533.8676420259671431
 31
0.0
  0
LINE
  5
1799F
  8
0
 10
8838.962120714773846
 20
2533.8676420259671431
 30
0.0
 11
8838.962120714773846
 21
2533.8374827959301001
 31
0.0
  0
LINE
  5
179A0
  8
0
 10
8838.962120714773846
 20
2533.8374827959301001
 30
0.0
 11
8838.9853839071747643
 21
2533.834846127129822
 31
0.0
  0
ARC
  5
179A1
  8
0
 10
8838.85858585387723
 20
2533.8697692333921623
 30
0.0
 40
0.1315194649891431
 50
344.6012165338599971
 51
15.3987834661400402
  0
ARC
  5
179A2
  8
0
 10
8838.8448372317197936
 20
2533.8697692334799285
 30
0.0
 40
0.1216463293616492
 50
344.6085441556836031
 51
15.3914558443163294
  0
LINE
  5
179A3
  8
0
 10
8838.9901053188677906
 20
2533.8697692333921623
 30
0.0
 11
8838.9901053188677906
 21
2533.9300539496271085
 31
0.0
  0
LINE
  5
179A4
  8
0
 10
8838.93293455647472
 20
2533.7534538314298516
 30
0.0
 11
8838.93293455647472
 21
2533.78361306143006
 31
0.0
  0
LINE
  5
179A5
  8
0
 10
8838.93293455647472
 20
2533.78361306143006
 30
0.0
 11
8838.9135844939737581
 21
2533.7923222291301499
 31
0.0
  0
LINE
  5
179A6
  8
0
 10
8838.9135844939737581
 20
2533.7923222291301499
 30
0.0
 11
8838.9135844939737581
 21
2533.762162999029897
 31
0.0
  0
LINE
  5
179A7
  8
0
 10
8838.9135844939737581
 20
2533.762162999029897
 30
0.0
 11
8838.93293455647472
 21
2533.7534538314298516
 31
0.0
  0
LINE
  5
179A8
  8
0
 10
8838.8425502717764175
 20
2533.7466623112300113
 30
0.0
 11
8838.8425502717764175
 21
2533.7165030811302131
 31
0.0
  0
LINE
  5
179A9
  8
0
 10
8838.8425502717764175
 20
2533.7165030811302131
 30
0.0
 11
8838.856099331373116
 21
2533.7040651007300767
 31
0.0
  0
ARC
  5
179AA
  8
0
 10
8838.7343147743195004
 20
2533.9931316284528293
 30
0.0
 40
0.2691877546275869
 50
293.7083866403813772
 51
311.7564277858426749
  0
ARC
  5
179AB
  8
0
 10
8838.7343147729698103
 20
2533.9629724004507807
 30
0.0
 40
0.2691877570919918
 50
293.7083867236942183
 51
311.7564277024860075
  0
ARC
  5
179AC
  8
0
 10
8838.7391108521806018
 20
2533.9705284257561289
 30
0.0
 40
0.291013758864638
 50
293.7034716835333938
 51
311.7613427549583207
  0
ARC
  5
179AD
  8
0
 10
8838.6673738407553174
 20
2534.3030884665340636
 30
0.0
 40
0.5904808718889242
 50
270.7540458635355094
 51
275.6369416886979025
  0
LINE
  5
179AE
  8
0
 10
8838.7253735624453839
 20
2533.7154629970809765
 30
0.0
 11
8838.7253734691748832
 21
2533.6853045998300331
 31
0.0
  0
LINE
  5
179AF
  8
0
 10
8838.7253734691748832
 20
2533.6853045998300331
 30
0.0
 11
8838.7294753975766071
 21
2533.6703513080301491
 31
0.0
  0
LINE
  5
179B0
  8
0
 10
8838.7294753975766071
 20
2533.6703513080301491
 30
0.0
 11
8838.7294753975766071
 21
2533.7005105380299028
 31
0.0
  0
LINE
  5
179B1
  8
0
 10
8838.7294753975766071
 20
2533.7005105380299028
 30
0.0
 11
8838.7253735624453839
 21
2533.7154629970809765
 31
0.0
  0
ARC
  5
179B2
  8
0
 10
8838.6533979478517722
 20
2534.5230084546119542
 30
0.0
 40
0.8407902378042367
 50
271.4821002846387046
 51
274.9107932611071874
  0
ARC
  5
179B3
  8
0
 10
8838.6735912312287837
 20
2534.1827972048649826
 30
0.0
 40
0.5154840804823607
 50
270.1726662579583831
 51
276.2237272047627243
  0
ARC
  5
179B4
  8
0
 10
8838.803226724934575
 20
2533.9279045624421087
 30
0.0
 40
0.1940210267653384
 50
311.9532954900993786
 51
331.7658451818111871
  0
ARC
  5
179B5
  8
0
 10
8838.6822022836586257
 20
2534.1359856716348986
 30
0.0
 40
0.4380334910565335
 50
276.1954975127550824
 51
291.4730350608166987
  0
ARC
  5
179B6
  8
0
 10
8838.6695755968194135
 20
2534.0111691358529242
 30
0.0
 40
0.0160110396745522
 50
110.5027135218960979
 51
147.4789890360432878
  0
ARC
  5
179B7
  8
0
 10
8838.6751446889757062
 20
2533.996276072524779
 30
0.0
 40
0.0319112951044679
 50
81.7892372249050652
 51
110.5027135218960979
  0
ARC
  5
179B8
  8
0
 10
8838.6764862233048916
 20
2534.0055733043309374
 30
0.0
 40
0.022517774273113
 50
43.7767275863769783
 51
81.7892372249050652
  0
ARC
  5
179B9
  8
0
 10
8838.6860618575610715
 20
2534.0154230500497761
 30
0.0
 40
0.0088027075911182
 50
327.6969789751918825
 51
40.6051453455524296
  0
ARC
  5
179BA
  8
0
 10
8838.6766180842096219
 20
2534.0241237802238174
 30
0.0
 40
0.021558385429943
 50
269.2039115643327136
 51
321.5527555505814234
  0
ARC
  5
179BB
  8
0
 10
8838.6741854431675165
 20
2534.0270495879130976
 30
0.0
 40
0.0245748647672942
 50
227.4687963348414996
 51
274.9795688202539736
  0
ARC
  5
179BC
  8
0
 10
8838.6638318063269253
 20
2534.0153270919308852
 30
0.0
 40
0.0089423312418758
 50
150.1585341483120999
 51
225.5807627768452903
  0
ARC
  5
179BD
  8
0
 10
8838.6695755968194135
 20
2533.9726018792539435
 30
0.0
 40
0.0160110396745522
 50
110.5027135218960979
 51
147.4789890360432878
  0
ARC
  5
179BE
  8
0
 10
8838.6751446889757062
 20
2533.9577088159248888
 30
0.0
 40
0.0319112951044679
 50
81.7892372249050652
 51
110.5027135218960979
  0
ARC
  5
179BF
  8
0
 10
8838.6764862233048916
 20
2533.9670060477310471
 30
0.0
 40
0.022517774273113
 50
43.7767275863769783
 51
81.7892372249050652
  0
ARC
  5
179C0
  8
0
 10
8838.6860618575610715
 20
2533.9768557934498858
 30
0.0
 40
0.0088027075911182
 50
327.6969789751918825
 51
40.6051453455524296
  0
ARC
  5
179C1
  8
0
 10
8838.6766180842096219
 20
2533.9855565236248367
 30
0.0
 40
0.021558385429943
 50
269.2039115643327136
 51
321.5527555505814234
  0
ARC
  5
179C2
  8
0
 10
8838.6741854431675165
 20
2533.9884823313132074
 30
0.0
 40
0.0245748647672942
 50
227.4687963348414996
 51
274.9795688202539736
  0
ARC
  5
179C3
  8
0
 10
8838.6638318063269253
 20
2533.976759835330995
 30
0.0
 40
0.0089423312418758
 50
150.1585341483120999
 51
225.5807627768452903
  0
ARC
  5
179C4
  8
0
 10
8838.6695755968194135
 20
2533.9340346226531437
 30
0.0
 40
0.0160110396745522
 50
110.5027135218960979
 51
147.4789890360432878
  0
ARC
  5
179C5
  8
0
 10
8838.6751446889757062
 20
2533.919141559325908
 30
0.0
 40
0.0319112951044679
 50
81.7892372249050652
 51
110.5027135218960979
  0
ARC
  5
179C6
  8
0
 10
8838.6764862233048916
 20
2533.9284387911311569
 30
0.0
 40
0.022517774273113
 50
43.7767275863769783
 51
81.7892372249050652
  0
ARC
  5
179C7
  8
0
 10
8838.6860618575610715
 20
2533.9382885368499956
 30
0.0
 40
0.0088027075911182
 50
327.6969789751918825
 51
40.6051453455524296
  0
ARC
  5
179C8
  8
0
 10
8838.6766180842096219
 20
2533.946989267024037
 30
0.0
 40
0.021558385429943
 50
269.2039115643327136
 51
321.5527555505814234
  0
ARC
  5
179C9
  8
0
 10
8838.6741854431675165
 20
2533.9499150747142266
 30
0.0
 40
0.0245748647672942
 50
227.4687963348414996
 51
274.9795688202539736
  0
ARC
  5
179CA
  8
0
 10
8838.6638318063269253
 20
2533.9381925787311047
 30
0.0
 40
0.0089423312418758
 50
150.1585341483120999
 51
225.5807627768452903
  0
ARC
  5
179CB
  8
0
 10
8838.6695755968194135
 20
2533.8957659839538792
 30
0.0
 40
0.0160110396745522
 50
110.5027135218960979
 51
147.4789890360432878
  0
ARC
  5
179CC
  8
0
 10
8838.6751446889757062
 20
2533.8808729206248245
 30
0.0
 40
0.0319112951044679
 50
81.7892372249050652
 51
110.5027135218960979
  0
ARC
  5
179CD
  8
0
 10
8838.6764862233048916
 20
2533.8901701524309829
 30
0.0
 40
0.022517774273113
 50
43.7767275863769783
 51
81.7892372249050652
  0
ARC
  5
179CE
  8
0
 10
8838.6860618575610715
 20
2533.9000198981498215
 30
0.0
 40
0.0088027075911182
 50
327.6969789751918825
 51
40.6051453455524296
  0
ARC
  5
179CF
  8
0
 10
8838.6766180842096219
 20
2533.9087206283238629
 30
0.0
 40
0.021558385429943
 50
269.2039115643327136
 51
321.5527555505814234
  0
ARC
  5
179D0
  8
0
 10
8838.6741854431675165
 20
2533.9116464360131431
 30
0.0
 40
0.0245748647672942
 50
227.4687963348414996
 51
274.9795688202539736
  0
ARC
  5
179D1
  8
0
 10
8838.6638318063269253
 20
2533.8999239400309307
 30
0.0
 40
0.0089423312418758
 50
150.1585341483120999
 51
225.5807627768452903
  0
ARC
  5
179D2
  8
0
 10
8838.6695755968194135
 20
2533.8574973452541599
 30
0.0
 40
0.0160110396745522
 50
110.5027135218960979
 51
147.4789890360432878
  0
ARC
  5
179D3
  8
0
 10
8838.6751446889757062
 20
2533.8426042819251052
 30
0.0
 40
0.0319112951044679
 50
81.7892372249050652
 51
110.5027135218960979
  0
ARC
  5
179D4
  8
0
 10
8838.6764862233048916
 20
2533.8519015137308088
 30
0.0
 40
0.022517774273113
 50
43.7767275863769783
 51
81.7892372249050652
  0
ARC
  5
179D5
  8
0
 10
8838.6860618575610715
 20
2533.8617512594510117
 30
0.0
 40
0.0088027075911182
 50
327.6969789751918825
 51
40.6051453455524296
  0
ARC
  5
179D6
  8
0
 10
8838.6766180842096219
 20
2533.8704519896250531
 30
0.0
 40
0.021558385429943
 50
269.2039115643327136
 51
321.5527555505814234
  0
ARC
  5
179D7
  8
0
 10
8838.6741854431675165
 20
2533.8733777973138785
 30
0.0
 40
0.0245748647672942
 50
227.4687963348414996
 51
274.9795688202539736
  0
ARC
  5
179D8
  8
0
 10
8838.6638318063269253
 20
2533.8616553013312114
 30
0.0
 40
0.0089423312418758
 50
150.1585341483120999
 51
225.5807627768452903
  0
ARC
  5
179D9
  8
0
 10
8838.6695755968194135
 20
2533.8189300886529054
 30
0.0
 40
0.0160110396745522
 50
110.5027135218960979
 51
147.4789890360432878
  0
ARC
  5
179DA
  8
0
 10
8838.6751446889757062
 20
2533.8040370253252149
 30
0.0
 40
0.0319112951044679
 50
81.7892372249050652
 51
110.5027135218960979
  0
ARC
  5
179DB
  8
0
 10
8838.6764862233048916
 20
2533.8133342571309186
 30
0.0
 40
0.022517774273113
 50
43.7767275863769783
 51
81.7892372249050652
  0
ARC
  5
179DC
  8
0
 10
8838.6860618575610715
 20
2533.823184002850212
 30
0.0
 40
0.0088027075911182
 50
327.6969789751918825
 51
40.6051453455524296
  0
ARC
  5
179DD
  8
0
 10
8838.6766180842096219
 20
2533.8318847330237986
 30
0.0
 40
0.021558385429943
 50
269.2039115643327136
 51
321.5527555505814234
  0
ARC
  5
179DE
  8
0
 10
8838.6741854431675165
 20
2533.8348105407130788
 30
0.0
 40
0.0245748647672942
 50
227.4687963348414996
 51
274.9795688202539736
  0
ARC
  5
179DF
  8
0
 10
8838.6638318063269253
 20
2533.8230880447308664
 30
0.0
 40
0.0089423312418758
 50
150.1585341483120999
 51
225.5807627768452903
  0
ARC
  5
179E0
  8
0
 10
8838.6695755968194135
 20
2533.7803628320539246
 30
0.0
 40
0.0160110396745522
 50
110.5027135218960979
 51
147.4789890360432878
  0
ARC
  5
179E1
  8
0
 10
8838.6751446889757062
 20
2533.7654697687248699
 30
0.0
 40
0.0319112951044679
 50
81.7892372249050652
 51
110.5027135218960979
  0
ARC
  5
179E2
  8
0
 10
8838.6764862233048916
 20
2533.7747670005310283
 30
0.0
 40
0.022517774273113
 50
43.7767275863769783
 51
81.7892372249050652
  0
ARC
  5
179E3
  8
0
 10
8838.6860618575610715
 20
2533.784616746249867
 30
0.0
 40
0.0088027075911182
 50
327.6969789751918825
 51
40.6051453455524296
  0
ARC
  5
179E4
  8
0
 10
8838.6766180842096219
 20
2533.7933174764248179
 30
0.0
 40
0.021558385429943
 50
269.2039115643327136
 51
321.5527555505814234
  0
ARC
  5
179E5
  8
0
 10
8838.6741854431675165
 20
2533.7962432841131886
 30
0.0
 40
0.0245748647672942
 50
227.4687963348414996
 51
274.9795688202539736
  0
ARC
  5
179E6
  8
0
 10
8838.6638318063269253
 20
2533.7845207881309761
 30
0.0
 40
0.0089423312418758
 50
150.1585341483120999
 51
225.5807627768452903
  0
ARC
  5
179E7
  8
0
 10
8838.6695755968194135
 20
2533.7417955754531249
 30
0.0
 40
0.0160110396745522
 50
110.5027135218960979
 51
147.4789890360432878
  0
ARC
  5
179E8
  8
0
 10
8838.6751446889757062
 20
2533.7269025121258892
 30
0.0
 40
0.0319112951044679
 50
81.7892372249050652
 51
110.5027135218960979
  0
ARC
  5
179E9
  8
0
 10
8838.6764862233048916
 20
2533.7361997439311381
 30
0.0
 40
0.022517774273113
 50
43.7767275863769783
 51
81.7892372249050652
  0
ARC
  5
179EA
  8
0
 10
8838.6860618575610715
 20
2533.7460494896499767
 30
0.0
 40
0.0088027075911182
 50
327.6969789751918825
 51
40.6051453455524296
  0
ARC
  5
179EB
  8
0
 10
8838.6766180842096219
 20
2533.7547502198240181
 30
0.0
 40
0.021558385429943
 50
269.2039115643327136
 51
321.5527555505814234
  0
ARC
  5
179EC
  8
0
 10
8838.6741854431675165
 20
2533.7576760275142078
 30
0.0
 40
0.0245748647672942
 50
227.4687963348414996
 51
274.9795688202539736
  0
ARC
  5
179ED
  8
0
 10
8838.6638318063269253
 20
2533.7459535315310859
 30
0.0
 40
0.0089423312418758
 50
150.1585341483120999
 51
225.5807627768452903
  0
ARC
  5
179EE
  8
0
 10
8838.6863374527347332
 20
2534.0540645400969879
 30
0.0
 40
0.0088027075911182
 50
327.6969789751918825
 51
16.8243487946226189
  0
ARC
  5
179EF
  8
0
 10
8838.6768936793814646
 20
2534.0627652702710293
 30
0.0
 40
0.021558385429943
 50
269.2039115643327136
 51
321.5527555505814234
  0
ARC
  5
179F0
  8
0
 10
8838.6744610383411782
 20
2534.0656910779598547
 30
0.0
 40
0.0245748647672942
 50
227.4687963348414996
 51
274.9795688202539736
  0
ARC
  5
179F1
  8
0
 10
8838.664107401500587
 20
2534.0539685819780971
 30
0.0
 40
0.0089423312418758
 50
162.7942221560676046
 51
225.5807627768452903
  0
ARC
  5
179F2
  8
0
 10
8838.675148452841313
 20
2533.6058648619377891
 30
0.0
 40
0.4511741053075575
 50
83.6085344645868958
 51
96.3924155625571757
  0
LINE
  5
179F3
  8
0
 10
8838.7253735624453839
 20
2534.0542346999800429
 30
0.0
 11
8838.7291962832205172
 21
2534.0681695676771596
 31
0.0
  0
LINE
  5
179F4
  8
0
 10
8838.6249159087747103
 20
2534.0542338671298239
 30
0.0
 11
8838.6210931211826392
 21
2534.0681695704388403
 31
0.0
  0
ARC
  5
179F5
  8
0
 10
8838.7123629077632359
 20
2534.7547828838419264
 30
0.0
 40
2.6368578208303788
 50
90.7771381204611743
 51
95.5552069940967215
  0
ARC
  5
179F6
  8
0
 10
8838.5996414146193274
 20
2536.1210395358789356
 30
0.0
 40
1.2662650001517131
 50
96.4632853590261163
 51
104.3990538696963029
  0
ARC
  5
179F7
  8
0
 10
8838.400950275350624
 20
2536.8949434849268982
 30
0.0
 40
0.4672621896587206
 50
104.3990538696963029
 51
117.5102652064108071
  0
ARC
  5
179F8
  8
0
 10
8838.2527200629137951
 20
2537.1795665588510929
 30
0.0
 40
0.1463533395329677
 50
117.5102652064108071
 51
142.5232941957335129
  0
ARC
  5
179F9
  8
0
 10
8838.1906895148858894
 20
2537.2315452663501674
 30
0.0
 40
0.0655938860531167
 50
145.5894486628544087
 51
174.321022230307193
  0
ARC
  5
179FA
  8
0
 10
8838.7467241968861345
 20
2534.1365619769671866
 30
0.0
 40
3.0889456119609351
 50
91.3008458083906334
 51
96.1422155135992256
  0
ARC
  5
179FB
  8
0
 10
8838.5680078183359001
 20
2536.0830956438439898
 30
0.0
 40
1.1348763328550471
 50
97.686385787329769
 51
105.9559041869909066
  0
ARC
  5
179FC
  8
0
 10
8838.362487651698757
 20
2536.8019171117721271
 30
0.0
 40
0.3872515328060411
 50
105.9559041869909066
 51
120.9569213159602015
  0
ARC
  5
179FD
  8
0
 10
8838.2142152707037894
 20
2537.04910458310178
 30
0.0
 40
0.0990045120953793
 50
120.9569213159602015
 51
143.8663035823799987
  0
ARC
  5
179FE
  8
0
 10
8838.1725795788752293
 20
2537.0795033751201117
 30
0.0
 40
0.047452427849104
 50
143.8663035823799987
 51
173.6577898858828064
  0
ARC
  5
179FF
  8
0
 10
8838.640834431622352
 20
2534.7547828838419264
 30
0.0
 40
2.6368578208303788
 50
84.4447930059032785
 51
89.2228618795388115
  0
ARC
  5
17A00
  8
0
 10
8838.7535559247662604
 20
2536.1210395358789356
 30
0.0
 40
1.2662650001517131
 50
75.6009461303036829
 51
83.5367146409739121
  0
ARC
  5
17A01
  8
0
 10
8838.9522470640349638
 20
2536.8949434849268982
 30
0.0
 40
0.4672621896587206
 50
62.4897347935891787
 51
75.6009461303036829
  0
ARC
  5
17A02
  8
0
 10
8839.1004772764717927
 20
2537.1795665588510929
 30
0.0
 40
0.1463533395329677
 50
37.4767058042665084
 51
62.4897347935891787
  0
ARC
  5
17A03
  8
0
 10
8839.1625078244978795
 20
2537.2315452663501674
 30
0.0
 40
0.0655938860531167
 50
5.6789777696928141
 51
34.4105513371455416
  0
ARC
  5
17A04
  8
0
 10
8838.6064731425012724
 20
2534.1365619769671866
 30
0.0
 40
3.0889456119609351
 50
83.8577844864007744
 51
88.6991541916093666
  0
ARC
  5
17A05
  8
0
 10
8838.7851895210496878
 20
2536.0830956438439898
 30
0.0
 40
1.1348763328550471
 50
74.0440958130091218
 51
82.3136142126702168
  0
ARC
  5
17A06
  8
0
 10
8838.9907096876868309
 20
2536.8019171117721271
 30
0.0
 40
0.3872515328060411
 50
59.0430786840397701
 51
74.0440958130091218
  0
ARC
  5
17A07
  8
0
 10
8839.1389820686836174
 20
2537.04910458310178
 30
0.0
 40
0.0990045120953793
 50
36.1336964176200013
 51
59.0430786840397701
  0
ARC
  5
17A08
  8
0
 10
8839.1806177605103585
 20
2537.0795033751201117
 30
0.0
 40
0.047452427849104
 50
6.3422101141171918
 51
36.1336964176200013
  0
ENDSEC
  0
EOF
