  0
SECTION
  2
HEADER
  9
$ACADVER
  1
AC1009
  9
$INSBASE
 10
8668.8971770879543328
 20
2155.8975024127771576
 30
0.0
  9
$EXTMIN
 10
8661.8362063567183213
 20
2153.6940494466880409
 30
-0.0015258207003583
  9
$EXTMAX
 10
8675.7358004254765547
 20
2157.1500687389529958
 30
0.0000000349246037
  9
$LIMMIN
 10
0.0
 20
0.0
  9
$LIMMAX
 10
11.6929133858000007
 20
8.2677165353999982
  9
$ORTHOMODE
 70
     0
  9
$REGENMODE
 70
     1
  9
$FILLMODE
 70
     1
  9
$QTEXTMODE
 70
     0
  9
$MIRRTEXT
 70
     0
  9
$DRAGMODE
 70
     2
  9
$LTSCALE
 40
0.6431102362
  9
$OSMODE
 70
  3839
  9
$ATTMODE
 70
     1
  9
$TEXTSIZE
 40
0.2
  9
$TRACEWID
 40
0.05
  9
$TEXTSTYLE
  7
STANDARD
  9
$CLAYER
  8
0
  9
$CELTYPE
  6
BYLAYER
  9
$CECOLOR
 62
   256
  9
$DIMSCALE
 40
1.0
  9
$DIMASZ
 40
0.1875
  9
$DIMEXO
 40
0.0625
  9
$DIMDLI
 40
0.4443307087
  9
$DIMRND
 40
0.0
  9
$DIMDLE
 40
0.0
  9
$DIMEXE
 40
0.125
  9
$DIMTP
 40
0.01
  9
$DIMTM
 40
0.01
  9
$DIMTXT
 40
2.0
  9
$DIMCEN
 40
0.1052362205
  9
$DIMTSZ
 40
0.0
  9
$DIMTOL
 70
     1
  9
$DIMLIM
 70
     0
  9
$DIMTIH
 70
     1
  9
$DIMTOH
 70
     1
  9
$DIMSE1
 70
     0
  9
$DIMSE2
 70
     0
  9
$DIMTAD
 70
     0
  9
$DIMZIN
 70
     0
  9
$DIMBLK
  1

  9
$DIMASO
 70
     1
  9
$DIMSHO
 70
     1
  9
$DIMPOST
  1
\X
  9
$DIMAPOST
  1

  9
$DIMALT
 70
     1
  9
$DIMALTD
 70
     2
  9
$DIMALTF
 40
25.3999999999999986
  9
$DIMLFAC
 40
1.0
  9
$DIMTOFL
 70
     0
  9
$DIMTVP
 40
0.0
  9
$DIMTIX
 70
     0
  9
$DIMSOXD
 70
     0
  9
$DIMSAH
 70
     0
  9
$DIMBLK1
  1

  9
$DIMBLK2
  1

  9
$DIMSTYLE
  2
STANDARD
  9
$DIMCLRD
 70
     0
  9
$DIMCLRE
 70
     0
  9
$DIMCLRT
 70
     0
  9
$DIMTFAC
 40
1.0
  9
$DIMGAP
 40
0.09
  9
$LUNITS
 70
     2
  9
$LUPREC
 70
     4
  9
$SKETCHINC
 40
0.1
  9
$FILLETRAD
 40
0.0
  9
$AUNITS
 70
     0
  9
$AUPREC
 70
     0
  9
$MENU
  1
.
  9
$ELEVATION
 40
0.0
  9
$PELEVATION
 40
0.0
  9
$THICKNESS
 40
0.0
  9
$LIMCHECK
 70
     0
  9
$BLIPMODE
 70
     0
  9
$CHAMFERA
 40
0.0
  9
$CHAMFERB
 40
0.0
  9
$SKPOLY
 70
     0
  9
$TDCREATE
 40
2458060.468368056230247
  9
$TDUPDATE
 40
2460585.6668518520891666
  9
$TDINDWG
 40
0.4935024306
  9
$TDUSRTIMER
 40
0.4935024306
  9
$USRTIMER
 70
     1
  9
$ANGBASE
 50
0.0
  9
$ANGDIR
 70
     0
  9
$PDMODE
 70
     0
  9
$PDSIZE
 40
0.3125
  9
$PLINEWID
 40
0.0
  9
$COORDS
 70
     1
  9
$SPLFRAME
 70
     0
  9
$SPLINETYPE
 70
     6
  9
$SPLINESEGS
 70
     8
  9
$ATTDIA
 70
     1
  9
$ATTREQ
 70
     1
  9
$HANDLING
 70
     1
  9
$HANDSEED
  5
14178
  9
$SURFTAB1
 70
     6
  9
$SURFTAB2
 70
     6
  9
$SURFTYPE
 70
     6
  9
$SURFU
 70
     6
  9
$SURFV
 70
     6
  9
$UCSNAME
  2

  9
$UCSORG
 10
0.0
 20
0.0
 30
0.0
  9
$UCSXDIR
 10
1.0
 20
0.0
 30
0.0
  9
$UCSYDIR
 10
0.0
 20
1.0
 30
0.0
  9
$PUCSNAME
  2

  9
$PUCSORG
 10
0.0
 20
0.0
 30
0.0
  9
$PUCSXDIR
 10
1.0
 20
0.0
 30
0.0
  9
$PUCSYDIR
 10
0.0
 20
1.0
 30
0.0
  9
$USERI1
 70
     0
  9
$USERI2
 70
     0
  9
$USERI3
 70
     0
  9
$USERI4
 70
     0
  9
$USERI5
 70
     0
  9
$USERR1
 40
0.0
  9
$USERR2
 40
0.0
  9
$USERR3
 40
0.0
  9
$USERR4
 40
0.0
  9
$USERR5
 40
0.0
  9
$WORLDVIEW
 70
     1
  9
$SHADEDGE
 70
     3
  9
$SHADEDIF
 70
    70
  9
$TILEMODE
 70
     1
  9
$MAXACTVP
 70
    64
  9
$PLIMCHECK
 70
     0
  9
$PEXTMIN
 10
1.0000000000000000E+20
 20
1.0000000000000000E+20
 30
1.0000000000000000E+20
  9
$PEXTMAX
 10
-1.0000000000000000E+20
 20
-1.0000000000000000E+20
 30
-1.0000000000000000E+20
  9
$PLIMMIN
 10
0.0
 20
0.0
  9
$PLIMMAX
 10
12.0
 20
9.0
  9
$UNITMODE
 70
     0
  9
$VISRETAIN
 70
     1
  9
$PLINEGEN
 70
     0
  9
$PSLTSCALE
 70
     1
  0
ENDSEC
  0
SECTION
  2
TABLES
  0
TABLE
  2
VPORT
 70
     1
  0
VPORT
  2
*ACTIVE
 70
     0
 10
0.0
 20
0.0
 11
1.0
 21
1.0
 12
3853.4876635473469833
 22
1907.6134348252419386
 13
0.0
 23
0.0
 14
1.0
 24
1.0
 15
0.0
 25
0.0
 16
0.0
 26
0.0
 36
9.5192988075487186
 17
4815.2983398437490905
 27
247.8086242675780966
 37
0.0
 40
6.0486123056398062
 41
2.3051869722557292
 42
50.0
 43
0.0
 44
0.0
 50
0.0
 51
0.0
 71
     0
 72
   100
 73
     1
 74
     1
 75
     0
 76
     0
 77
     0
 78
     0
  0
ENDTAB
  0
TABLE
  2
LTYPE
 70
     2
  0
LTYPE
  2
CONTINUOUS
 70
     0
  3
Solid line
 72
    65
 73
     0
 40
0.0
  0
LTYPE
  2
PHANTOM2
 70
     0
  3
___ _ _ ___ _ _ ___ _ _ ___ _ _
 72
    65
 73
     6
 40
1.25
 49
0.625
 49
-0.125
 49
0.125
 49
-0.125
 49
0.125
 49
-0.125
  0
ENDTAB
  0
TABLE
  2
LAYER
 70
     2
  0
LAYER
  2
0
 70
     0
 62
   255
  6
CONTINUOUS
  0
LAYER
  2
DEFPOINTS
 70
     0
 62
     7
  6
CONTINUOUS
  0
ENDTAB
  0
TABLE
  2
STYLE
 70
     1
  0
STYLE
  2
STANDARD
 70
     0
 40
0.0
 41
0.8
 50
0.0
 71
     0
 42
0.2
  3
txt
  4

  0
ENDTAB
  0
TABLE
  2
VIEW
 70
     0
  0
ENDTAB
  0
TABLE
  2
UCS
 70
     0
  0
ENDTAB
  0
TABLE
  2
APPID
 70
    12
  0
APPID
  2
ACAD
 70
     0
  0
APPID
  2
ACAD_MLEADERVER
 70
     0
  0
APPID
  2
ACAD_EXEMPT_FROM_CAD_STANDARDS
 70
     0
  0
APPID
  2
ACAD_NAV_VCDISPLAY
 70
     0
  0
APPID
  2
ACAECLAYERSTANDARD
 70
     0
  0
APPID
  2
ACCMTRANSPARENCY
 70
     0
  0
APPID
  2
ACAD_DSTYLE_DIMJAG
 70
     0
  0
APPID
  2
ACAD_DSTYLE_DIMTALN
 70
     0
  0
APPID
  2
ACDBATTR
 70
     0
  0
APPID
  2
ACADANNOTATIVE
 70
     0
  0
APPID
  2
GRADIENTCOLOR1ACI
 70
     0
  0
APPID
  2
GRADIENTCOLOR2ACI
 70
     0
  0
ENDTAB
  0
TABLE
  2
DIMSTYLE
 70
     1
  0
DIMSTYLE
  2
STANDARD
 70
     0
  3

  4

  5

  6

  7

 40
1.0
 41
0.1875
 42
0.0625
 43
0.38
 44
0.125
 45
0.0
 46
0.0
 47
0.01
 48
0.01
140
0.15625
141
0.09
142
0.0
143
25.3999999999999986
144
1.0
145
0.0
146
1.0
147
0.09
 71
     1
 72
     0
 73
     1
 74
     1
 75
     0
 76
     0
 77
     0
 78
     4
170
     0
171
     2
172
     0
173
     0
174
     0
175
     0
176
     0
177
     0
178
     0
  0
ENDTAB
  0
ENDSEC
  0
SECTION
  2
BLOCKS
  0
BLOCK
  8
0
  2
$MODEL_SPACE
 70
     0
 10
0.0
 20
0.0
 30
0.0
  3
$MODEL_SPACE
  1

  0
ENDBLK
  5
21
  8
0
  0
BLOCK
 67
     1
  8
0
  2
$PAPER_SPACE
 70
     0
 10
0.0
 20
0.0
 30
0.0
  3
$PAPER_SPACE
  1

  0
ENDBLK
  5
1D
 67
     1
  8
0
  0
BLOCK
  8
0
  2
_FILLED
 70
     0
 10
0.0
 20
0.0
 30
0.0
  3
_FILLED
  1

  0
SOLID
  5
13BBF
  8
0
  6
BYBLOCK
 62
     0
 10
0.0
 20
0.0
 30
0.0
 11
-1.0
 21
0.1666666667
 31
0.0
 12
-1.0
 22
-0.1666666667
 32
0.0
 13
-1.0
 23
-0.1666666667
 33
0.0
  0
ENDBLK
  5
13BC0
  8
0
  6
BYBLOCK
 62
     0
  0
ENDSEC
  0
SECTION
  2
ENTITIES
  0
ATTDEF
  5
3930
  8
DEFPOINTS
 10
8668.8980174826519942
 20
2155.9014334899147798
 30
0.0
 40
0.001
  1
P33353-LV
  3

  2
MODELNUMBER
 70
     0
1001
ACDBATTR
1070
     0
1070
     1
  0
ATTDEF
  5
3931
  8
DEFPOINTS
 10
8668.8980174826519942
 20
2155.8997668232477736
 30
0.0
 40
0.001
  1
AILERON
  3

  2
TRADENAME
 70
     0
1001
ACDBATTR
1070
     0
1070
     1
  0
ATTDEF
  5
3932
  8
DEFPOINTS
 10
8668.8980174826519942
 20
2155.8981001565812221
 30
0.0
 40
0.001
  1
BATHROOM SINK FAUCET
  3

  2
PRODUCT
 70
     0
1001
ACDBATTR
1070
     0
1070
     1
  0
LINE
  5
13E5A
  8
0
 10
8668.5034763005915011
 20
2153.8553196285579361
 30
0.0
 11
8668.5034763005533023
 21
2155.8975024127771576
 31
0.0
  0
LINE
  5
13E5B
  8
0
 10
8669.2908778753899242
 20
2153.8553220125400003
 30
0.0
 11
8669.2908778753535444
 21
2155.8975024127771576
 31
0.0
  0
ARC
  5
13E5C
  8
0
 10
8668.8971770879543328
 20
2155.8975024127771576
 30
0.0
 40
1.1811023622000001
 50
289.4712206345291179
 51
250.5287793654709105
  0
ARC
  5
13E5D
  8
0
 10
8668.8971770879543328
 20
2155.8975024127771576
 30
0.0
 40
0.3937007874000002
 50
0.0
 51
180.0
  0
ARC
  5
13E5E
  8
0
 10
8668.8971770879543328
 20
2155.8975024127771576
 30
0.0
 40
0.4232283465000011
 50
338.4710955790055777
 51
201.5289044209943938
  0
ARC
  5
13E5F
  8
0
 10
8672.8341849620537687
 20
2155.8975027452770519
 30
0.0
 40
1.1811023622000001
 50
27.8181210495534295
 51
332.1818789504466167
  0
LINE
  5
13E60
  8
0
 10
8674.9152497262857651
 20
2156.448683515176981
 30
0.0
 11
8672.8335795404454984
 21
2156.448683515176981
 31
0.0
  0
ARC
  5
13E61
  8
0
 10
8674.9152497262857651
 20
2155.8975027452770519
 30
0.0
 40
0.5511807699000002
 50
270.0
 51
90.0
  0
LINE
  5
13E62
  8
0
 10
8674.9152497262857651
 20
2155.3463219753771227
 30
0.0
 11
8672.8335795404454984
 21
2155.3463219753771227
 31
0.0
  0
ARC
  5
13E63
  8
0
 10
8674.8602104647088709
 20
2155.8975027452770519
 30
0.0
 40
0.5511807699000002
 50
270.0
 51
90.0
  0
ARC
  5
13E64
  8
0
 10
8672.8341849620537687
 20
2155.8975027452770519
 30
0.0
 40
0.5511811024000003
 50
90.0629341423128835
 51
269.9370658576871165
  0
ARC
  5
13E65
  8
0
 10
8672.8341849620537687
 20
2155.8975027452770519
 30
0.0
 40
0.5767716534999991
 50
72.8684240876710163
 51
287.1315759123289126
  0
CIRCLE
  5
13E66
  8
0
 10
8672.8341849620537687
 20
2155.8975024127771576
 30
0.0
 40
0.1771653543000013
  0
CIRCLE
  5
13E67
  8
0
 10
8672.8341849620537687
 20
2155.8975024127771576
 30
0.0
 40
0.1496062991999985
  0
LINE
  5
13E68
  8
0
 10
8672.8341849620537687
 20
2155.9634203568771227
 30
0.0
 11
8672.891271576152576
 21
2155.9304613848771623
 31
0.0
  0
LINE
  5
13E69
  8
0
 10
8672.891271576152576
 20
2155.9304613848771623
 30
0.0
 11
8672.891271576152576
 21
2155.8645434406771528
 31
0.0
  0
LINE
  5
13E6A
  8
0
 10
8672.891271576152576
 20
2155.8645434406771528
 30
0.0
 11
8672.8341849620537687
 21
2155.8315844686771925
 31
0.0
  0
LINE
  5
13E6B
  8
0
 10
8672.8341849620537687
 20
2155.8315844686771925
 30
0.0
 11
8672.7770983478530979
 21
2155.8645434406771528
 31
0.0
  0
LINE
  5
13E6C
  8
0
 10
8672.7770983478530979
 20
2155.8645434406771528
 30
0.0
 11
8672.7770983478530979
 21
2155.9304613848771623
 31
0.0
  0
LINE
  5
13E6D
  8
0
 10
8672.7770983478530979
 20
2155.9304613848771623
 30
0.0
 11
8672.8341849620537687
 21
2155.9634203568771227
 31
0.0
  0
LINE
  5
13E6E
  8
0
 10
8672.8341849620537687
 20
2155.9543282266768074
 30
0.0
 11
8672.7849723635554255
 21
2155.9259153196771877
 31
0.0
  0
LINE
  5
13E6F
  8
0
 10
8672.7849723635554255
 20
2155.9259153196771877
 30
0.0
 11
8672.7849723635554255
 21
2155.8690895057770831
 31
0.0
  0
LINE
  5
13E70
  8
0
 10
8672.7849723635554255
 20
2155.8690895057770831
 30
0.0
 11
8672.8341849620537687
 21
2155.840676598877053
 31
0.0
  0
LINE
  5
13E71
  8
0
 10
8672.8341849620537687
 20
2155.840676598877053
 30
0.0
 11
8672.8833975604538864
 21
2155.8690895057770831
 31
0.0
  0
LINE
  5
13E72
  8
0
 10
8672.8833975604538864
 20
2155.8690895057770831
 30
0.0
 11
8672.8833975604538864
 21
2155.9259153196771877
 31
0.0
  0
LINE
  5
13E73
  8
0
 10
8672.8833975604538864
 20
2155.9259153196771877
 30
0.0
 11
8672.8341849620537687
 21
2155.9543282266768074
 31
0.0
  0
LINE
  5
13E74
  8
0
 10
8672.8341849620537687
 20
2155.9543282266768074
 30
0.0
 11
8672.8341849620537687
 21
2155.9634203568771227
 31
0.0
  0
LINE
  5
13E75
  8
0
 10
8672.7849723635554255
 20
2155.9259153196771877
 30
0.0
 11
8672.7770983478530979
 21
2155.9304613848771623
 31
0.0
  0
LINE
  5
13E76
  8
0
 10
8672.7849723635554255
 20
2155.8690895057770831
 30
0.0
 11
8672.7770983478530979
 21
2155.8645434406771528
 31
0.0
  0
LINE
  5
13E77
  8
0
 10
8672.8341849620537687
 20
2155.8315844686771925
 30
0.0
 11
8672.8341849620537687
 21
2155.840676598877053
 31
0.0
  0
LINE
  5
13E78
  8
0
 10
8672.891271576152576
 20
2155.8645434406771528
 30
0.0
 11
8672.8833975604538864
 21
2155.8690895057770831
 31
0.0
  0
LINE
  5
13E79
  8
0
 10
8672.891271576152576
 20
2155.9304613848771623
 30
0.0
 11
8672.8833975604538864
 21
2155.9259153196771877
 31
0.0
  0
ARC
  5
13E7A
  8
0
 10
8664.9601692139531224
 20
2155.8975027452770519
 30
0.0
 40
1.1811023622000001
 50
207.8181210495534117
 51
152.1818789504465883
  0
LINE
  5
13E7B
  8
0
 10
8662.879104449721126
 20
2156.448683515176981
 30
0.0
 11
8664.9607746355613926
 21
2156.448683515176981
 31
0.0
  0
ARC
  5
13E7C
  8
0
 10
8662.879104449721126
 20
2155.8975027452770519
 30
0.0
 40
0.5511807699000002
 50
90.0
 51
270.0
  0
LINE
  5
13E7D
  8
0
 10
8662.879104449721126
 20
2155.3463219753771227
 30
0.0
 11
8664.9607746355613926
 21
2155.3463219753771227
 31
0.0
  0
ARC
  5
13E7E
  8
0
 10
8662.9341437112980202
 20
2155.8975027452770519
 30
0.0
 40
0.5511807699000002
 50
90.0
 51
270.0
  0
ARC
  5
13E7F
  8
0
 10
8664.9601692139531224
 20
2155.8975027452770519
 30
0.0
 40
0.5511811024000003
 50
270.0629341423128835
 51
89.9370658576871165
  0
ARC
  5
13E80
  8
0
 10
8664.9601692139531224
 20
2155.8975027452770519
 30
0.0
 40
0.5767716534999991
 50
252.8684240876710021
 51
107.1315759123289979
  0
CIRCLE
  5
13E81
  8
0
 10
8664.9601692139531224
 20
2155.8975024127771576
 30
0.0
 40
0.1771653543000013
  0
CIRCLE
  5
13E82
  8
0
 10
8664.9601692139531224
 20
2155.8975024127771576
 30
0.0
 40
0.1496062991999985
  0
LINE
  5
13E83
  8
0
 10
8664.9601692139531224
 20
2155.9634203568771227
 30
0.0
 11
8664.903082599854315
 21
2155.9304613848771623
 31
0.0
  0
LINE
  5
13E84
  8
0
 10
8664.903082599854315
 20
2155.9304613848771623
 30
0.0
 11
8664.903082599854315
 21
2155.8645434406771528
 31
0.0
  0
LINE
  5
13E85
  8
0
 10
8664.903082599854315
 20
2155.8645434406771528
 30
0.0
 11
8664.9601692139531224
 21
2155.8315844686771925
 31
0.0
  0
LINE
  5
13E86
  8
0
 10
8664.9601692139531224
 20
2155.8315844686771925
 30
0.0
 11
8665.0172558281537931
 21
2155.8645434406771528
 31
0.0
  0
LINE
  5
13E87
  8
0
 10
8665.0172558281537931
 20
2155.8645434406771528
 30
0.0
 11
8665.0172558281537931
 21
2155.9304613848771623
 31
0.0
  0
LINE
  5
13E88
  8
0
 10
8665.0172558281537931
 20
2155.9304613848771623
 30
0.0
 11
8664.9601692139531224
 21
2155.9634203568771227
 31
0.0
  0
LINE
  5
13E89
  8
0
 10
8664.9601692139531224
 20
2155.9543282266768074
 30
0.0
 11
8665.0093818124532845
 21
2155.9259153196771877
 31
0.0
  0
LINE
  5
13E8A
  8
0
 10
8665.0093818124532845
 20
2155.9259153196771877
 30
0.0
 11
8665.0093818124532845
 21
2155.8690895057770831
 31
0.0
  0
LINE
  5
13E8B
  8
0
 10
8665.0093818124532845
 20
2155.8690895057770831
 30
0.0
 11
8664.9601692139531224
 21
2155.840676598877053
 31
0.0
  0
LINE
  5
13E8C
  8
0
 10
8664.9601692139531224
 20
2155.840676598877053
 30
0.0
 11
8664.9109566155530047
 21
2155.8690895057770831
 31
0.0
  0
LINE
  5
13E8D
  8
0
 10
8664.9109566155530047
 20
2155.8690895057770831
 30
0.0
 11
8664.9109566155530047
 21
2155.9259153196771877
 31
0.0
  0
LINE
  5
13E8E
  8
0
 10
8664.9109566155530047
 20
2155.9259153196771877
 30
0.0
 11
8664.9601692139531224
 21
2155.9543282266768074
 31
0.0
  0
LINE
  5
13E8F
  8
0
 10
8664.9601692139531224
 20
2155.9543282266768074
 30
0.0
 11
8664.9601692139531224
 21
2155.9634203568771227
 31
0.0
  0
LINE
  5
13E90
  8
0
 10
8665.0093818124532845
 20
2155.9259153196771877
 30
0.0
 11
8665.0172558281537931
 21
2155.9304613848771623
 31
0.0
  0
LINE
  5
13E91
  8
0
 10
8665.0093818124532845
 20
2155.8690895057770831
 30
0.0
 11
8665.0172558281537931
 21
2155.8645434406771528
 31
0.0
  0
LINE
  5
13E92
  8
0
 10
8664.9601692139531224
 20
2155.8315844686771925
 30
0.0
 11
8664.9601692139531224
 21
2155.840676598877053
 31
0.0
  0
LINE
  5
13E93
  8
0
 10
8664.903082599854315
 20
2155.8645434406771528
 30
0.0
 11
8664.9109566155530047
 21
2155.8690895057770831
 31
0.0
  0
LINE
  5
13E94
  8
0
 10
8664.903082599854315
 20
2155.9304613848771623
 30
0.0
 11
8664.9109566155530047
 21
2155.9259153196771877
 31
0.0
  0
ARC
  5
13E95
  8
0
 10
8668.8971770879543328
 20
2155.8975024127771576
 30
0.0
 40
0.4035433071000002
 50
347.3196164987214729
 51
192.6803835012784134
  0
ARC
  5
13E96
  8
0
 10
8668.8881347873902996
 20
2150.2216870572037806
 30
0.0
 40
3.6424076777683529
 50
90.5846187759341746
 51
92.6168819060535782
  0
ARC
  5
13E97
  8
0
 10
8668.8264857988651784
 20
2151.5705329412439823
 30
0.0
 40
2.292153695482761
 50
92.6168819060535782
 51
94.3576971750550655
  0
ARC
  5
13E98
  8
0
 10
8668.754714441827673
 20
2152.5123752882727786
 30
0.0
 40
1.3475807050007651
 50
94.3576971750550655
 51
96.837981317829005
  0
ARC
  5
13E99
  8
0
 10
8668.6558943755517248
 20
2153.3364584767659835
 30
0.0
 40
0.5175936526582664
 50
96.837981317829005
 51
100.3179750780936956
  0
ARC
  5
13E9A
  8
0
 10
8668.6064866832311964
 20
2153.6078474437808836
 30
0.0
 40
0.2417438901466609
 50
100.3179750780936956
 51
104.1833177821368963
  0
ARC
  5
13E9B
  8
0
 10
8668.5707760935256374
 20
2153.7491473046097781
 30
0.0
 40
0.0960013195380226
 50
104.1833177821368963
 51
110.8849198740114019
  0
ARC
  5
13E9C
  8
0
 10
8668.546926505783631
 20
2153.8116525598779845
 30
0.0
 40
0.0291005738662966
 50
110.8849198740114019
 51
123.1610607447155985
  0
ARC
  5
13E9D
  8
0
 10
8668.5361212430343585
 20
2153.8281892500249342
 30
0.0
 40
0.0093466926239469
 50
123.1610607447155985
 51
141.1473820641830059
  0
ARC
  5
13E9E
  8
0
 10
8668.5314048266591271
 20
2153.8319884827687929
 30
0.0
 40
0.0032903940134677
 50
141.1473820641830059
 51
219.3320448591946104
  0
ARC
  5
13E9F
  8
0
 10
8668.5365878807806439
 20
2153.8362356064490086
 30
0.0
 40
0.0099912976519173
 50
219.3320448591946104
 51
223.9708820345834113
  0
ARC
  5
13EA0
  8
0
 10
8668.5365878807806439
 20
2153.8362356064490086
 30
0.0
 40
0.0099912976519173
 50
225.8085220627675085
 51
235.9295412489096009
  0
ARC
  5
13EA1
  8
0
 10
8668.5441656373222941
 20
2153.8474403458249071
 30
0.0
 40
0.0235178854954991
 50
235.9295412489096009
 51
248.0043271331119001
  0
ARC
  5
13EA2
  8
0
 10
8668.5717109514862386
 20
2153.9156322178660048
 30
0.0
 40
0.0970629447778234
 50
248.0043271331119001
 51
258.4427688602422108
  0
ARC
  5
13EA3
  8
0
 10
8668.6666709442306455
 20
2154.3800007708700832
 30
0.0
 40
0.5710413759759886
 50
258.4427688602422108
 51
264.3405657863003171
  0
ARC
  5
13EA4
  8
0
 10
8668.822042421770675
 20
2155.9478535062739866
 30
0.0
 40
2.146573824371925
 50
264.3405657863003171
 51
266.2572548075884811
  0
ARC
  5
13EA5
  8
0
 10
8668.8651855015432375
 20
2156.60736925406718
 30
0.0
 40
2.8074991960433242
 50
266.2572548075884811
 51
270.181072346565486
  0
ARC
  5
13EA6
  8
0
 10
8668.8982377742031531
 20
2157.779441412450069
 30
0.0
 40
3.9796307915358629
 50
269.6518760904789929
 51
272.1246098820615771
  0
ARC
  5
13EA7
  8
0
 10
8668.9957389661958587
 20
2155.598994345446954
 30
0.0
 40
1.7971446448572079
 50
271.5954136260543237
 51
275.6791079612610247
  0
ARC
  5
13EA8
  8
0
 10
8669.0916535759115504
 20
2154.6344954263809086
 30
0.0
 40
0.827888343750677
 50
275.6791079612610247
 51
280.1877345289888126
  0
ARC
  5
13EA9
  8
0
 10
8669.2191413012806152
 20
2153.925077104247066
 30
0.0
 40
0.1071057996365073
 50
280.1877345289888126
 51
292.2697634790898178
  0
ARC
  5
13EAA
  8
0
 10
8669.2531149572478171
 20
2153.8421160942398274
 30
0.0
 40
0.0174579414289395
 50
292.2697634790898178
 51
313.9609919087853882
  0
ARC
  5
13EAB
  8
0
 10
8669.2629005462713394
 20
2153.8319690041498689
 30
0.0
 40
0.0033610910776516
 50
313.9609919087853882
 51
44.4687913825728174
  0
ARC
  5
13EAC
  8
0
 10
8669.2537913233936706
 20
2153.82302714378784
 30
0.0
 40
0.0161256830474189
 50
44.4687913825728174
 51
68.4140446025840845
  0
ARC
  5
13EAD
  8
0
 10
8669.2121928231281345
 20
2153.7178860342592088
 30
0.0
 40
0.1291968470868635
 50
68.4140446025840845
 51
81.5551162391549553
  0
ARC
  5
13EAE
  8
0
 10
8668.9885433329764055
 20
2152.2115011757978209
 30
0.0
 40
1.65209357249074
 50
81.5551162391549553
 51
83.824299546568966
  0
ARC
  5
13EAF
  8
0
 10
8669.0440787333918706
 20
2152.7247404491181442
 30
0.0
 40
1.1358584202811739
 50
83.824299546568966
 51
88.4382222751583242
  0
ARC
  5
13EB0
  8
0
 10
8668.8977938295665808
 20
2149.9429419692660304
 30
0.0
 40
3.921242731145739
 50
87.4093142902360256
 51
90.684188473822914
  0
ARC
  5
13EB1
  8
0
 10
8668.8933870097189356
 20
2150.2955984411819372
 30
0.0
 40
3.5661017680755092
 50
90.3536247382845943
 51
92.1867631911873957
  0
ARC
  5
13EB2
  8
0
 10
8668.8492067094866798
 20
2151.452612391627099
 30
0.0
 40
2.4082446177955839
 50
92.1867631911873957
 51
94.1228571731314361
  0
ARC
  5
13EB3
  8
0
 10
8668.7638312280978425
 20
2152.6370359234410898
 30
0.0
 40
1.2207480596801199
 50
94.1228571731314361
 51
97.1011048935104242
  0
ARC
  5
13EB4
  8
0
 10
8668.6628748640414415
 20
2153.4474346215561127
 30
0.0
 40
0.404085193284364
 50
97.1011048935104242
 51
101.7569258296159944
  0
ARC
  5
13EB5
  8
0
 10
8668.6053843525296543
 20
2153.7236634353998852
 30
0.0
 40
0.1219371532216513
 50
101.7569258296159944
 51
109.7347739528662061
  0
ARC
  5
13EB6
  8
0
 10
8668.572498032315707
 20
2153.815336015657067
 30
0.0
 40
0.0245442785939086
 50
109.7347739528662061
 51
125.8396177326053049
  0
ARC
  5
13EB7
  8
0
 10
8668.561595787807164
 20
2153.830430340573912
 30
0.0
 40
0.0059244617318609
 50
125.8396177326053049
 51
149.0324810839580891
  0
ARC
  5
13EB8
  8
0
 10
8668.5589918469686381
 20
2153.8319929376339132
 30
0.0
 40
0.0028876513203979
 50
149.0324810839580891
 51
205.609724013276292
  0
ARC
  5
13EB9
  8
0
 10
8668.5609311947991955
 20
2153.8329225221527849
 30
0.0
 40
0.0050382785277392
 50
205.609724013276292
 51
237.1395019738378949
  0
ARC
  5
13EBA
  8
0
 10
8668.5782415480716736
 20
2153.8597207479720055
 30
0.0
 40
0.0369411504587639
 50
237.1395019738378949
 51
252.12650534305061
  0
ARC
  5
13EBB
  8
0
 10
8668.6114025715305615
 20
2153.9625518734419529
 30
0.0
 40
0.1449869455754475
 50
252.12650534305061
 51
260.0990227079722104
  0
ARC
  5
13EBC
  8
0
 10
8668.709034331383009
 20
2154.5219003023671576
 30
0.0
 40
0.7127920401916543
 50
260.0990227079722104
 51
264.5080304401965918
  0
ARC
  5
13EBD
  8
0
 10
8668.8096198873245157
 20
2155.568058118738918
 30
0.0
 40
1.7637742621252199
 50
264.5080304401965918
 51
267.3717419521607894
  0
ARC
  5
13EBE
  8
0
 10
8668.9004462355642318
 20
2157.546675028700065
 30
0.0
 40
3.744474719518649
 50
267.3717419521607894
 51
269.1420102597215873
  0
ARC
  5
13EBF
  8
0
 10
8668.8978704389792256
 20
2157.3746785181060659
 30
0.0
 40
3.5724589226141559
 50
269.1420102597215873
 51
271.1460893058650186
  0
ARC
  5
13EC0
  8
0
 10
8668.8990531920226204
 20
2157.3155577160919165
 30
0.0
 40
3.513326290883386
 50
271.1460893058650186
 51
272.9586347983390056
  0
ARC
  5
13EC1
  8
0
 10
8668.9995404204364604
 20
2155.3712907953331523
 30
0.0
 40
1.566464317800623
 50
272.9586347983390056
 51
276.1302488693797272
  0
ARC
  5
13EC2
  8
0
 10
8669.1071768060191971
 20
2154.3691194176622048
 30
0.0
 40
0.558529269435414
 50
276.1302488693797272
 51
280.5766112107440904
  0
ARC
  5
13EC3
  8
0
 10
8669.1837069287248596
 20
2153.9592590717538769
 30
0.0
 40
0.1415851930537057
 50
280.5766112107440904
 51
288.759213957374584
  0
ARC
  5
13EC4
  8
0
 10
8669.2205275593096303
 20
2153.8508462728577797
 30
0.0
 40
0.0270902420693775
 50
288.759213957374584
 51
306.0252596857346816
  0
ARC
  5
13EC5
  8
0
 10
8669.2336580070641503
 20
2153.8327905069158987
 30
0.0
 40
0.0047649348585157
 50
306.0252596857346816
 51
339.3015291365452981
  0
ARC
  5
13EC6
  8
0
 10
8669.2356519083841704
 20
2153.832037135203791
 30
0.0
 40
0.0026334538242662
 50
339.3015291365452981
 51
38.0471374455762117
  0
ARC
  5
13EC7
  8
0
 10
8669.2291369786398718
 20
2153.8269384771319892
 30
0.0
 40
0.0109063386725954
 50
38.0471374455762117
 51
65.867810064437208
  0
ARC
  5
13EC8
  8
0
 10
8669.2004753345354402
 20
2153.7629610253811734
 30
0.0
 40
0.0810105765991427
 50
65.867810064437208
 51
75.4654400899669469
  0
ARC
  5
13EC9
  8
0
 10
8669.175517583205874
 20
2153.666696138126099
 30
0.0
 40
0.1804581400176033
 50
75.4654400899669469
 51
78.0927062703685806
  0
ARC
  5
13ECA
  8
0
 10
8669.079647279371784
 20
2153.1201763454919273
 30
0.0
 40
0.7352435009918061
 50
79.5700120722194413
 51
85.9371781504798662
  0
ARC
  5
13ECB
  8
0
 10
8668.9634721768834424
 20
2151.7657607587871098
 30
0.0
 40
2.0945811742125531
 50
85.3922034635848348
 51
87.4578377266820439
  0
ARC
  5
13ECC
  8
0
 10
8668.8985702123245574
 20
2150.2553510819748226
 30
0.0
 40
3.6063837269490282
 50
87.492081952046064
 51
90.4320239646826565
  0
ARC
  5
13ECD
  8
0
 10
8668.663905794488528
 20
2154.1690716833168153
 30
0.0
 40
0.3360358012088993
 50
255.8258580727473941
 51
264.2840563857809002
  0
ARC
  5
13ECE
  8
0
 10
8668.8613192249504209
 20
2156.1413457754988485
 30
0.0
 40
2.318165251375897
 50
264.2840563857809002
 51
267.0961736795471211
  0
ARC
  5
13ECF
  8
0
 10
8668.8913488146772579
 20
2156.7333561647178612
 30
0.0
 40
2.9109367732985398
 50
267.0961736795471211
 51
271.7800924036226888
  0
ARC
  5
13ED0
  8
0
 10
8668.8639878405447234
 20
2157.6137396258400258
 30
0.0
 40
3.7917453004609292
 50
271.7800924036226888
 51
274.0965029160926747
  0
ARC
  5
13ED1
  8
0
 10
8669.0868576999782817
 20
2154.4430293055379479
 30
0.0
 40
0.6132290400260207
 50
274.4893161059521844
 51
281.9389172656788105
  0
LINE
  5
13ED2
  8
0
 10
8668.5034763005915011
 20
2153.8553196285579361
 30
0.0
 11
8668.5296233621957072
 21
2153.8290717032100474
 31
0.0
  0
LINE
  5
13ED3
  8
0
 10
8669.2908778753899242
 20
2153.8553220125400003
 30
0.0
 11
8669.2654355298236624
 21
2153.8297620171479139
 31
0.0
  0
ARC
  5
13ED4
  8
0
 10
8668.685996000393061
 20
2153.6929095790028441
 30
0.0
 40
0.7941768092963422
 50
92.4612219036375222
 51
103.2866218135661001
  0
ARC
  5
13ED5
  8
0
 10
8668.8856631774178823
 20
2150.8298284854918165
 30
0.0
 40
3.6639904979823421
 50
89.9684463548627349
 51
93.6580976116288753
  0
ARC
  5
13ED6
  8
0
 10
8668.9005142564601556
 20
2150.423915024748112
 30
0.0
 40
4.0699236360519881
 50
87.351266810006635
 51
90.1806650897129884
  0
ARC
  5
13ED7
  8
0
 10
8669.0115372643576848
 20
2152.6739266146992122
 30
0.0
 40
1.8171984318076611
 50
83.3304928343931266
 51
87.5696231582095379
  0
ARC
  5
13ED8
  8
0
 10
8669.1955426047661604
 20
2154.1961907512509242
 30
0.0
 40
0.2839278703645547
 50
70.3804585180353115
 51
84.5335061557986052
  0
LINE
  5
13ED9
  8
0
  6
CONTINUOUS
 10
8668.5034763004532579
 20
2153.9293571656498898
 30
0.0
 11
8668.5838235436604009
 21
2153.8490099224400183
 31
0.0
1001
GRADIENTCOLOR1ACI
1070
     5
1001
GRADIENTCOLOR2ACI
1070
     2
1001
ACAD
1010
0.0
1020
0.0
1030
0.0
  0
LINE
  5
13EDA
  8
0
  6
CONTINUOUS
 10
8668.5034763004532579
 20
2153.9647125047090412
 30
0.0
 11
8668.615448373131585
 21
2153.8527404320298047
 31
0.0
1001
GRADIENTCOLOR1ACI
1070
     5
1001
GRADIENTCOLOR2ACI
1070
     2
1001
ACAD
1010
0.0
1020
0.0
1030
0.0
  0
LINE
  5
13EDB
  8
0
  6
CONTINUOUS
 10
8668.5034763004532579
 20
2154.0000678437681927
 30
0.0
 11
8668.6478333820105036
 21
2153.855710762210947
 31
0.0
1001
GRADIENTCOLOR1ACI
1070
     5
1001
GRADIENTCOLOR2ACI
1070
     2
1001
ACAD
1010
0.0
1020
0.0
1030
0.0
  0
LINE
  5
13EDC
  8
0
  6
CONTINUOUS
 10
8668.5034763004532579
 20
2154.0354231828277989
 30
0.0
 11
8668.6808444829493965
 21
2153.858055000332115
 31
0.0
1001
GRADIENTCOLOR1ACI
1070
     5
1001
GRADIENTCOLOR2ACI
1070
     2
1001
ACAD
1010
0.0
1020
0.0
1030
0.0
  0
LINE
  5
13EDD
  8
0
  6
CONTINUOUS
 10
8668.5034763004532579
 20
2154.0707785218869503
 30
0.0
 11
8668.7143144985820982
 21
2153.8599403237572005
 31
0.0
1001
GRADIENTCOLOR1ACI
1070
     5
1001
GRADIENTCOLOR2ACI
1070
     2
1001
ACAD
1010
0.0
1020
0.0
1030
0.0
  0
LINE
  5
13EDE
  8
0
  6
CONTINUOUS
 10
8668.5034763004532579
 20
2154.1061338609461018
 30
0.0
 11
8668.7482042766987433
 21
2153.8614058847019805
 31
0.0
1001
GRADIENTCOLOR1ACI
1070
     5
1001
GRADIENTCOLOR2ACI
1070
     2
1001
ACAD
1010
0.0
1020
0.0
1030
0.0
  0
LINE
  5
13EDF
  8
0
  6
CONTINUOUS
 10
8668.5034763004532579
 20
2154.1414892000061627
 30
0.0
 11
8668.7824056041044969
 21
2153.8625598963549237
 31
0.0
1001
GRADIENTCOLOR1ACI
1070
     5
1001
GRADIENTCOLOR2ACI
1070
     2
1001
ACAD
1010
0.0
1020
0.0
1030
0.0
  0
LINE
  5
13EE0
  8
0
  6
CONTINUOUS
 10
8668.5034763004532579
 20
2154.1768445390648594
 30
0.0
 11
8668.8169223064232938
 21
2153.8633985330930045
 31
0.0
1001
GRADIENTCOLOR1ACI
1070
     5
1001
GRADIENTCOLOR2ACI
1070
     2
1001
ACAD
1010
0.0
1020
0.0
1030
0.0
  0
LINE
  5
13EE1
  8
0
  6
CONTINUOUS
 10
8668.5034763004532579
 20
2154.2121998781240109
 30
0.0
 11
8668.8517616772078327
 21
2153.8639145013698908
 31
0.0
1001
GRADIENTCOLOR1ACI
1070
     5
1001
GRADIENTCOLOR2ACI
1070
     2
1001
ACAD
1010
0.0
1020
0.0
1030
0.0
  0
LINE
  5
13EE2
  8
0
  6
CONTINUOUS
 10
8668.5034763004532579
 20
2154.2475552171840718
 30
0.0
 11
8668.8868620552420907
 21
2153.8641694623947842
 31
0.0
1001
GRADIENTCOLOR1ACI
1070
     5
1001
GRADIENTCOLOR2ACI
1070
     2
1001
ACAD
1010
0.0
1020
0.0
1030
0.0
  0
LINE
  5
13EE3
  8
0
  6
CONTINUOUS
 10
8668.5034763004532579
 20
2154.2829105562432233
 30
0.0
 11
8668.9222786001391796
 21
2153.8641082565550278
 31
0.0
1001
GRADIENTCOLOR1ACI
1070
     5
1001
GRADIENTCOLOR2ACI
1070
     2
1001
ACAD
1010
0.0
1020
0.0
1030
0.0
  0
LINE
  5
13EE4
  8
0
  6
CONTINUOUS
 10
8668.5034763004532579
 20
2154.3182658953028294
 30
0.0
 11
8668.9580200284253806
 21
2153.8637221673297972
 31
0.0
1001
GRADIENTCOLOR1ACI
1070
     5
1001
GRADIENTCOLOR2ACI
1070
     2
1001
ACAD
1010
0.0
1020
0.0
1030
0.0
  0
LINE
  5
13EE5
  8
0
  6
CONTINUOUS
 10
8668.5034763004532579
 20
2154.3536212343619809
 30
0.0
 11
8668.9940955487327301
 21
2153.8630019860829634
 31
0.0
1001
GRADIENTCOLOR1ACI
1070
     5
1001
GRADIENTCOLOR2ACI
1070
     2
1001
ACAD
1010
0.0
1020
0.0
1030
0.0
  0
LINE
  5
13EE6
  8
0
  6
CONTINUOUS
 10
8668.5034763004532579
 20
2154.3889765734211323
 30
0.0
 11
8669.0305149013365735
 21
2153.8619379725391809
 31
0.0
1001
GRADIENTCOLOR1ACI
1070
     5
1001
GRADIENTCOLOR2ACI
1070
     2
1001
ACAD
1010
0.0
1020
0.0
1030
0.0
  0
LINE
  5
13EE7
  8
0
  6
CONTINUOUS
 10
8668.5034763004532579
 20
2154.424331912479829
 30
0.0
 11
8669.0672884018731565
 21
2153.8605198110608399
 31
0.0
1001
GRADIENTCOLOR1ACI
1070
     5
1001
GRADIENTCOLOR2ACI
1070
     2
1001
ACAD
1010
0.0
1020
0.0
1030
0.0
  0
LINE
  5
13EE8
  8
0
  6
CONTINUOUS
 10
8668.5034763004532579
 20
2154.45968725153989
 30
0.0
 11
8669.1041545047846739
 21
2153.8590090472089287
 31
0.0
1001
GRADIENTCOLOR1ACI
1070
     5
1001
GRADIENTCOLOR2ACI
1070
     2
1001
ACAD
1010
0.0
1020
0.0
1030
0.0
  0
LINE
  5
13EE9
  8
0
  6
CONTINUOUS
 10
8668.5274243494895927
 20
2154.4710945415631613
 30
0.0
 11
8669.1421628456046165
 21
2153.8563560454467734
 31
0.0
1001
GRADIENTCOLOR1ACI
1070
     5
1001
GRADIENTCOLOR2ACI
1070
     2
1001
ACAD
1010
0.0
1020
0.0
1030
0.0
  0
LINE
  5
13EEA
  8
0
  6
CONTINUOUS
 10
8668.5572869250336225
 20
2154.4765873050778282
 30
0.0
 11
8669.1815979002058157
 21
2153.8522763299060898
 31
0.0
1001
GRADIENTCOLOR1ACI
1070
     5
1001
GRADIENTCOLOR2ACI
1070
     2
1001
ACAD
1010
0.0
1020
0.0
1030
0.0
  0
LINE
  5
13EEB
  8
0
  6
CONTINUOUS
 10
8668.5881889224347105
 20
2154.4810406467358916
 30
0.0
 11
8669.2222482911402039
 21
2153.8469812780299435
 31
0.0
1001
GRADIENTCOLOR1ACI
1070
     5
1001
GRADIENTCOLOR2ACI
1070
     2
1001
ACAD
1010
0.0
1020
0.0
1030
0.0
  0
LINE
  5
13EEC
  8
0
  6
CONTINUOUS
 10
8668.6202265420233743
 20
2154.4843583662091078
 30
0.0
 11
8669.2701183832887182
 21
2153.834466524941945
 31
0.0
1001
GRADIENTCOLOR1ACI
1070
     5
1001
GRADIENTCOLOR2ACI
1070
     2
1001
ACAD
1010
0.0
1020
0.0
1030
0.0
  0
LINE
  5
13EED
  8
0
  6
CONTINUOUS
 10
8668.6534849500949349
 20
2154.4864552971939702
 30
0.0
 11
8669.2877552747941081
 21
2153.8521849724961612
 31
0.0
1001
GRADIENTCOLOR1ACI
1070
     5
1001
GRADIENTCOLOR2ACI
1070
     2
1001
ACAD
1010
0.0
1020
0.0
1030
0.0
  0
LINE
  5
13EEE
  8
0
  6
CONTINUOUS
 10
8668.6868732540788187
 20
2154.4884223322701473
 30
0.0
 11
8669.2908778753899242
 21
2153.8844177109590419
 31
0.0
1001
GRADIENTCOLOR1ACI
1070
     5
1001
GRADIENTCOLOR2ACI
1070
     2
1001
ACAD
1010
0.0
1020
0.0
1030
0.0
  0
LINE
  5
13EEF
  8
0
  6
CONTINUOUS
 10
8668.7205539638489427
 20
2154.4900969615600843
 30
0.0
 11
8669.2908778752535
 21
2153.9197730501550723
 31
0.0
1001
GRADIENTCOLOR1ACI
1070
     5
1001
GRADIENTCOLOR2ACI
1070
     2
1001
ACAD
1010
0.0
1020
0.0
1030
0.0
  0
LINE
  5
13EF0
  8
0
  6
CONTINUOUS
 10
8668.7545344819664024
 20
2154.4914717825008665
 30
0.0
 11
8669.2908778752535
 21
2153.9551283892142237
 31
0.0
1001
GRADIENTCOLOR1ACI
1070
     5
1001
GRADIENTCOLOR2ACI
1070
     2
1001
ACAD
1010
0.0
1020
0.0
1030
0.0
  0
LINE
  5
13EF1
  8
0
  6
CONTINUOUS
 10
8668.7888226089180534
 20
2154.4925389946101859
 30
0.0
 11
8669.2908778752535
 21
2153.9904837282729204
 31
0.0
1001
GRADIENTCOLOR1ACI
1070
     5
1001
GRADIENTCOLOR2ACI
1070
     2
1001
ACAD
1010
0.0
1020
0.0
1030
0.0
  0
LINE
  5
13EF2
  8
0
  6
CONTINUOUS
 10
8668.8234265732444328
 20
2154.4932903693397748
 30
0.0
 11
8669.2908778752535
 21
2154.0258390673329814
 31
0.0
1001
GRADIENTCOLOR1ACI
1070
     5
1001
GRADIENTCOLOR2ACI
1070
     2
1001
ACAD
1010
0.0
1020
0.0
1030
0.0
  0
LINE
  5
13EF3
  8
0
  6
CONTINUOUS
 10
8668.8583550647254015
 20
2154.4937172169197765
 30
0.0
 11
8669.2908778752535
 21
2154.0611944063921328
 31
0.0
1001
GRADIENTCOLOR1ACI
1070
     5
1001
GRADIENTCOLOR2ACI
1070
     2
1001
ACAD
1010
0.0
1020
0.0
1030
0.0
  0
LINE
  5
13EF4
  8
0
  6
CONTINUOUS
 10
8668.8935948418748012
 20
2154.4938327788308925
 30
0.0
 11
8669.2908778752535
 21
2154.0965497454521937
 31
0.0
1001
GRADIENTCOLOR1ACI
1070
     5
1001
GRADIENTCOLOR2ACI
1070
     2
1001
ACAD
1010
0.0
1020
0.0
1030
0.0
  0
LINE
  5
13EF5
  8
0
  6
CONTINUOUS
 10
8668.9290442975543556
 20
2154.4937386622100348
 30
0.0
 11
8669.2908778752535
 21
2154.1319050845108904
 31
0.0
1001
GRADIENTCOLOR1ACI
1070
     5
1001
GRADIENTCOLOR2ACI
1070
     2
1001
ACAD
1010
0.0
1020
0.0
1030
0.0
  0
LINE
  5
13EF6
  8
0
  6
CONTINUOUS
 10
8668.964807495027344
 20
2154.4933308037971074
 30
0.0
 11
8669.2908778752535
 21
2154.1672604235700419
 31
0.0
1001
GRADIENTCOLOR1ACI
1070
     5
1001
GRADIENTCOLOR2ACI
1070
     2
1001
ACAD
1010
0.0
1020
0.0
1030
0.0
  0
LINE
  5
13EF7
  8
0
  6
CONTINUOUS
 10
8669.0008930135318224
 20
2154.4926006243517804
 30
0.0
 11
8669.2908778752535
 21
2154.2026157626291933
 31
0.0
1001
GRADIENTCOLOR1ACI
1070
     5
1001
GRADIENTCOLOR2ACI
1070
     2
1001
ACAD
1010
0.0
1020
0.0
1030
0.0
  0
LINE
  5
13EF8
  8
0
  6
CONTINUOUS
 10
8669.0373099095122598
 20
2154.4915390674300397
 30
0.0
 11
8669.2908778752535
 21
2154.2379711016887995
 31
0.0
1001
GRADIENTCOLOR1ACI
1070
     5
1001
GRADIENTCOLOR2ACI
1070
     2
1001
ACAD
1010
0.0
1020
0.0
1030
0.0
  0
LINE
  5
13EF9
  8
0
  6
CONTINUOUS
 10
8669.0740677544163191
 20
2154.4901365615860414
 30
0.0
 11
8669.2908778752535
 21
2154.273326440747951
 31
0.0
1001
GRADIENTCOLOR1ACI
1070
     5
1001
GRADIENTCOLOR2ACI
1070
     2
1001
ACAD
1010
0.0
1020
0.0
1030
0.0
  0
LINE
  5
13EFA
  8
0
  6
CONTINUOUS
 10
8669.1111678616816789
 20
2154.488391793378014
 30
0.0
 11
8669.2908778752535
 21
2154.3086817798080119
 31
0.0
1001
GRADIENTCOLOR1ACI
1070
     5
1001
GRADIENTCOLOR2ACI
1070
     2
1001
ACAD
1010
0.0
1020
0.0
1030
0.0
  0
LINE
  5
13EFB
  8
0
  6
CONTINUOUS
 10
8669.148996342340979
 20
2154.485918651780139
 30
0.0
 11
8669.2908778752535
 21
2154.3440371188671634
 31
0.0
1001
GRADIENTCOLOR1ACI
1070
     5
1001
GRADIENTCOLOR2ACI
1070
     2
1001
ACAD
1010
0.0
1020
0.0
1030
0.0
  0
LINE
  5
13EFC
  8
0
  6
CONTINUOUS
 10
8669.1877046767185675
 20
2154.4825656564607925
 30
0.0
 11
8669.2908778752535
 21
2154.3793924579258601
 31
0.0
1001
GRADIENTCOLOR1ACI
1070
     5
1001
GRADIENTCOLOR2ACI
1070
     2
1001
ACAD
1010
0.0
1020
0.0
1030
0.0
  0
LINE
  5
13EFD
  8
0
  6
CONTINUOUS
 10
8669.2272872403646033
 20
2154.4783384318729986
 30
0.0
 11
8669.2908778752535
 21
2154.414747796985921
 31
0.0
1001
GRADIENTCOLOR1ACI
1070
     5
1001
GRADIENTCOLOR2ACI
1070
     2
1001
ACAD
1010
0.0
1020
0.0
1030
0.0
  0
LINE
  5
13EFE
  8
0
  6
CONTINUOUS
 10
8669.2711006128483859
 20
2154.469880398451096
 30
0.0
 11
8669.2908778752535
 21
2154.4501031360450725
 31
0.0
1001
GRADIENTCOLOR1ACI
1070
     5
1001
GRADIENTCOLOR2ACI
1070
     2
1001
ACAD
1010
0.0
1020
0.0
1030
0.0
  0
LINE
  5
13EFF
  8
0
  6
CONTINUOUS
 10
8668.5445185227945331
 20
2154.4743831407799917
 30
0.0
 11
8668.5034763004532579
 21
2154.4333409184400807
 31
0.0
1001
GRADIENTCOLOR1ACI
1070
     5
1001
GRADIENTCOLOR2ACI
1070
     2
1001
ACAD
1010
0.0
1020
0.0
1030
0.0
  0
LINE
  5
13F00
  8
0
  6
CONTINUOUS
 10
8668.5862938787849998
 20
2154.4808031577122165
 30
0.0
 11
8668.5034763004532579
 21
2154.3979855793809293
 31
0.0
1001
GRADIENTCOLOR1ACI
1070
     5
1001
GRADIENTCOLOR2ACI
1070
     2
1001
ACAD
1010
0.0
1020
0.0
1030
0.0
  0
LINE
  5
13F01
  8
0
  6
CONTINUOUS
 10
8668.6256352952023008
 20
2154.4847892350699112
 30
0.0
 11
8668.5034763004532579
 21
2154.3626302403217778
 31
0.0
1001
GRADIENTCOLOR1ACI
1070
     5
1001
GRADIENTCOLOR2ACI
1070
     2
1001
ACAD
1010
0.0
1020
0.0
1030
0.0
  0
LINE
  5
13F02
  8
0
  6
CONTINUOUS
 10
8668.663264524182523
 20
2154.4870631249900725
 30
0.0
 11
8668.5034763004532579
 21
2154.3272749012621716
 31
0.0
1001
GRADIENTCOLOR1ACI
1070
     5
1001
GRADIENTCOLOR2ACI
1070
     2
1001
ACAD
1010
0.0
1020
0.0
1030
0.0
  0
LINE
  5
13F03
  8
0
  6
CONTINUOUS
 10
8668.7007043692374282
 20
2154.4891476309858263
 30
0.0
 11
8668.5034763004532579
 21
2154.2919195622030202
 31
0.0
1001
GRADIENTCOLOR1ACI
1070
     5
1001
GRADIENTCOLOR2ACI
1070
     2
1001
ACAD
1010
0.0
1020
0.0
1030
0.0
  0
LINE
  5
13F04
  8
0
  6
CONTINUOUS
 10
8668.7377440169475449
 20
2154.4908319396381557
 30
0.0
 11
8668.5034763004532579
 21
2154.2565642231429592
 31
0.0
1001
GRADIENTCOLOR1ACI
1070
     5
1001
GRADIENTCOLOR2ACI
1070
     2
1001
ACAD
1010
0.0
1020
0.0
1030
0.0
  0
LINE
  5
13F05
  8
0
  6
CONTINUOUS
 10
8668.7743965597946953
 20
2154.4921291434270643
 30
0.0
 11
8668.5034763004532579
 21
2154.2212088840838078
 31
0.0
1001
GRADIENTCOLOR1ACI
1070
     5
1001
GRADIENTCOLOR2ACI
1070
     2
1001
ACAD
1010
0.0
1020
0.0
1030
0.0
  0
LINE
  5
13F06
  8
0
  6
CONTINUOUS
 10
8668.8106742800737265
 20
2154.4930515246442155
 30
0.0
 11
8668.5034763004532579
 21
2154.1858535450242016
 31
0.0
1001
GRADIENTCOLOR1ACI
1070
     5
1001
GRADIENTCOLOR2ACI
1070
     2
1001
ACAD
1010
0.0
1020
0.0
1030
0.0
  0
LINE
  5
13F07
  8
0
  6
CONTINUOUS
 10
8668.8465887181446305
 20
2154.4936106236568776
 30
0.0
 11
8668.5034763004532579
 21
2154.1504982059650501
 31
0.0
1001
GRADIENTCOLOR1ACI
1070
     5
1001
GRADIENTCOLOR2ACI
1070
     2
1001
ACAD
1010
0.0
1020
0.0
1030
0.0
  0
LINE
  5
13F08
  8
0
  6
CONTINUOUS
 10
8668.8821507334378111
 20
2154.4938172998909067
 30
0.0
 11
8668.5034763004532579
 21
2154.1151428669058987
 31
0.0
1001
GRADIENTCOLOR1ACI
1070
     5
1001
GRADIENTCOLOR2ACI
1070
     2
1001
ACAD
1010
0.0
1020
0.0
1030
0.0
  0
LINE
  5
13F09
  8
0
  6
CONTINUOUS
 10
8668.9174920217137696
 20
2154.4938032491081685
 30
0.0
 11
8668.5034763004532579
 21
2154.079787527847202
 31
0.0
1001
GRADIENTCOLOR1ACI
1070
     5
1001
GRADIENTCOLOR2ACI
1070
     2
1001
ACAD
1010
0.0
1020
0.0
1030
0.0
  0
LINE
  5
13F0A
  8
0
  6
CONTINUOUS
 10
8668.9525501076896035
 20
2154.4935059960230319
 30
0.0
 11
8668.5034763004532579
 21
2154.0444321887871411
 31
0.0
1001
GRADIENTCOLOR1ACI
1070
     5
1001
GRADIENTCOLOR2ACI
1070
     2
1001
ACAD
1010
0.0
1020
0.0
1030
0.0
  0
LINE
  5
13F0B
  8
0
  6
CONTINUOUS
 10
8668.9873124452078628
 20
2154.4929129944848682
 30
0.0
 11
8668.5034763004532579
 21
2154.0090768497279896
 31
0.0
1001
GRADIENTCOLOR1ACI
1070
     5
1001
GRADIENTCOLOR2ACI
1070
     2
1001
ACAD
1010
0.0
1020
0.0
1030
0.0
  0
LINE
  5
13F0C
  8
0
  6
CONTINUOUS
 10
8669.0217862708104803
 20
2154.4920314810251512
 30
0.0
 11
8668.5034763004532579
 21
2153.9737215106679287
 31
0.0
1001
GRADIENTCOLOR1ACI
1070
     5
1001
GRADIENTCOLOR2ACI
1070
     2
1001
ACAD
1010
0.0
1020
0.0
1030
0.0
  0
LINE
  5
13F0D
  8
0
  6
CONTINUOUS
 10
8669.0559784704455524
 20
2154.4908683416019812
 30
0.0
 11
8668.5034763004532579
 21
2153.9383661716101415
 31
0.0
1001
GRADIENTCOLOR1ACI
1070
     5
1001
GRADIENTCOLOR2ACI
1070
     2
1001
ACAD
1010
0.0
1020
0.0
1030
0.0
  0
LINE
  5
13F0E
  8
0
  6
CONTINUOUS
 10
8669.0899001119651075
 20
2154.4894346440610207
 30
0.0
 11
8668.5034763004532579
 21
2153.9030108325500805
 31
0.0
1001
GRADIENTCOLOR1ACI
1070
     5
1001
GRADIENTCOLOR2ACI
1070
     2
1001
ACAD
1010
0.0
1020
0.0
1030
0.0
  0
LINE
  5
13F0F
  8
0
  6
CONTINUOUS
 10
8669.1234937869521673
 20
2154.4876729799921122
 30
0.0
 11
8668.5034763005915011
 21
2153.8676554936268985
 31
0.0
1001
GRADIENTCOLOR1ACI
1070
     5
1001
GRADIENTCOLOR2ACI
1070
     2
1001
ACAD
1010
0.0
1020
0.0
1030
0.0
  0
LINE
  5
13F10
  8
0
  6
CONTINUOUS
 10
8669.1565091974898678
 20
2154.4853330514679328
 30
0.0
 11
8668.5149638805960421
 21
2153.8437877345741072
 31
0.0
1001
GRADIENTCOLOR1ACI
1070
     5
1001
GRADIENTCOLOR2ACI
1070
     2
1001
ACAD
1010
0.0
1020
0.0
1030
0.0
  0
LINE
  5
13F11
  8
0
  6
CONTINUOUS
 10
8669.1889731399751327
 20
2154.4824416548931367
 30
0.0
 11
8668.5492490161159367
 21
2153.8427175310339408
 31
0.0
1001
GRADIENTCOLOR1ACI
1070
     5
1001
GRADIENTCOLOR2ACI
1070
     2
1001
ACAD
1010
0.0
1020
0.0
1030
0.0
  0
LINE
  5
13F12
  8
0
  6
CONTINUOUS
 10
8669.2209099014671665
 20
2154.4790230773269286
 30
0.0
 11
8668.5919772624565667
 21
2153.8500904383158741
 31
0.0
1001
GRADIENTCOLOR1ACI
1070
     5
1001
GRADIENTCOLOR2ACI
1070
     2
1001
ACAD
1010
0.0
1020
0.0
1030
0.0
  0
LINE
  5
13F13
  8
0
  6
CONTINUOUS
 10
8669.2517430708903703
 20
2154.4745009076900715
 30
0.0
 11
8668.6315587431763561
 21
2153.8543165799769668
 31
0.0
1001
GRADIENTCOLOR1ACI
1070
     5
1001
GRADIENTCOLOR2ACI
1070
     2
1001
ACAD
1010
0.0
1020
0.0
1030
0.0
  0
LINE
  5
13F14
  8
0
  6
CONTINUOUS
 10
8669.2798961829666951
 20
2154.46729868070679
 30
0.0
 11
8668.6699315570876934
 21
2153.8573340548300621
 31
0.0
1001
GRADIENTCOLOR1ACI
1070
     5
1001
GRADIENTCOLOR2ACI
1070
     2
1001
ACAD
1010
0.0
1020
0.0
1030
0.0
  0
LINE
  5
13F15
  8
0
  6
CONTINUOUS
 10
8669.2908778752535
 20
2154.4429250339348982
 30
0.0
 11
8668.70755180816559
 21
2153.8595989668469883
 31
0.0
1001
GRADIENTCOLOR1ACI
1070
     5
1001
GRADIENTCOLOR2ACI
1070
     2
1001
ACAD
1010
0.0
1020
0.0
1030
0.0
  0
LINE
  5
13F16
  8
0
  6
CONTINUOUS
 10
8669.2908778752535
 20
2154.4075696948748373
 30
0.0
 11
8668.744572630377661
 21
2153.8612644499980888
 31
0.0
1001
GRADIENTCOLOR1ACI
1070
     5
1001
GRADIENTCOLOR2ACI
1070
     2
1001
ACAD
1010
0.0
1020
0.0
1030
0.0
  0
LINE
  5
13F17
  8
0
  6
CONTINUOUS
 10
8669.2908778752535
 20
2154.3722143558170501
 30
0.0
 11
8668.7811878489483206
 21
2153.8625243295109613
 31
0.0
1001
GRADIENTCOLOR1ACI
1070
     5
1001
GRADIENTCOLOR2ACI
1070
     2
1001
ACAD
1010
0.0
1020
0.0
1030
0.0
  0
LINE
  5
13F18
  8
0
  6
CONTINUOUS
 10
8669.2908778752535
 20
2154.3368590167569891
 30
0.0
 11
8668.8174272301912424
 21
2153.8634083716951864
 31
0.0
1001
GRADIENTCOLOR1ACI
1070
     5
1001
GRADIENTCOLOR2ACI
1070
     2
1001
ACAD
1010
0.0
1020
0.0
1030
0.0
  0
LINE
  5
13F19
  8
0
  6
CONTINUOUS
 10
8669.2908778752535
 20
2154.3015036776978377
 30
0.0
 11
8668.8533065311094106
 21
2153.8639323335528388
 31
0.0
1001
GRADIENTCOLOR1ACI
1070
     5
1001
GRADIENTCOLOR2ACI
1070
     2
1001
ACAD
1010
0.0
1020
0.0
1030
0.0
  0
LINE
  5
13F1A
  8
0
  6
CONTINUOUS
 10
8669.2908778752535
 20
2154.2661483386377768
 30
0.0
 11
8668.8889041603324586
 21
2153.8641746237180996
 31
0.0
1001
GRADIENTCOLOR1ACI
1070
     5
1001
GRADIENTCOLOR2ACI
1070
     2
1001
ACAD
1010
0.0
1020
0.0
1030
0.0
  0
LINE
  5
13F1B
  8
0
  6
CONTINUOUS
 10
8669.2908778752535
 20
2154.2307929995781706
 30
0.0
 11
8668.9241807930429786
 21
2153.864095917368104
 31
0.0
1001
GRADIENTCOLOR1ACI
1070
     5
1001
GRADIENTCOLOR2ACI
1070
     2
1001
ACAD
1010
0.0
1020
0.0
1030
0.0
  0
LINE
  5
13F1C
  8
0
  6
CONTINUOUS
 10
8669.2908778752535
 20
2154.1954376605190191
 30
0.0
 11
8668.9591449411273061
 21
2153.8637047263928253
 31
0.0
1001
GRADIENTCOLOR1ACI
1070
     5
1001
GRADIENTCOLOR2ACI
1070
     2
1001
ACAD
1010
0.0
1020
0.0
1030
0.0
  0
LINE
  5
13F1D
  8
0
  6
CONTINUOUS
 10
8669.2908778752535
 20
2154.1600823214598677
 30
0.0
 11
8668.9939465443039808
 21
2153.8631509905108032
 31
0.0
1001
GRADIENTCOLOR1ACI
1070
     5
1001
GRADIENTCOLOR2ACI
1070
     2
1001
ACAD
1010
0.0
1020
0.0
1030
0.0
  0
LINE
  5
13F1E
  8
0
  6
CONTINUOUS
 10
8669.2908778752535
 20
2154.124726982401171
 30
0.0
 11
8669.0281676537651947
 21
2153.8620167609128657
 31
0.0
1001
GRADIENTCOLOR1ACI
1070
     5
1001
GRADIENTCOLOR2ACI
1070
     2
1001
ACAD
1010
0.0
1020
0.0
1030
0.0
  0
LINE
  5
13F1F
  8
0
  6
CONTINUOUS
 10
8669.2908778752535
 20
2154.0893716433420195
 30
0.0
 11
8669.0622411555777944
 21
2153.8607349236640403
 31
0.0
1001
GRADIENTCOLOR1ACI
1070
     5
1001
GRADIENTCOLOR2ACI
1070
     2
1001
ACAD
1010
0.0
1020
0.0
1030
0.0
  0
LINE
  5
13F20
  8
0
  6
CONTINUOUS
 10
8669.2908778752535
 20
2154.0540163042819586
 30
0.0
 11
8669.0962611522045336
 21
2153.8593995812320827
 31
0.0
1001
GRADIENTCOLOR1ACI
1070
     5
1001
GRADIENTCOLOR2ACI
1070
     2
1001
ACAD
1010
0.0
1020
0.0
1030
0.0
  0
LINE
  5
13F21
  8
0
  6
CONTINUOUS
 10
8669.2908778752535
 20
2154.0186609652228071
 30
0.0
 11
8669.1295922473018436
 21
2153.8573753372711508
 31
0.0
1001
GRADIENTCOLOR1ACI
1070
     5
1001
GRADIENTCOLOR2ACI
1070
     2
1001
ACAD
1010
0.0
1020
0.0
1030
0.0
  0
LINE
  5
13F22
  8
0
  6
CONTINUOUS
 10
8669.2908778752535
 20
2153.9833056261632009
 30
0.0
 11
8669.1620302675637504
 21
2153.8544580184729966
 31
0.0
1001
GRADIENTCOLOR1ACI
1070
     5
1001
GRADIENTCOLOR2ACI
1070
     2
1001
ACAD
1010
0.0
1020
0.0
1030
0.0
  0
LINE
  5
13F23
  8
0
  6
CONTINUOUS
 10
8669.2908778752535
 20
2153.9479502871040495
 30
0.0
 11
8669.1937308298802236
 21
2153.8508032417339564
 31
0.0
1001
GRADIENTCOLOR1ACI
1070
     5
1001
GRADIENTCOLOR2ACI
1070
     2
1001
ACAD
1010
0.0
1020
0.0
1030
0.0
  0
LINE
  5
13F24
  8
0
  6
CONTINUOUS
 10
8669.2908778752535
 20
2153.912594948044898
 30
0.0
 11
8669.2248852258544503
 21
2153.8466022986458484
 31
0.0
1001
GRADIENTCOLOR1ACI
1070
     5
1001
GRADIENTCOLOR2ACI
1070
     2
1001
ACAD
1010
0.0
1020
0.0
1030
0.0
  0
LINE
  5
13F25
  8
0
 10
8668.5554091373342089
 20
2153.8441336954510916
 30
0.0
 11
8668.5034763004532579
 21
2153.8960665323311332
 31
0.0
  0
LINE
  5
13F26
  8
0
  6
CONTINUOUS
 10
8669.2908778753899242
 20
2153.8772396091221708
 30
0.0
 11
8669.2538284344263957
 21
2153.8401901681590971
 31
0.0
1001
GRADIENTCOLOR1ACI
1070
     5
1001
GRADIENTCOLOR2ACI
1070
     2
1001
ACAD
1010
0.0
1020
0.0
1030
0.0
  0
ENDSEC
  0
EOF
