  0
SECTION
  2
HEADER
  9
$ACADVER
  1
AC1009
  9
$INSBASE
 10
8668.9017724529767293
 20
2155.9031320351678005
 30
0.0
  9
$EXTMIN
 10
8662.3325190448449575
 20
2153.805440243304929
 30
0.0
  9
$EXTMAX
 10
8675.4710258612103644
 20
2157.0842347298671484
 30
0.0
  9
$LIMMIN
 10
0.0
 20
0.0
  9
$LIMMAX
 10
11.6929133858000007
 20
8.2677165353999982
  9
$ORTHOMODE
 70
     0
  9
$REGENMODE
 70
     1
  9
$FILLMODE
 70
     1
  9
$QTEXTMODE
 70
     0
  9
$MIRRTEXT
 70
     0
  9
$DRAGMODE
 70
     2
  9
$LTSCALE
 40
0.6431102362
  9
$OSMODE
 70
  4095
  9
$ATTMODE
 70
     1
  9
$TEXTSIZE
 40
0.2
  9
$TRACEWID
 40
0.05
  9
$TEXTSTYLE
  7
STANDARD
  9
$CLAYER
  8
0
  9
$CELTYPE
  6
BYLAYER
  9
$CECOLOR
 62
   256
  9
$DIMSCALE
 40
1.0
  9
$DIMASZ
 40
0.1875
  9
$DIMEXO
 40
0.0625
  9
$DIMDLI
 40
0.4443307087
  9
$DIMRND
 40
0.0
  9
$DIMDLE
 40
0.0
  9
$DIMEXE
 40
0.125
  9
$DIMTP
 40
0.01
  9
$DIMTM
 40
0.01
  9
$DIMTXT
 40
2.0
  9
$DIMCEN
 40
0.1052362205
  9
$DIMTSZ
 40
0.0
  9
$DIMTOL
 70
     1
  9
$DIMLIM
 70
     0
  9
$DIMTIH
 70
     1
  9
$DIMTOH
 70
     1
  9
$DIMSE1
 70
     0
  9
$DIMSE2
 70
     0
  9
$DIMTAD
 70
     0
  9
$DIMZIN
 70
     0
  9
$DIMBLK
  1

  9
$DIMASO
 70
     1
  9
$DIMSHO
 70
     1
  9
$DIMPOST
  1
\X
  9
$DIMAPOST
  1

  9
$DIMALT
 70
     1
  9
$DIMALTD
 70
     2
  9
$DIMALTF
 40
25.3999999999999986
  9
$DIMLFAC
 40
1.0
  9
$DIMTOFL
 70
     0
  9
$DIMTVP
 40
0.0
  9
$DIMTIX
 70
     0
  9
$DIMSOXD
 70
     0
  9
$DIMSAH
 70
     0
  9
$DIMBLK1
  1

  9
$DIMBLK2
  1

  9
$DIMSTYLE
  2
STANDARD
  9
$DIMCLRD
 70
     0
  9
$DIMCLRE
 70
     0
  9
$DIMCLRT
 70
     0
  9
$DIMTFAC
 40
1.0
  9
$DIMGAP
 40
0.09
  9
$LUNITS
 70
     2
  9
$LUPREC
 70
     4
  9
$SKETCHINC
 40
0.1
  9
$FILLETRAD
 40
0.0
  9
$AUNITS
 70
     0
  9
$AUPREC
 70
     0
  9
$MENU
  1
.
  9
$ELEVATION
 40
0.0
  9
$PELEVATION
 40
0.0
  9
$THICKNESS
 40
0.0
  9
$LIMCHECK
 70
     0
  9
$BLIPMODE
 70
     0
  9
$CHAMFERA
 40
0.0
  9
$CHAMFERB
 40
0.0
  9
$SKPOLY
 70
     0
  9
$TDCREATE
 40
2458060.468368056230247
  9
$TDUPDATE
 40
2460558.4345254627987742
  9
$TDINDWG
 40
0.4915811343
  9
$TDUSRTIMER
 40
0.4915811343
  9
$USRTIMER
 70
     1
  9
$ANGBASE
 50
0.0
  9
$ANGDIR
 70
     0
  9
$PDMODE
 70
     0
  9
$PDSIZE
 40
0.3125
  9
$PLINEWID
 40
0.0
  9
$COORDS
 70
     1
  9
$SPLFRAME
 70
     0
  9
$SPLINETYPE
 70
     6
  9
$SPLINESEGS
 70
     8
  9
$ATTDIA
 70
     1
  9
$ATTREQ
 70
     1
  9
$HANDLING
 70
     1
  9
$HANDSEED
  5
13DCE
  9
$SURFTAB1
 70
     6
  9
$SURFTAB2
 70
     6
  9
$SURFTYPE
 70
     6
  9
$SURFU
 70
     6
  9
$SURFV
 70
     6
  9
$UCSNAME
  2

  9
$UCSORG
 10
0.0
 20
0.0
 30
0.0
  9
$UCSXDIR
 10
1.0
 20
0.0
 30
0.0
  9
$UCSYDIR
 10
0.0
 20
1.0
 30
0.0
  9
$PUCSNAME
  2

  9
$PUCSORG
 10
0.0
 20
0.0
 30
0.0
  9
$PUCSXDIR
 10
1.0
 20
0.0
 30
0.0
  9
$PUCSYDIR
 10
0.0
 20
1.0
 30
0.0
  9
$USERI1
 70
     0
  9
$USERI2
 70
     0
  9
$USERI3
 70
     0
  9
$USERI4
 70
     0
  9
$USERI5
 70
     0
  9
$USERR1
 40
0.0
  9
$USERR2
 40
0.0
  9
$USERR3
 40
0.0
  9
$USERR4
 40
0.0
  9
$USERR5
 40
0.0
  9
$WORLDVIEW
 70
     1
  9
$SHADEDGE
 70
     3
  9
$SHADEDIF
 70
    70
  9
$TILEMODE
 70
     1
  9
$MAXACTVP
 70
    64
  9
$PLIMCHECK
 70
     0
  9
$PEXTMIN
 10
1.0000000000000000E+20
 20
1.0000000000000000E+20
 30
1.0000000000000000E+20
  9
$PEXTMAX
 10
-1.0000000000000000E+20
 20
-1.0000000000000000E+20
 30
-1.0000000000000000E+20
  9
$PLIMMIN
 10
0.0
 20
0.0
  9
$PLIMMAX
 10
12.0
 20
9.0
  9
$UNITMODE
 70
     0
  9
$VISRETAIN
 70
     1
  9
$PLINEGEN
 70
     0
  9
$PSLTSCALE
 70
     1
  0
ENDSEC
  0
SECTION
  2
TABLES
  0
TABLE
  2
VPORT
 70
     1
  0
VPORT
  2
*ACTIVE
 70
     0
 10
0.0
 20
0.0
 11
1.0
 21
1.0
 12
3853.5424827384740638
 22
1907.6543881107679681
 13
0.0
 23
0.0
 14
1.0
 24
1.0
 15
0.0
 25
0.0
 16
0.0
 26
0.0
 36
9.5192988075487186
 17
4815.2983398437490905
 27
247.8086242675780966
 37
0.0
 40
5.4421300399424908
 41
2.558981233243967
 42
50.0
 43
0.0
 44
0.0
 50
0.0
 51
0.0
 71
     0
 72
   100
 73
     1
 74
     1
 75
     0
 76
     0
 77
     0
 78
     0
  0
ENDTAB
  0
TABLE
  2
LTYPE
 70
     2
  0
LTYPE
  2
CONTINUOUS
 70
     0
  3
Solid line
 72
    65
 73
     0
 40
0.0
  0
LTYPE
  2
PHANTOM2
 70
     0
  3
___ _ _ ___ _ _ ___ _ _ ___ _ _
 72
    65
 73
     6
 40
1.25
 49
0.625
 49
-0.125
 49
0.125
 49
-0.125
 49
0.125
 49
-0.125
  0
ENDTAB
  0
TABLE
  2
LAYER
 70
     2
  0
LAYER
  2
0
 70
     0
 62
   255
  6
CONTINUOUS
  0
LAYER
  2
DEFPOINTS
 70
     0
 62
     7
  6
CONTINUOUS
  0
ENDTAB
  0
TABLE
  2
STYLE
 70
     1
  0
STYLE
  2
STANDARD
 70
     0
 40
0.0
 41
0.8
 50
0.0
 71
     0
 42
0.2
  3
txt
  4

  0
ENDTAB
  0
TABLE
  2
VIEW
 70
     2
  0
ENDTAB
  0
TABLE
  2
UCS
 70
     0
  0
ENDTAB
  0
TABLE
  2
APPID
 70
    12
  0
APPID
  2
ACAD
 70
     0
  0
APPID
  2
ACAD_MLEADERVER
 70
     0
  0
APPID
  2
ACAD_EXEMPT_FROM_CAD_STANDARDS
 70
     0
  0
APPID
  2
ACAD_NAV_VCDISPLAY
 70
     0
  0
APPID
  2
ACAECLAYERSTANDARD
 70
     0
  0
APPID
  2
ACCMTRANSPARENCY
 70
     0
  0
APPID
  2
ACAD_DSTYLE_DIMJAG
 70
     0
  0
APPID
  2
ACAD_DSTYLE_DIMTALN
 70
     0
  0
APPID
  2
ACDBATTR
 70
     0
  0
APPID
  2
ACADANNOTATIVE
 70
     0
  0
APPID
  2
GRADIENTCOLOR1ACI
 70
     0
  0
APPID
  2
GRADIENTCOLOR2ACI
 70
     0
  0
ENDTAB
  0
TABLE
  2
DIMSTYLE
 70
     1
  0
DIMSTYLE
  2
STANDARD
 70
     0
  3

  4

  5

  6

  7

 40
1.0
 41
0.1875
 42
0.0625
 43
0.38
 44
0.125
 45
0.0
 46
0.0
 47
0.01
 48
0.01
140
0.15625
141
0.09
142
0.0
143
25.3999999999999986
144
1.0
145
0.0
146
1.0
147
0.09
 71
     1
 72
     0
 73
     1
 74
     1
 75
     0
 76
     0
 77
     0
 78
     4
170
     0
171
     2
172
     0
173
     0
174
     0
175
     0
176
     0
177
     0
178
     0
  0
ENDTAB
  0
ENDSEC
  0
SECTION
  2
BLOCKS
  0
BLOCK
  8
0
  2
$MODEL_SPACE
 70
     0
 10
0.0
 20
0.0
 30
0.0
  3
$MODEL_SPACE
  1

  0
ENDBLK
  5
21
  8
0
  0
BLOCK
 67
     1
  8
0
  2
$PAPER_SPACE
 70
     0
 10
0.0
 20
0.0
 30
0.0
  3
$PAPER_SPACE
  1

  0
ENDBLK
  5
1D
 67
     1
  8
0
  0
BLOCK
  8
0
  2
_FILLED
 70
     0
 10
0.0
 20
0.0
 30
0.0
  3
_FILLED
  1

  0
SOLID
  5
13BBF
  8
0
  6
BYBLOCK
 62
     0
 10
0.0
 20
0.0
 30
0.0
 11
-1.0
 21
0.1666666667
 31
0.0
 12
-1.0
 22
-0.1666666667
 32
0.0
 13
-1.0
 23
-0.1666666667
 33
0.0
  0
ENDBLK
  5
13BC0
  8
0
  6
BYBLOCK
 62
     0
  0
ENDSEC
  0
SECTION
  2
ENTITIES
  0
ATTDEF
  5
3930
  8
DEFPOINTS
 10
8668.8980174826519942
 20
2155.9014334899147798
 30
0.0
 40
0.001
  1
P33354-LV
  3

  2
MODELNUMBER
 70
     0
1001
ACDBATTR
1070
     0
1070
     1
  0
ATTDEF
  5
3931
  8
DEFPOINTS
 10
8668.8980174826519942
 20
2155.8997668232477736
 30
0.0
 40
0.001
  1
AILERON
  3

  2
TRADENAME
 70
     0
1001
ACDBATTR
1070
     0
1070
     1
  0
ATTDEF
  5
3932
  8
DEFPOINTS
 10
8668.8980174826519942
 20
2155.8981001565812221
 30
0.0
 40
0.001
  1
BATHROOM SINK FAUCET
  3

  2
PRODUCT
 70
     0
1001
ACDBATTR
1070
     0
1070
     1
  0
LINE
  5
13C95
  8
0
 10
8668.5080716656138975
 20
2153.8609492509481242
 30
0.0
 11
8668.5080716655775177
 21
2155.9031320351678005
 31
0.0
  0
LINE
  5
13C96
  8
0
 10
8669.2954732404141396
 20
2153.8609516349301884
 30
0.0
 11
8669.2954732403777598
 21
2155.9031320351678005
 31
0.0
  0
ARC
  5
13C97
  8
0
 10
8668.9017724529767293
 20
2155.9031320351678005
 30
0.0
 40
1.1811023622000001
 50
289.4712206345204208
 51
250.5287793654796076
  0
ARC
  5
13C98
  8
0
 10
8668.9017724529767293
 20
2155.9031320351678005
 30
0.0
 40
0.3937007874000002
 50
0.0
 51
180.0
  0
ARC
  5
13C99
  8
0
 10
8668.9017724529767293
 20
2155.9031320351678005
 30
0.0
 40
0.4232283465000011
 50
338.4710955790055777
 51
201.5289044209943938
  0
ARC
  5
13C9A
  8
0
 10
8672.8387803270779841
 20
2155.9031323676667853
 30
0.0
 40
1.1811023622000001
 50
27.8181210495303901
 51
332.1818789504696952
  0
LINE
  5
13C9B
  8
0
 10
8674.9198450913081615
 20
2156.4543131375671692
 30
0.0
 11
8672.8381749054697138
 21
2156.4543131375671692
 31
0.0
  0
ARC
  5
13C9C
  8
0
 10
8674.9198450913081615
 20
2155.9031323676667853
 30
0.0
 40
0.5511807699000002
 50
270.0
 51
90.0
  0
LINE
  5
13C9D
  8
0
 10
8674.9198450913081615
 20
2155.3519515977668561
 30
0.0
 11
8672.8381749054697138
 21
2155.3519515977668561
 31
0.0
  0
ARC
  5
13C9E
  8
0
 10
8674.8648058297330863
 20
2155.9031323676667853
 30
0.0
 40
0.5511807699000002
 50
270.0
 51
90.0
  0
ARC
  5
13C9F
  8
0
 10
8672.8387803270779841
 20
2155.9031323676667853
 30
0.0
 40
0.5511811024000003
 50
90.0629341423128835
 51
269.9370658576871165
  0
ARC
  5
13CA0
  8
0
 10
8672.8387803270779841
 20
2155.9031323676667853
 30
0.0
 40
0.5767716534999991
 50
72.8684240876633567
 51
287.1315759123365865
  0
CIRCLE
  5
13CA2
  8
0
 10
8672.8387803270779841
 20
2155.9031320351678005
 30
0.0
 40
0.1771653543000013
  0
CIRCLE
  5
13CA3
  8
0
 10
8672.8387803270779841
 20
2155.9031320351678005
 30
0.0
 40
0.1496062991999985
  0
LINE
  5
13CA4
  8
0
 10
8672.8387803270779841
 20
2155.9690499792668561
 30
0.0
 11
8672.8958669411767914
 21
2155.9360910072678053
 31
0.0
  0
LINE
  5
13CA5
  8
0
 10
8672.8958669411767914
 20
2155.9360910072678053
 30
0.0
 11
8672.8958669411767914
 21
2155.8701730630677957
 31
0.0
  0
LINE
  5
13CA6
  8
0
 10
8672.8958669411767914
 20
2155.8701730630677957
 30
0.0
 11
8672.8387803270779841
 21
2155.8372140910669259
 31
0.0
  0
LINE
  5
13CA7
  8
0
 10
8672.8387803270779841
 20
2155.8372140910669259
 30
0.0
 11
8672.7816937128773134
 21
2155.8701730630677957
 31
0.0
  0
LINE
  5
13CA8
  8
0
 10
8672.7816937128773134
 20
2155.8701730630677957
 30
0.0
 11
8672.7816937128773134
 21
2155.9360910072678053
 31
0.0
  0
LINE
  5
13CA9
  8
0
 10
8672.7816937128773134
 20
2155.9360910072678053
 30
0.0
 11
8672.8387803270779841
 21
2155.9690499792668561
 31
0.0
  0
LINE
  5
13CAA
  8
0
 10
8672.8387803270779841
 20
2155.959957849067905
 30
0.0
 11
8672.789567728577822
 21
2155.9315449420669211
 31
0.0
  0
LINE
  5
13CAB
  8
0
 10
8672.789567728577822
 20
2155.9315449420669211
 30
0.0
 11
8672.789567728577822
 21
2155.8747191281668165
 31
0.0
  0
LINE
  5
13CAC
  8
0
 10
8672.789567728577822
 20
2155.8747191281668165
 30
0.0
 11
8672.8387803270779841
 21
2155.8463062212667865
 31
0.0
  0
LINE
  5
13CAD
  8
0
 10
8672.8387803270779841
 20
2155.8463062212667865
 30
0.0
 11
8672.8879929254781018
 21
2155.8747191281668165
 31
0.0
  0
LINE
  5
13CAE
  8
0
 10
8672.8879929254781018
 20
2155.8747191281668165
 30
0.0
 11
8672.8879929254781018
 21
2155.9315449420669211
 31
0.0
  0
LINE
  5
13CAF
  8
0
 10
8672.8879929254781018
 20
2155.9315449420669211
 30
0.0
 11
8672.8387803270779841
 21
2155.959957849067905
 31
0.0
  0
LINE
  5
13CB0
  8
0
 10
8672.8387803270779841
 20
2155.959957849067905
 30
0.0
 11
8672.8387803270779841
 21
2155.9690499792668561
 31
0.0
  0
LINE
  5
13CB1
  8
0
 10
8672.789567728577822
 20
2155.9315449420669211
 30
0.0
 11
8672.7816937128773134
 21
2155.9360910072678053
 31
0.0
  0
LINE
  5
13CB2
  8
0
 10
8672.789567728577822
 20
2155.8747191281668165
 30
0.0
 11
8672.7816937128773134
 21
2155.8701730630677957
 31
0.0
  0
LINE
  5
13CB3
  8
0
 10
8672.8387803270779841
 20
2155.8372140910669259
 30
0.0
 11
8672.8387803270779841
 21
2155.8463062212667865
 31
0.0
  0
LINE
  5
13CB4
  8
0
 10
8672.8958669411767914
 20
2155.8701730630677957
 30
0.0
 11
8672.8879929254781018
 21
2155.8747191281668165
 31
0.0
  0
LINE
  5
13CB5
  8
0
 10
8672.8958669411767914
 20
2155.9360910072678053
 30
0.0
 11
8672.8879929254781018
 21
2155.9315449420669211
 31
0.0
  0
ARC
  5
13CB6
  8
0
 10
8664.9647645789773378
 20
2155.9031323676667853
 30
0.0
 40
1.1811023622000001
 50
207.8181210495303901
 51
152.1818789504696099
  0
LINE
  5
13CB7
  8
0
 10
8662.8836998147453414
 20
2156.4543131375671692
 30
0.0
 11
8664.9653700005856081
 21
2156.4543131375671692
 31
0.0
  0
ARC
  5
13CB8
  8
0
 10
8662.8836998147453414
 20
2155.9031323676667853
 30
0.0
 40
0.5511807699000002
 50
90.0
 51
270.0
  0
LINE
  5
13CB9
  8
0
 10
8662.8836998147453414
 20
2155.3519515977668561
 30
0.0
 11
8664.9653700005856081
 21
2155.3519515977668561
 31
0.0
  0
ARC
  5
13CBA
  8
0
 10
8662.9387390763222356
 20
2155.9031323676667853
 30
0.0
 40
0.5511807699000002
 50
90.0
 51
270.0
  0
ARC
  5
13CBB
  8
0
 10
8664.9647645789773378
 20
2155.9031323676667853
 30
0.0
 40
0.5511811024000003
 50
270.0629341423128835
 51
89.9370658576871165
  0
ARC
  5
13CBC
  8
0
 10
8664.9647645789773378
 20
2155.9031323676667853
 30
0.0
 40
0.5767716534999991
 50
252.8684240876632998
 51
107.1315759123366007
  0
CIRCLE
  5
13CBD
  8
0
 10
8664.9647645789773378
 20
2155.9031320351678005
 30
0.0
 40
0.1771653543000013
  0
CIRCLE
  5
13CBE
  8
0
 10
8664.9647645789773378
 20
2155.9031320351678005
 30
0.0
 40
0.1496062991999985
  0
LINE
  5
13CBF
  8
0
 10
8664.9647645789773378
 20
2155.9690499792668561
 30
0.0
 11
8664.9076779648785305
 21
2155.9360910072678053
 31
0.0
  0
LINE
  5
13CC0
  8
0
 10
8664.9076779648785305
 20
2155.9360910072678053
 30
0.0
 11
8664.9076779648785305
 21
2155.8701730630677957
 31
0.0
  0
LINE
  5
13CC1
  8
0
 10
8664.9076779648785305
 20
2155.8701730630677957
 30
0.0
 11
8664.9647645789773378
 21
2155.8372140910669259
 31
0.0
  0
LINE
  5
13CC2
  8
0
 10
8664.9647645789773378
 20
2155.8372140910669259
 30
0.0
 11
8665.0218511931798275
 21
2155.8701730630677957
 31
0.0
  0
LINE
  5
13CC3
  8
0
 10
8665.0218511931798275
 20
2155.8701730630677957
 30
0.0
 11
8665.0218511931798275
 21
2155.9360910072678053
 31
0.0
  0
LINE
  5
13CC4
  8
0
 10
8665.0218511931798275
 20
2155.9360910072678053
 30
0.0
 11
8664.9647645789773378
 21
2155.9690499792668561
 31
0.0
  0
LINE
  5
13CC5
  8
0
 10
8664.9647645789773378
 20
2155.959957849067905
 30
0.0
 11
8665.0139771774774999
 21
2155.9315449420669211
 31
0.0
  0
LINE
  5
13CC6
  8
0
 10
8665.0139771774774999
 20
2155.9315449420669211
 30
0.0
 11
8665.0139771774774999
 21
2155.8747191281668165
 31
0.0
  0
LINE
  5
13CC7
  8
0
 10
8665.0139771774774999
 20
2155.8747191281668165
 30
0.0
 11
8664.9647645789773378
 21
2155.8463062212667865
 31
0.0
  0
LINE
  5
13CC8
  8
0
 10
8664.9647645789773378
 20
2155.8463062212667865
 30
0.0
 11
8664.9155519805772201
 21
2155.8747191281668165
 31
0.0
  0
LINE
  5
13CC9
  8
0
 10
8664.9155519805772201
 20
2155.8747191281668165
 30
0.0
 11
8664.9155519805772201
 21
2155.9315449420669211
 31
0.0
  0
LINE
  5
13CCA
  8
0
 10
8664.9155519805772201
 20
2155.9315449420669211
 30
0.0
 11
8664.9647645789773378
 21
2155.959957849067905
 31
0.0
  0
LINE
  5
13CCB
  8
0
 10
8664.9647645789773378
 20
2155.959957849067905
 30
0.0
 11
8664.9647645789773378
 21
2155.9690499792668561
 31
0.0
  0
LINE
  5
13CCC
  8
0
 10
8665.0139771774774999
 20
2155.9315449420669211
 30
0.0
 11
8665.0218511931798275
 21
2155.9360910072678053
 31
0.0
  0
LINE
  5
13CCD
  8
0
 10
8665.0139771774774999
 20
2155.8747191281668165
 30
0.0
 11
8665.0218511931798275
 21
2155.8701730630677957
 31
0.0
  0
LINE
  5
13CCE
  8
0
 10
8664.9647645789773378
 20
2155.8372140910669259
 30
0.0
 11
8664.9647645789773378
 21
2155.8463062212667865
 31
0.0
  0
LINE
  5
13CCF
  8
0
 10
8664.9076779648785305
 20
2155.8701730630677957
 30
0.0
 11
8664.9155519805772201
 21
2155.8747191281668165
 31
0.0
  0
LINE
  5
13CD0
  8
0
 10
8664.9076779648785305
 20
2155.9360910072678053
 30
0.0
 11
8664.9155519805772201
 21
2155.9315449420669211
 31
0.0
  0
ARC
  5
13CD1
  8
0
 10
8668.9017724529767293
 20
2155.9031320351678005
 30
0.0
 40
0.4035433071000002
 50
347.3196164987214729
 51
192.6803835012784134
  0
ARC
  5
13CD2
  8
0
 10
8668.892730152414515
 20
2150.2273166795948782
 30
0.0
 40
3.6424076777683529
 50
90.5846187759341746
 51
92.6168819060535782
  0
ARC
  5
13CD3
  8
0
 10
8668.8310811638893938
 20
2151.5761625636341705
 30
0.0
 40
2.292153695482761
 50
92.6168819060535782
 51
94.3576971750550655
  0
ARC
  5
13CD4
  8
0
 10
8668.7593098068518884
 20
2152.5180049106638762
 30
0.0
 40
1.3475807050007651
 50
94.3576971750550655
 51
96.837981317829005
  0
ARC
  5
13CD5
  8
0
 10
8668.6604897405759402
 20
2153.3420880991570812
 30
0.0
 40
0.5175936526582664
 50
96.837981317829005
 51
100.3179750780936956
  0
ARC
  5
13CD6
  8
0
 10
8668.6110820482554118
 20
2153.6134770661710718
 30
0.0
 40
0.2417438901466609
 50
100.3179750780936956
 51
104.1833177821305014
  0
ARC
  5
13CD7
  8
0
 10
8668.5753714585498528
 20
2153.7547769270008757
 30
0.0
 40
0.0960013195380226
 50
104.1833177821305014
 51
110.8849198740114019
  0
ARC
  5
13CD8
  8
0
 10
8668.5515218708078464
 20
2153.8172821822681726
 30
0.0
 40
0.0291005738662966
 50
110.8849198740114019
 51
123.1610607447155985
  0
ARC
  5
13CD9
  8
0
 10
8668.5407166080603929
 20
2153.8338188724160318
 30
0.0
 40
0.0093466926239469
 50
123.1610607447155985
 51
141.1473820642235921
  0
ARC
  5
13CDA
  8
0
 10
8668.5360001916833426
 20
2153.8376181051598905
 30
0.0
 40
0.0032903940134677
 50
141.1473820642235921
 51
219.3320448591946104
  0
ARC
  5
13CDB
  8
0
 10
8668.5411832458048593
 20
2153.8418652288391968
 30
0.0
 40
0.0099912976519173
 50
219.3320448591946104
 51
223.9708820346208995
  0
ARC
  5
13CDC
  8
0
 10
8668.5411832458048593
 20
2153.8418652288391968
 30
0.0
 40
0.0099912976519173
 50
225.8085220627675085
 51
235.9295412489096009
  0
ARC
  5
13CDD
  8
0
 10
8668.5487610023465095
 20
2153.8530699682150953
 30
0.0
 40
0.0235178854954991
 50
235.9295412489096009
 51
248.0043271331020946
  0
ARC
  5
13CDE
  8
0
 10
8668.5763063165104541
 20
2153.9212618402571024
 30
0.0
 40
0.0970629447778234
 50
248.0043271331020946
 51
258.4427688602422108
  0
ARC
  5
13CDF
  8
0
 10
8668.671266309254861
 20
2154.3856303932611809
 30
0.0
 40
0.5710413759759886
 50
258.4427688602422108
 51
264.3405657863003171
  0
ARC
  5
13CE0
  8
0
 10
8668.8266377867948904
 20
2155.9534831286650842
 30
0.0
 40
2.146573824371925
 50
264.3405657863003171
 51
266.2572548075884811
  0
ARC
  5
13CE1
  8
0
 10
8668.8697808665674529
 20
2156.6129988764578229
 30
0.0
 40
2.8074991960433242
 50
266.2572548075884811
 51
270.181072346565486
  0
ARC
  5
13CE2
  8
0
 10
8668.9028331392273685
 20
2157.7850710348398025
 30
0.0
 40
3.9796307915358629
 50
269.6518760904789929
 51
272.1246098820615771
  0
ARC
  5
13CE3
  8
0
 10
8669.0003343312200741
 20
2155.6046239678371421
 30
0.0
 40
1.7971446448572079
 50
271.5954136260543237
 51
275.6791079612610247
  0
ARC
  5
13CE4
  8
0
 10
8669.0962489409357659
 20
2154.6401250487720063
 30
0.0
 40
0.827888343750677
 50
275.6791079612610247
 51
280.1877345289888126
  0
ARC
  5
13CE5
  8
0
 10
8669.2237366663048306
 20
2153.9307067266381637
 30
0.0
 40
0.1071057996365073
 50
280.1877345289888126
 51
292.2697634790995949
  0
ARC
  5
13CE6
  8
0
 10
8669.2577103222720325
 20
2153.8477457166300155
 30
0.0
 40
0.0174579414289395
 50
292.2697634790995949
 51
313.9609919087853882
  0
ARC
  5
13CE7
  8
0
 10
8669.2674959112973738
 20
2153.8375986265409665
 30
0.0
 40
0.0033610910776516
 50
313.9609919087853882
 51
44.4687913825728174
  0
ARC
  5
13CE8
  8
0
 10
8669.258386688417886
 20
2153.8286567661789377
 30
0.0
 40
0.0161256830474189
 50
44.4687913825728174
 51
68.4140446025840845
  0
ARC
  5
13CE9
  8
0
 10
8669.2167881881523499
 20
2153.7235156566498517
 30
0.0
 40
0.1291968470868635
 50
68.4140446025840845
 51
81.5551162391511326
  0
ARC
  5
13CEA
  8
0
 10
8668.9931386980006209
 20
2152.2171307981889186
 30
0.0
 40
1.65209357249074
 50
81.5551162391511326
 51
83.824299546568966
  0
ARC
  5
13CEB
  8
0
 10
8669.0486740984160861
 20
2152.7303700715087871
 30
0.0
 40
1.1358584202811739
 50
83.824299546568966
 51
88.4382222751583242
  0
ARC
  5
13CEC
  8
0
 10
8668.9023891945907963
 20
2149.9485715916562185
 30
0.0
 40
3.921242731145739
 50
87.4093142902360256
 51
90.684188473822914
  0
ARC
  5
13CED
  8
0
 10
8668.897982374741332
 20
2150.3012280635730349
 30
0.0
 40
3.5661017680755092
 50
90.3536247382845943
 51
92.1867631911873957
  0
ARC
  5
13CEE
  8
0
 10
8668.8538020745127142
 20
2151.4582420140181966
 30
0.0
 40
2.4082446177955839
 50
92.1867631911873957
 51
94.1228571731314361
  0
ARC
  5
13CEF
  8
0
 10
8668.768426593123877
 20
2152.6426655458321875
 30
0.0
 40
1.2207480596801199
 50
94.1228571731314361
 51
97.1011048935104242
  0
ARC
  5
13CF0
  8
0
 10
8668.6674702290656569
 20
2153.4530642439458461
 30
0.0
 40
0.404085193284364
 50
97.1011048935104242
 51
101.7569258296159944
  0
ARC
  5
13CF1
  8
0
 10
8668.6099797175556887
 20
2153.7292930577900734
 30
0.0
 40
0.1219371532216513
 50
101.7569258296159944
 51
109.7347739528573953
  0
ARC
  5
13CF2
  8
0
 10
8668.5770933973399224
 20
2153.8209656380468004
 30
0.0
 40
0.0245442785939086
 50
109.7347739528573953
 51
125.8396177326053049
  0
ARC
  5
13CF3
  8
0
 10
8668.5661911528313794
 20
2153.8360599629641001
 30
0.0
 40
0.0059244617318609
 50
125.8396177326053049
 51
149.0324810839580891
  0
ARC
  5
13CF4
  8
0
 10
8668.5635872119928536
 20
2153.8376225600250109
 30
0.0
 40
0.0028876513203979
 50
149.0324810839580891
 51
205.609724013276292
  0
ARC
  5
13CF5
  8
0
 10
8668.5655265598234109
 20
2153.8385521445438826
 30
0.0
 40
0.0050382785277392
 50
205.609724013276292
 51
237.1395019738378949
  0
ARC
  5
13CF6
  8
0
 10
8668.582836913095889
 20
2153.8653503703631031
 30
0.0
 40
0.0369411504587639
 50
237.1395019738378949
 51
252.12650534305061
  0
ARC
  5
13CF7
  8
0
 10
8668.615997936554777
 20
2153.9681814958321411
 30
0.0
 40
0.1449869455754475
 50
252.12650534305061
 51
260.0990227079722104
  0
ARC
  5
13CF8
  8
0
 10
8668.7136296964072244
 20
2154.5275299247578005
 30
0.0
 40
0.7127920401916543
 50
260.0990227079722104
 51
264.5080304401965918
  0
ARC
  5
13CF9
  8
0
 10
8668.8142152523487312
 20
2155.5736877411300156
 30
0.0
 40
1.7637742621252199
 50
264.5080304401965918
 51
267.3717419521607894
  0
ARC
  5
13CFA
  8
0
 10
8668.9050416005884472
 20
2157.5523046510897984
 30
0.0
 40
3.744474719518649
 50
267.3717419521607894
 51
269.1420102597215873
  0
ARC
  5
13CFB
  8
0
 10
8668.90246580400526
 20
2157.3803081404957993
 30
0.0
 40
3.5724589226141559
 50
269.1420102597215873
 51
271.1460893058650186
  0
ARC
  5
13CFC
  8
0
 10
8668.9036485570468358
 20
2157.3211873384830142
 30
0.0
 40
3.513326290883386
 50
271.1460893058650186
 51
272.9586347983390056
  0
ARC
  5
13CFD
  8
0
 10
8669.0041357854624948
 20
2155.3769204177228858
 30
0.0
 40
1.566464317800623
 50
272.9586347983390056
 51
276.1302488693769988
  0
ARC
  5
13CFE
  8
0
 10
8669.1117721710452315
 20
2154.3747490400528477
 30
0.0
 40
0.558529269435414
 50
276.1302488693769988
 51
280.5766112107440904
  0
ARC
  5
13CFF
  8
0
 10
8669.188302293749075
 20
2153.9648886941440651
 30
0.0
 40
0.1415851930537057
 50
280.5766112107440904
 51
288.759213957374584
  0
ARC
  5
13D00
  8
0
 10
8669.2251229243338457
 20
2153.8564758952488774
 30
0.0
 40
0.0270902420693775
 50
288.759213957374584
 51
306.0252596857653771
  0
ARC
  5
13D01
  8
0
 10
8669.2382533720901847
 20
2153.8384201293069964
 30
0.0
 40
0.0047649348585157
 50
306.0252596857499725
 51
339.3015291365452981
  0
ARC
  5
13D02
  8
0
 10
8669.2402472734083858
 20
2153.8376667575948886
 30
0.0
 40
0.0026334538242662
 50
339.3015291365452981
 51
38.0471374455762117
  0
ARC
  5
13D03
  8
0
 10
8669.2337323436604493
 20
2153.8325680995221774
 30
0.0
 40
0.0109063386725954
 50
38.0471374455762117
 51
65.867810064437208
  0
ARC
  5
13D04
  8
0
 10
8669.2050706995596556
 20
2153.7685906477718163
 30
0.0
 40
0.0810105765991427
 50
65.867810064437208
 51
75.4654400899669469
  0
ARC
  5
13D05
  8
0
 10
8669.1801129482319084
 20
2153.6723257605158324
 30
0.0
 40
0.1804581400176033
 50
75.4654400899669469
 51
78.0927062703632231
  0
ARC
  5
13D06
  8
0
 10
8669.0842426443941804
 20
2153.125805967883025
 30
0.0
 40
0.7352435009918061
 50
79.5700120722194413
 51
85.9371781504798662
  0
ARC
  5
13D07
  8
0
 10
8668.9680675419094769
 20
2151.7713903811782075
 30
0.0
 40
2.0945811742125531
 50
85.3922034635848348
 51
87.4578377266820439
  0
ARC
  5
13D08
  8
0
 10
8668.9031655773469538
 20
2150.2609807043650108
 30
0.0
 40
3.6063837269490282
 50
87.492081952046064
 51
90.4320239646826565
  0
ARC
  5
13D09
  8
0
 10
8668.6685011595145625
 20
2154.1747013057070035
 30
0.0
 40
0.3360358012088993
 50
255.8258580727473941
 51
264.2840563857809002
  0
ARC
  5
13D0A
  8
0
 10
8668.8659145899746363
 20
2156.1469753978899462
 30
0.0
 40
2.318165251375897
 50
264.2840563857809002
 51
267.0961736795471211
  0
ARC
  5
13D0B
  8
0
 10
8668.8959441796996543
 20
2156.7389857871089589
 30
0.0
 40
2.9109367732985398
 50
267.0961736795471211
 51
271.7800924036226888
  0
ARC
  5
13D0C
  8
0
 10
8668.8685832055707579
 20
2157.619369248230214
 30
0.0
 40
3.7917453004609292
 50
271.7800924036226888
 51
274.0965029160926747
  0
ARC
  5
13D0D
  8
0
 10
8669.0914530650043162
 20
2154.4486589279290456
 30
0.0
 40
0.6132290400260207
 50
274.4893161059521844
 51
281.9389172656788105
  0
LINE
  5
13D0E
  8
0
 10
8668.5080716656138975
 20
2153.8609492509481242
 30
0.0
 11
8668.5342187272181036
 21
2153.8347013255997808
 31
0.0
  0
LINE
  5
13D0F
  8
0
 10
8669.2954732404141396
 20
2153.8609516349301884
 30
0.0
 11
8669.2700308948478778
 21
2153.8353916395390115
 31
0.0
  0
ARC
  5
13D10
  8
0
 10
8668.6905913654154574
 20
2153.6985392013939418
 30
0.0
 40
0.7941768092963422
 50
92.4612219036375222
 51
103.2866218135661001
  0
ARC
  5
13D11
  8
0
 10
8668.8902585424420977
 20
2150.8354581078829142
 30
0.0
 40
3.6639904979823421
 50
89.9684463548627349
 51
93.6580976116288753
  0
ARC
  5
13D12
  8
0
 10
8668.905109621482552
 20
2150.4295446471392097
 30
0.0
 40
4.0699236360519881
 50
87.351266810006635
 51
90.1806650897129884
  0
ARC
  5
13D13
  8
0
 10
8669.0161326293819002
 20
2152.6795562370889456
 30
0.0
 40
1.8171984318076611
 50
83.3304928343931266
 51
87.5696231582095379
  0
ARC
  5
13D14
  8
0
 10
8669.2001379697903758
 20
2154.2018203736411124
 30
0.0
 40
0.2839278703645547
 50
70.3804585180440654
 51
84.5335061557961467
  0
LINE
  5
13D15
  8
0
  6
CONTINUOUS
 10
8668.5080716654774733
 20
2153.9349867880409874
 30
0.0
 11
8668.5884189086864353
 21
2153.8546395448311159
 31
0.0
1001
GRADIENTCOLOR1ACI
1070
     5
1001
GRADIENTCOLOR2ACI
1070
     2
1001
ACAD
1010
0.0
1020
0.0
1030
0.0
  0
LINE
  5
13D16
  8
0
  6
CONTINUOUS
 10
8668.5080716654774733
 20
2153.9703421271001389
 30
0.0
 11
8668.6200437381558004
 21
2153.8583700544209023
 31
0.0
1001
GRADIENTCOLOR1ACI
1070
     5
1001
GRADIENTCOLOR2ACI
1070
     2
1001
ACAD
1010
0.0
1020
0.0
1030
0.0
  0
LINE
  5
13D17
  8
0
  6
CONTINUOUS
 10
8668.5080716654774733
 20
2154.0056974661588356
 30
0.0
 11
8668.652428747034719
 21
2153.8613403846020447
 31
0.0
1001
GRADIENTCOLOR1ACI
1070
     5
1001
GRADIENTCOLOR2ACI
1070
     2
1001
ACAD
1010
0.0
1020
0.0
1030
0.0
  0
LINE
  5
13D18
  8
0
  6
CONTINUOUS
 10
8668.5080716654774733
 20
2154.0410528052188965
 30
0.0
 11
8668.6854398479736119
 21
2153.8636846227218484
 31
0.0
1001
GRADIENTCOLOR1ACI
1070
     5
1001
GRADIENTCOLOR2ACI
1070
     2
1001
ACAD
1010
0.0
1020
0.0
1030
0.0
  0
LINE
  5
13D19
  8
0
  6
CONTINUOUS
 10
8668.5080716654774733
 20
2154.076408144278048
 30
0.0
 11
8668.7189098636063136
 21
2153.8655699461478434
 31
0.0
1001
GRADIENTCOLOR1ACI
1070
     5
1001
GRADIENTCOLOR2ACI
1070
     2
1001
ACAD
1010
0.0
1020
0.0
1030
0.0
  0
LINE
  5
13D1A
  8
0
  6
CONTINUOUS
 10
8668.5080716654774733
 20
2154.1117634833371994
 30
0.0
 11
8668.7527996417229588
 21
2153.8670355070921687
 31
0.0
1001
GRADIENTCOLOR1ACI
1070
     5
1001
GRADIENTCOLOR2ACI
1070
     2
1001
ACAD
1010
0.0
1020
0.0
1030
0.0
  0
LINE
  5
13D1B
  8
0
  6
CONTINUOUS
 10
8668.5080716654774733
 20
2154.1471188223958961
 30
0.0
 11
8668.7870009691305313
 21
2153.8681895187451119
 31
0.0
1001
GRADIENTCOLOR1ACI
1070
     5
1001
GRADIENTCOLOR2ACI
1070
     2
1001
ACAD
1010
0.0
1020
0.0
1030
0.0
  0
LINE
  5
13D1C
  8
0
  6
CONTINUOUS
 10
8668.5080716654774733
 20
2154.1824741614550476
 30
0.0
 11
8668.8215176714493282
 21
2153.8690281554831927
 31
0.0
1001
GRADIENTCOLOR1ACI
1070
     5
1001
GRADIENTCOLOR2ACI
1070
     2
1001
ACAD
1010
0.0
1020
0.0
1030
0.0
  0
LINE
  5
13D1D
  8
0
  6
CONTINUOUS
 10
8668.5080716654774733
 20
2154.2178295005151085
 30
0.0
 11
8668.8563570422320481
 21
2153.8695441237600789
 31
0.0
1001
GRADIENTCOLOR1ACI
1070
     5
1001
GRADIENTCOLOR2ACI
1070
     2
1001
ACAD
1010
0.0
1020
0.0
1030
0.0
  0
LINE
  5
13D1E
  8
0
  6
CONTINUOUS
 10
8668.5080716654774733
 20
2154.2531848395738052
 30
0.0
 11
8668.8914574202663061
 21
2153.8697990847858819
 31
0.0
1001
GRADIENTCOLOR1ACI
1070
     5
1001
GRADIENTCOLOR2ACI
1070
     2
1001
ACAD
1010
0.0
1020
0.0
1030
0.0
  0
LINE
  5
13D1F
  8
0
  6
CONTINUOUS
 10
8668.5080716654774733
 20
2154.2885401786338662
 30
0.0
 11
8668.926873965165214
 21
2153.8697378789452159
 31
0.0
1001
GRADIENTCOLOR1ACI
1070
     5
1001
GRADIENTCOLOR2ACI
1070
     2
1001
ACAD
1010
0.0
1020
0.0
1030
0.0
  0
LINE
  5
13D20
  8
0
  6
CONTINUOUS
 10
8668.5080716654774733
 20
2154.3238955176930176
 30
0.0
 11
8668.962615393449596
 21
2153.8693517897208949
 31
0.0
1001
GRADIENTCOLOR1ACI
1070
     5
1001
GRADIENTCOLOR2ACI
1070
     2
1001
ACAD
1010
0.0
1020
0.0
1030
0.0
  0
LINE
  5
13D21
  8
0
  6
CONTINUOUS
 10
8668.5080716654774733
 20
2154.3592508567521691
 30
0.0
 11
8668.9986909137587645
 21
2153.8686316084731516
 31
0.0
1001
GRADIENTCOLOR1ACI
1070
     5
1001
GRADIENTCOLOR2ACI
1070
     2
1001
ACAD
1010
0.0
1020
0.0
1030
0.0
  0
LINE
  5
13D22
  8
0
  6
CONTINUOUS
 10
8668.5080716654774733
 20
2154.3946061958117753
 30
0.0
 11
8669.0351102663626079
 21
2153.8675675949289143
 31
0.0
1001
GRADIENTCOLOR1ACI
1070
     5
1001
GRADIENTCOLOR2ACI
1070
     2
1001
ACAD
1010
0.0
1020
0.0
1030
0.0
  0
LINE
  5
13D23
  8
0
  6
CONTINUOUS
 10
8668.5080716654774733
 20
2154.4299615348709267
 30
0.0
 11
8669.071883766897372
 21
2153.866149433451028
 31
0.0
1001
GRADIENTCOLOR1ACI
1070
     5
1001
GRADIENTCOLOR2ACI
1070
     2
1001
ACAD
1010
0.0
1020
0.0
1030
0.0
  0
LINE
  5
13D24
  8
0
  6
CONTINUOUS
 10
8668.5080716654774733
 20
2154.4653168739300781
 30
0.0
 11
8669.1087498698107083
 21
2153.8646386696000263
 31
0.0
1001
GRADIENTCOLOR1ACI
1070
     5
1001
GRADIENTCOLOR2ACI
1070
     2
1001
ACAD
1010
0.0
1020
0.0
1030
0.0
  0
LINE
  5
13D25
  8
0
  6
CONTINUOUS
 10
8668.5320197145156271
 20
2154.4767241639528947
 30
0.0
 11
8669.1467582106288319
 21
2153.861985667837871
 31
0.0
1001
GRADIENTCOLOR1ACI
1070
     5
1001
GRADIENTCOLOR2ACI
1070
     2
1001
ACAD
1010
0.0
1020
0.0
1030
0.0
  0
LINE
  5
13D26
  8
0
  6
CONTINUOUS
 10
8668.561882290057838
 20
2154.4822169274680164
 30
0.0
 11
8669.1861932652318501
 21
2153.8579059522971875
 31
0.0
1001
GRADIENTCOLOR1ACI
1070
     5
1001
GRADIENTCOLOR2ACI
1070
     2
1001
ACAD
1010
0.0
1020
0.0
1030
0.0
  0
LINE
  5
13D27
  8
0
  6
CONTINUOUS
 10
8668.592784287460745
 20
2154.4866702691269893
 30
0.0
 11
8669.2268436561662384
 21
2153.8526109004201317
 31
0.0
1001
GRADIENTCOLOR1ACI
1070
     5
1001
GRADIENTCOLOR2ACI
1070
     2
1001
ACAD
1010
0.0
1020
0.0
1030
0.0
  0
LINE
  5
13D28
  8
0
  6
CONTINUOUS
 10
8668.6248219070457708
 20
2154.4899879886002054
 30
0.0
 11
8669.2747137483129336
 21
2153.8400961473321331
 31
0.0
1001
GRADIENTCOLOR1ACI
1070
     5
1001
GRADIENTCOLOR2ACI
1070
     2
1001
ACAD
1010
0.0
1020
0.0
1030
0.0
  0
LINE
  5
13D29
  8
0
  6
CONTINUOUS
 10
8668.6580803151173313
 20
2154.4920849195850678
 30
0.0
 11
8669.2923506398183235
 21
2153.8578145948868041
 31
0.0
1001
GRADIENTCOLOR1ACI
1070
     5
1001
GRADIENTCOLOR2ACI
1070
     2
1001
ACAD
1010
0.0
1020
0.0
1030
0.0
  0
LINE
  5
13D2A
  8
0
  6
CONTINUOUS
 10
8668.6914686191030341
 20
2154.4940519546607902
 30
0.0
 11
8669.2954732404141396
 21
2153.8900473333501395
 31
0.0
1001
GRADIENTCOLOR1ACI
1070
     5
1001
GRADIENTCOLOR2ACI
1070
     2
1001
ACAD
1010
0.0
1020
0.0
1030
0.0
  0
LINE
  5
13D2B
  8
0
  6
CONTINUOUS
 10
8668.7251493288731581
 20
2154.495726583951182
 30
0.0
 11
8669.2954732402777154
 21
2153.9254026725461699
 31
0.0
1001
GRADIENTCOLOR1ACI
1070
     5
1001
GRADIENTCOLOR2ACI
1070
     2
1001
ACAD
1010
0.0
1020
0.0
1030
0.0
  0
LINE
  5
13D2C
  8
0
  6
CONTINUOUS
 10
8668.7591298469906178
 20
2154.4971014048919642
 30
0.0
 11
8669.2954732402777154
 21
2153.9607580116048666
 31
0.0
1001
GRADIENTCOLOR1ACI
1070
     5
1001
GRADIENTCOLOR2ACI
1070
     2
1001
ACAD
1010
0.0
1020
0.0
1030
0.0
  0
LINE
  5
13D2D
  8
0
  6
CONTINUOUS
 10
8668.7934179739422689
 20
2154.4981686169999193
 30
0.0
 11
8669.2954732402777154
 21
2153.9961133506640181
 31
0.0
1001
GRADIENTCOLOR1ACI
1070
     5
1001
GRADIENTCOLOR2ACI
1070
     2
1001
ACAD
1010
0.0
1020
0.0
1030
0.0
  0
LINE
  5
13D2E
  8
0
  6
CONTINUOUS
 10
8668.8280219382704672
 20
2154.4989199917308724
 30
0.0
 11
8669.2954732402777154
 21
2154.031468689724079
 31
0.0
1001
GRADIENTCOLOR1ACI
1070
     5
1001
GRADIENTCOLOR2ACI
1070
     2
1001
ACAD
1010
0.0
1020
0.0
1030
0.0
  0
LINE
  5
13D2F
  8
0
  6
CONTINUOUS
 10
8668.8629504297496169
 20
2154.4993468393108742
 30
0.0
 11
8669.2954732402777154
 21
2154.0668240287827757
 31
0.0
1001
GRADIENTCOLOR1ACI
1070
     5
1001
GRADIENTCOLOR2ACI
1070
     2
1001
ACAD
1010
0.0
1020
0.0
1030
0.0
  0
LINE
  5
13D30
  8
0
  6
CONTINUOUS
 10
8668.8981902068990166
 20
2154.4994624012210807
 30
0.0
 11
8669.2954732402777154
 21
2154.1021793678428367
 31
0.0
1001
GRADIENTCOLOR1ACI
1070
     5
1001
GRADIENTCOLOR2ACI
1070
     2
1001
ACAD
1010
0.0
1020
0.0
1030
0.0
  0
LINE
  5
13D31
  8
0
  6
CONTINUOUS
 10
8668.933639662578571
 20
2154.4993682846011325
 30
0.0
 11
8669.2954732402777154
 21
2154.1375347069019881
 31
0.0
1001
GRADIENTCOLOR1ACI
1070
     5
1001
GRADIENTCOLOR2ACI
1070
     2
1001
ACAD
1010
0.0
1020
0.0
1030
0.0
  0
LINE
  5
13D32
  8
0
  6
CONTINUOUS
 10
8668.9694028600515594
 20
2154.4989604261868408
 30
0.0
 11
8669.2954732402777154
 21
2154.1728900459611395
 31
0.0
1001
GRADIENTCOLOR1ACI
1070
     5
1001
GRADIENTCOLOR2ACI
1070
     2
1001
ACAD
1010
0.0
1020
0.0
1030
0.0
  0
LINE
  5
13D33
  8
0
  6
CONTINUOUS
 10
8669.0054883785578568
 20
2154.4982302467419686
 30
0.0
 11
8669.2954732402777154
 21
2154.2082453850198362
 31
0.0
1001
GRADIENTCOLOR1ACI
1070
     5
1001
GRADIENTCOLOR2ACI
1070
     2
1001
ACAD
1010
0.0
1020
0.0
1030
0.0
  0
LINE
  5
13D34
  8
0
  6
CONTINUOUS
 10
8669.0419052745364752
 20
2154.4971686898197731
 30
0.0
 11
8669.2954732402777154
 21
2154.2436007240789877
 31
0.0
1001
GRADIENTCOLOR1ACI
1070
     5
1001
GRADIENTCOLOR2ACI
1070
     2
1001
ACAD
1010
0.0
1020
0.0
1030
0.0
  0
LINE
  5
13D35
  8
0
  6
CONTINUOUS
 10
8669.0786631194405345
 20
2154.4957661839757748
 30
0.0
 11
8669.2954732402777154
 21
2154.2789560631390486
 31
0.0
1001
GRADIENTCOLOR1ACI
1070
     5
1001
GRADIENTCOLOR2ACI
1070
     2
1001
ACAD
1010
0.0
1020
0.0
1030
0.0
  0
LINE
  5
13D36
  8
0
  6
CONTINUOUS
 10
8669.1157632267058943
 20
2154.4940214157691116
 30
0.0
 11
8669.2954732402777154
 21
2154.3143114021982001
 31
0.0
1001
GRADIENTCOLOR1ACI
1070
     5
1001
GRADIENTCOLOR2ACI
1070
     2
1001
ACAD
1010
0.0
1020
0.0
1030
0.0
  0
LINE
  5
13D37
  8
0
  6
CONTINUOUS
 10
8669.1535917073651945
 20
2154.491548274170782
 30
0.0
 11
8669.2954732402777154
 21
2154.3496667412568968
 31
0.0
1001
GRADIENTCOLOR1ACI
1070
     5
1001
GRADIENTCOLOR2ACI
1070
     2
1001
ACAD
1010
0.0
1020
0.0
1030
0.0
  0
LINE
  5
13D38
  8
0
  6
CONTINUOUS
 10
8669.1923000417427829
 20
2154.4881952788518902
 30
0.0
 11
8669.2954732402777154
 21
2154.3850220803169577
 31
0.0
1001
GRADIENTCOLOR1ACI
1070
     5
1001
GRADIENTCOLOR2ACI
1070
     2
1001
ACAD
1010
0.0
1020
0.0
1030
0.0
  0
LINE
  5
13D39
  8
0
  6
CONTINUOUS
 10
8669.2318826053906378
 20
2154.4839680542631868
 30
0.0
 11
8669.2954732402777154
 21
2154.4203774193761092
 31
0.0
1001
GRADIENTCOLOR1ACI
1070
     5
1001
GRADIENTCOLOR2ACI
1070
     2
1001
ACAD
1010
0.0
1020
0.0
1030
0.0
  0
LINE
  5
13D3A
  8
0
  6
CONTINUOUS
 10
8669.2756959778726014
 20
2154.4755100208408294
 30
0.0
 11
8669.2954732402777154
 21
2154.4557327584348059
 31
0.0
1001
GRADIENTCOLOR1ACI
1070
     5
1001
GRADIENTCOLOR2ACI
1070
     2
1001
ACAD
1010
0.0
1020
0.0
1030
0.0
  0
LINE
  5
13D3B
  8
0
  6
CONTINUOUS
 10
8668.5491138878187485
 20
2154.4800127631710893
 30
0.0
 11
8668.5080716654774733
 21
2154.4389705408298141
 31
0.0
1001
GRADIENTCOLOR1ACI
1070
     5
1001
GRADIENTCOLOR2ACI
1070
     2
1001
ACAD
1010
0.0
1020
0.0
1030
0.0
  0
LINE
  5
13D3C
  8
0
  6
CONTINUOUS
 10
8668.5908892438092153
 20
2154.4864327801028594
 30
0.0
 11
8668.5080716654774733
 21
2154.4036152017711174
 31
0.0
1001
GRADIENTCOLOR1ACI
1070
     5
1001
GRADIENTCOLOR2ACI
1070
     2
1001
ACAD
1010
0.0
1020
0.0
1030
0.0
  0
LINE
  5
13D3D
  8
0
  6
CONTINUOUS
 10
8668.6302306602265162
 20
2154.4904188574610089
 30
0.0
 11
8668.5080716654774733
 21
2154.368259862711966
 31
0.0
1001
GRADIENTCOLOR1ACI
1070
     5
1001
GRADIENTCOLOR2ACI
1070
     2
1001
ACAD
1010
0.0
1020
0.0
1030
0.0
  0
LINE
  5
13D3E
  8
0
  6
CONTINUOUS
 10
8668.6678598892031005
 20
2154.4926927473811702
 30
0.0
 11
8668.5080716654774733
 21
2154.3329045236528145
 31
0.0
1001
GRADIENTCOLOR1ACI
1070
     5
1001
GRADIENTCOLOR2ACI
1070
     2
1001
ACAD
1010
0.0
1020
0.0
1030
0.0
  0
LINE
  5
13D3F
  8
0
  6
CONTINUOUS
 10
8668.7052997342616436
 20
2154.4947772533769239
 30
0.0
 11
8668.5080716654774733
 21
2154.2975491845932083
 31
0.0
1001
GRADIENTCOLOR1ACI
1070
     5
1001
GRADIENTCOLOR2ACI
1070
     2
1001
ACAD
1010
0.0
1020
0.0
1030
0.0
  0
LINE
  5
13D40
  8
0
  6
CONTINUOUS
 10
8668.7423393819717603
 20
2154.4964615620287987
 30
0.0
 11
8668.5080716654774733
 21
2154.2621938455340569
 31
0.0
1001
GRADIENTCOLOR1ACI
1070
     5
1001
GRADIENTCOLOR2ACI
1070
     2
1001
ACAD
1010
0.0
1020
0.0
1030
0.0
  0
LINE
  5
13D41
  8
0
  6
CONTINUOUS
 10
8668.7789919248207298
 20
2154.4977587658167977
 30
0.0
 11
8668.5080716654774733
 21
2154.2268385064739959
 31
0.0
1001
GRADIENTCOLOR1ACI
1070
     5
1001
GRADIENTCOLOR2ACI
1070
     2
1001
ACAD
1010
0.0
1020
0.0
1030
0.0
  0
LINE
  5
13D42
  8
0
  6
CONTINUOUS
 10
8668.815269645099761
 20
2154.4986811470348584
 30
0.0
 11
8668.5080716654774733
 21
2154.1914831674148445
 31
0.0
1001
GRADIENTCOLOR1ACI
1070
     5
1001
GRADIENTCOLOR2ACI
1070
     2
1001
ACAD
1010
0.0
1020
0.0
1030
0.0
  0
LINE
  5
13D43
  8
0
  6
CONTINUOUS
 10
8668.851184083170665
 20
2154.4992402460479752
 30
0.0
 11
8668.5080716654774733
 21
2154.1561278283561478
 31
0.0
1001
GRADIENTCOLOR1ACI
1070
     5
1001
GRADIENTCOLOR2ACI
1070
     2
1001
ACAD
1010
0.0
1020
0.0
1030
0.0
  0
LINE
  5
13D44
  8
0
  6
CONTINUOUS
 10
8668.8867460984638456
 20
2154.4994469222810949
 30
0.0
 11
8668.5080716654774733
 21
2154.1207724892969964
 31
0.0
1001
GRADIENTCOLOR1ACI
1070
     5
1001
GRADIENTCOLOR2ACI
1070
     2
1001
ACAD
1010
0.0
1020
0.0
1030
0.0
  0
LINE
  5
13D45
  8
0
  6
CONTINUOUS
 10
8668.9220873867379851
 20
2154.4994328714988114
 30
0.0
 11
8668.5080716654774733
 21
2154.0854171502378449
 31
0.0
1001
GRADIENTCOLOR1ACI
1070
     5
1001
GRADIENTCOLOR2ACI
1070
     2
1001
ACAD
1010
0.0
1020
0.0
1030
0.0
  0
LINE
  5
13D46
  8
0
  6
CONTINUOUS
 10
8668.9571454727156379
 20
2154.4991356184132201
 30
0.0
 11
8668.5080716654774733
 21
2154.050061811177784
 31
0.0
1001
GRADIENTCOLOR1ACI
1070
     5
1001
GRADIENTCOLOR2ACI
1070
     2
1001
ACAD
1010
0.0
1020
0.0
1030
0.0
  0
LINE
  5
13D47
  8
0
  6
CONTINUOUS
 10
8668.9919078102338972
 20
2154.4985426168759659
 30
0.0
 11
8668.5080716654774733
 21
2154.0147064721190873
 31
0.0
1001
GRADIENTCOLOR1ACI
1070
     5
1001
GRADIENTCOLOR2ACI
1070
     2
1001
ACAD
1010
0.0
1020
0.0
1030
0.0
  0
LINE
  5
13D48
  8
0
  6
CONTINUOUS
 10
8669.0263816358365148
 20
2154.4976611034157941
 30
0.0
 11
8668.5080716654774733
 21
2153.9793511330590263
 31
0.0
1001
GRADIENTCOLOR1ACI
1070
     5
1001
GRADIENTCOLOR2ACI
1070
     2
1001
ACAD
1010
0.0
1020
0.0
1030
0.0
  0
LINE
  5
13D49
  8
0
  6
CONTINUOUS
 10
8669.0605738354715868
 20
2154.4964979639921694
 30
0.0
 11
8668.5080716654774733
 21
2153.9439957939998749
 31
0.0
1001
GRADIENTCOLOR1ACI
1070
     5
1001
GRADIENTCOLOR2ACI
1070
     2
1001
ACAD
1010
0.0
1020
0.0
1030
0.0
  0
LINE
  5
13D4A
  8
0
  6
CONTINUOUS
 10
8669.0944954769875039
 20
2154.4950642664521183
 30
0.0
 11
8668.5080716654774733
 21
2153.9086404549411782
 31
0.0
1001
GRADIENTCOLOR1ACI
1070
     5
1001
GRADIENTCOLOR2ACI
1070
     2
1001
ACAD
1010
0.0
1020
0.0
1030
0.0
  0
LINE
  5
13D4B
  8
0
  6
CONTINUOUS
 10
8669.1280891519782017
 20
2154.4933026023818456
 30
0.0
 11
8668.5080716656138975
 21
2153.8732851160179962
 31
0.0
1001
GRADIENTCOLOR1ACI
1070
     5
1001
GRADIENTCOLOR2ACI
1070
     2
1001
ACAD
1010
0.0
1020
0.0
1030
0.0
  0
LINE
  5
13D4C
  8
0
  6
CONTINUOUS
 10
8669.1611045625140832
 20
2154.4909626738590305
 30
0.0
 11
8668.5195592456220766
 21
2153.8494173569638406
 31
0.0
1001
GRADIENTCOLOR1ACI
1070
     5
1001
GRADIENTCOLOR2ACI
1070
     2
1001
ACAD
1010
0.0
1020
0.0
1030
0.0
  0
LINE
  5
13D4D
  8
0
  6
CONTINUOUS
 10
8669.1935685049993481
 20
2154.4880712772837796
 30
0.0
 11
8668.5538443811419711
 21
2153.8483471534250384
 31
0.0
1001
GRADIENTCOLOR1ACI
1070
     5
1001
GRADIENTCOLOR2ACI
1070
     2
1001
ACAD
1010
0.0
1020
0.0
1030
0.0
  0
LINE
  5
13D4E
  8
0
  6
CONTINUOUS
 10
8669.2255052664932009
 20
2154.4846526997180263
 30
0.0
 11
8668.5965726274826011
 21
2153.8557200607069717
 31
0.0
1001
GRADIENTCOLOR1ACI
1070
     5
1001
GRADIENTCOLOR2ACI
1070
     2
1001
ACAD
1010
0.0
1020
0.0
1030
0.0
  0
LINE
  5
13D4F
  8
0
  6
CONTINUOUS
 10
8669.2563384359145857
 20
2154.4801305300798049
 30
0.0
 11
8668.6361541082005715
 21
2153.8599462023671549
 31
0.0
1001
GRADIENTCOLOR1ACI
1070
     5
1001
GRADIENTCOLOR2ACI
1070
     2
1001
ACAD
1010
0.0
1020
0.0
1030
0.0
  0
LINE
  5
13D50
  8
0
  6
CONTINUOUS
 10
8669.2844915479890915
 20
2154.4729283030978877
 30
0.0
 11
8668.6745269221137278
 21
2153.8629636772197955
 31
0.0
1001
GRADIENTCOLOR1ACI
1070
     5
1001
GRADIENTCOLOR2ACI
1070
     2
1001
ACAD
1010
0.0
1020
0.0
1030
0.0
  0
LINE
  5
13D51
  8
0
  6
CONTINUOUS
 10
8669.2954732402777154
 20
2154.4485546563250864
 30
0.0
 11
8668.7121471731898055
 21
2153.8652285892371765
 31
0.0
1001
GRADIENTCOLOR1ACI
1070
     5
1001
GRADIENTCOLOR2ACI
1070
     2
1001
ACAD
1010
0.0
1020
0.0
1030
0.0
  0
LINE
  5
13D52
  8
0
  6
CONTINUOUS
 10
8669.2954732402777154
 20
2154.413199317265935
 30
0.0
 11
8668.7491679954000574
 21
2153.8668940723891865
 31
0.0
1001
GRADIENTCOLOR1ACI
1070
     5
1001
GRADIENTCOLOR2ACI
1070
     2
1001
ACAD
1010
0.0
1020
0.0
1030
0.0
  0
LINE
  5
13D53
  8
0
  6
CONTINUOUS
 10
8669.2954732402777154
 20
2154.3778439782067835
 30
0.0
 11
8668.785783213972536
 21
2153.8681539519020589
 31
0.0
1001
GRADIENTCOLOR1ACI
1070
     5
1001
GRADIENTCOLOR2ACI
1070
     2
1001
ACAD
1010
0.0
1020
0.0
1030
0.0
  0
LINE
  5
13D54
  8
0
  6
CONTINUOUS
 10
8669.2954732402777154
 20
2154.3424886391480868
 30
0.0
 11
8668.8220225952154578
 21
2153.8690379940858293
 31
0.0
1001
GRADIENTCOLOR1ACI
1070
     5
1001
GRADIENTCOLOR2ACI
1070
     2
1001
ACAD
1010
0.0
1020
0.0
1030
0.0
  0
LINE
  5
13D55
  8
0
  6
CONTINUOUS
 10
8669.2954732402777154
 20
2154.3071333000880259
 30
0.0
 11
8668.857901896133626
 21
2153.8695619559439365
 31
0.0
1001
GRADIENTCOLOR1ACI
1070
     5
1001
GRADIENTCOLOR2ACI
1070
     2
1001
ACAD
1010
0.0
1020
0.0
1030
0.0
  0
LINE
  5
13D56
  8
0
  6
CONTINUOUS
 10
8669.2954732402777154
 20
2154.2717779610288744
 30
0.0
 11
8668.893499525358493
 21
2153.869804246107833
 31
0.0
1001
GRADIENTCOLOR1ACI
1070
     5
1001
GRADIENTCOLOR2ACI
1070
     2
1001
ACAD
1010
0.0
1020
0.0
1030
0.0
  0
LINE
  5
13D57
  8
0
  6
CONTINUOUS
 10
8669.2954732402777154
 20
2154.2364226219688135
 30
0.0
 11
8668.9287761580653751
 21
2153.8697255397592016
 31
0.0
1001
GRADIENTCOLOR1ACI
1070
     5
1001
GRADIENTCOLOR2ACI
1070
     2
1001
ACAD
1010
0.0
1020
0.0
1030
0.0
  0
LINE
  5
13D58
  8
0
  6
CONTINUOUS
 10
8669.2954732402777154
 20
2154.2010672829101168
 30
0.0
 11
8668.9637403061515215
 21
2153.8693343487830134
 31
0.0
1001
GRADIENTCOLOR1ACI
1070
     5
1001
GRADIENTCOLOR2ACI
1070
     2
1001
ACAD
1010
0.0
1020
0.0
1030
0.0
  0
LINE
  5
13D59
  8
0
  6
CONTINUOUS
 10
8669.2954732402777154
 20
2154.1657119438500558
 30
0.0
 11
8668.9985419093300152
 21
2153.8687806129009914
 31
0.0
1001
GRADIENTCOLOR1ACI
1070
     5
1001
GRADIENTCOLOR2ACI
1070
     2
1001
ACAD
1010
0.0
1020
0.0
1030
0.0
  0
LINE
  5
13D5A
  8
0
  6
CONTINUOUS
 10
8669.2954732402777154
 20
2154.1303566047918139
 30
0.0
 11
8669.0327630187894101
 21
2153.8676463833039634
 31
0.0
1001
GRADIENTCOLOR1ACI
1070
     5
1001
GRADIENTCOLOR2ACI
1070
     2
1001
ACAD
1010
0.0
1020
0.0
1030
0.0
  0
LINE
  5
13D5B
  8
0
  6
CONTINUOUS
 10
8669.2954732402777154
 20
2154.0950012657322077
 30
0.0
 11
8669.0668365206001909
 21
2153.8663645460537737
 31
0.0
1001
GRADIENTCOLOR1ACI
1070
     5
1001
GRADIENTCOLOR2ACI
1070
     2
1001
ACAD
1010
0.0
1020
0.0
1030
0.0
  0
LINE
  5
13D5C
  8
0
  6
CONTINUOUS
 10
8669.2954732402777154
 20
2154.0596459266730562
 30
0.0
 11
8669.100856517228749
 21
2153.8650292036231804
 31
0.0
1001
GRADIENTCOLOR1ACI
1070
     5
1001
GRADIENTCOLOR2ACI
1070
     2
1001
ACAD
1010
0.0
1020
0.0
1030
0.0
  0
LINE
  5
13D5D
  8
0
  6
CONTINUOUS
 10
8669.2954732402777154
 20
2154.0242905876139048
 30
0.0
 11
8669.134187612327878
 21
2153.8630049596617937
 31
0.0
1001
GRADIENTCOLOR1ACI
1070
     5
1001
GRADIENTCOLOR2ACI
1070
     2
1001
ACAD
1010
0.0
1020
0.0
1030
0.0
  0
LINE
  5
13D5E
  8
0
  6
CONTINUOUS
 10
8669.2954732402777154
 20
2153.9889352485538438
 30
0.0
 11
8669.1666256325897848
 21
2153.8600876408640943
 31
0.0
1001
GRADIENTCOLOR1ACI
1070
     5
1001
GRADIENTCOLOR2ACI
1070
     2
1001
ACAD
1010
0.0
1020
0.0
1030
0.0
  0
LINE
  5
13D5F
  8
0
  6
CONTINUOUS
 10
8669.2954732402777154
 20
2153.9535799094951471
 30
0.0
 11
8669.198326194906258
 21
2153.8564328641241445
 31
0.0
1001
GRADIENTCOLOR1ACI
1070
     5
1001
GRADIENTCOLOR2ACI
1070
     2
1001
ACAD
1010
0.0
1020
0.0
1030
0.0
  0
LINE
  5
13D60
  8
0
  6
CONTINUOUS
 10
8669.2954732402777154
 20
2153.9182245704359957
 30
0.0
 11
8669.2294805908786657
 21
2153.8522319210360365
 31
0.0
1001
GRADIENTCOLOR1ACI
1070
     5
1001
GRADIENTCOLOR2ACI
1070
     2
1001
ACAD
1010
0.0
1020
0.0
1030
0.0
  0
LINE
  5
13D61
  8
0
 10
8668.5600045023584244
 20
2153.849763317840825
 30
0.0
 11
8668.5080716654774733
 21
2153.9016961547217761
 31
0.0
  0
LINE
  5
13D62
  8
0
  6
CONTINUOUS
 10
8669.2954732404141396
 20
2153.8828692315128137
 30
0.0
 11
8669.2584237994506111
 21
2153.8458197905501947
 31
0.0
1001
GRADIENTCOLOR1ACI
1070
     5
1001
GRADIENTCOLOR2ACI
1070
     2
1001
ACAD
1010
0.0
1020
0.0
1030
0.0
  0
ENDSEC
  0
EOF
