  0
SECTION
  2
HEADER
  9
$ACADVER
  1
AC1009
  9
$INSBASE
 10
8690.1305029865870893
 20
2156.3624108752960638
 30
0.0
  9
$EXTMIN
 10
8680.8573350130718609
 20
2154.2647190834341018
 30
0.0
  9
$EXTMAX
 10
8690.1415185409732658
 20
2157.5435132374959721
 30
0.0
  9
$LIMMIN
 10
0.0
 20
0.0
  9
$LIMMAX
 10
11.6929133858000007
 20
8.2677165353999982
  9
$ORTHOMODE
 70
     0
  9
$REGENMODE
 70
     1
  9
$FILLMODE
 70
     1
  9
$QTEXTMODE
 70
     0
  9
$MIRRTEXT
 70
     0
  9
$DRAGMODE
 70
     2
  9
$LTSCALE
 40
0.6431102362
  9
$OSMODE
 70
  4095
  9
$ATTMODE
 70
     1
  9
$TEXTSIZE
 40
0.2
  9
$TRACEWID
 40
0.05
  9
$TEXTSTYLE
  7
STANDARD
  9
$CLAYER
  8
0
  9
$CELTYPE
  6
BYLAYER
  9
$CECOLOR
 62
   256
  9
$DIMSCALE
 40
1.0
  9
$DIMASZ
 40
0.1875
  9
$DIMEXO
 40
0.0625
  9
$DIMDLI
 40
0.4443307087
  9
$DIMRND
 40
0.0
  9
$DIMDLE
 40
0.0
  9
$DIMEXE
 40
0.125
  9
$DIMTP
 40
0.01
  9
$DIMTM
 40
0.01
  9
$DIMTXT
 40
2.0
  9
$DIMCEN
 40
0.1052362205
  9
$DIMTSZ
 40
0.0
  9
$DIMTOL
 70
     1
  9
$DIMLIM
 70
     0
  9
$DIMTIH
 70
     1
  9
$DIMTOH
 70
     1
  9
$DIMSE1
 70
     0
  9
$DIMSE2
 70
     0
  9
$DIMTAD
 70
     0
  9
$DIMZIN
 70
     0
  9
$DIMBLK
  1

  9
$DIMASO
 70
     1
  9
$DIMSHO
 70
     1
  9
$DIMPOST
  1
\X
  9
$DIMAPOST
  1

  9
$DIMALT
 70
     1
  9
$DIMALTD
 70
     2
  9
$DIMALTF
 40
25.3999999999999986
  9
$DIMLFAC
 40
1.0
  9
$DIMTOFL
 70
     0
  9
$DIMTVP
 40
0.0
  9
$DIMTIX
 70
     0
  9
$DIMSOXD
 70
     0
  9
$DIMSAH
 70
     0
  9
$DIMBLK1
  1

  9
$DIMBLK2
  1

  9
$DIMSTYLE
  2
STANDARD
  9
$DIMCLRD
 70
     0
  9
$DIMCLRE
 70
     0
  9
$DIMCLRT
 70
     0
  9
$DIMTFAC
 40
1.0
  9
$DIMGAP
 40
0.09
  9
$LUNITS
 70
     2
  9
$LUPREC
 70
     4
  9
$SKETCHINC
 40
0.1
  9
$FILLETRAD
 40
0.0
  9
$AUNITS
 70
     0
  9
$AUPREC
 70
     0
  9
$MENU
  1
.
  9
$ELEVATION
 40
0.0
  9
$PELEVATION
 40
0.0
  9
$THICKNESS
 40
0.0
  9
$LIMCHECK
 70
     0
  9
$BLIPMODE
 70
     0
  9
$CHAMFERA
 40
0.0
  9
$CHAMFERB
 40
0.0
  9
$SKPOLY
 70
     0
  9
$TDCREATE
 40
2458060.468368056230247
  9
$TDUPDATE
 40
2460558.4346412038430572
  9
$TDINDWG
 40
0.4914190972
  9
$TDUSRTIMER
 40
0.4914190972
  9
$USRTIMER
 70
     1
  9
$ANGBASE
 50
0.0
  9
$ANGDIR
 70
     0
  9
$PDMODE
 70
     0
  9
$PDSIZE
 40
0.3125
  9
$PLINEWID
 40
0.0
  9
$COORDS
 70
     1
  9
$SPLFRAME
 70
     0
  9
$SPLINETYPE
 70
     6
  9
$SPLINESEGS
 70
     8
  9
$ATTDIA
 70
     1
  9
$ATTREQ
 70
     1
  9
$HANDLING
 70
     1
  9
$HANDSEED
  5
13FBE
  9
$SURFTAB1
 70
     6
  9
$SURFTAB2
 70
     6
  9
$SURFTYPE
 70
     6
  9
$SURFU
 70
     6
  9
$SURFV
 70
     6
  9
$UCSNAME
  2

  9
$UCSORG
 10
0.0
 20
0.0
 30
0.0
  9
$UCSXDIR
 10
1.0
 20
0.0
 30
0.0
  9
$UCSYDIR
 10
0.0
 20
1.0
 30
0.0
  9
$PUCSNAME
  2

  9
$PUCSORG
 10
0.0
 20
0.0
 30
0.0
  9
$PUCSXDIR
 10
1.0
 20
0.0
 30
0.0
  9
$PUCSYDIR
 10
0.0
 20
1.0
 30
0.0
  9
$USERI1
 70
     0
  9
$USERI2
 70
     0
  9
$USERI3
 70
     0
  9
$USERI4
 70
     0
  9
$USERI5
 70
     0
  9
$USERR1
 40
0.0
  9
$USERR2
 40
0.0
  9
$USERR3
 40
0.0
  9
$USERR4
 40
0.0
  9
$USERR5
 40
0.0
  9
$WORLDVIEW
 70
     1
  9
$SHADEDGE
 70
     3
  9
$SHADEDIF
 70
    70
  9
$TILEMODE
 70
     1
  9
$MAXACTVP
 70
    64
  9
$PLIMCHECK
 70
     0
  9
$PEXTMIN
 10
1.0000000000000000E+20
 20
1.0000000000000000E+20
 30
1.0000000000000000E+20
  9
$PEXTMAX
 10
-1.0000000000000000E+20
 20
-1.0000000000000000E+20
 30
-1.0000000000000000E+20
  9
$PLIMMIN
 10
0.0
 20
0.0
  9
$PLIMMAX
 10
12.0
 20
9.0
  9
$UNITMODE
 70
     0
  9
$VISRETAIN
 70
     1
  9
$PLINEGEN
 70
     0
  9
$PSLTSCALE
 70
     1
  0
ENDSEC
  0
SECTION
  2
TABLES
  0
TABLE
  2
VPORT
 70
     1
  0
VPORT
  2
*ACTIVE
 70
     0
 10
0.0
 20
0.0
 11
1.0
 21
1.0
 12
3870.2010869332721086
 22
1908.0954918928860025
 13
0.0
 23
0.0
 14
1.0
 24
1.0
 15
0.0
 25
0.0
 16
0.0
 26
0.0
 36
9.5192988075487186
 17
4815.2983398437490905
 27
247.8086242675780966
 37
0.0
 40
3.6422050493712952
 41
2.558981233243967
 42
50.0
 43
0.0
 44
0.0
 50
0.0
 51
0.0
 71
     0
 72
   100
 73
     1
 74
     1
 75
     0
 76
     0
 77
     0
 78
     0
  0
ENDTAB
  0
TABLE
  2
LTYPE
 70
     2
  0
LTYPE
  2
CONTINUOUS
 70
     0
  3
Solid line
 72
    65
 73
     0
 40
0.0
  0
LTYPE
  2
PHANTOM2
 70
     0
  3
___ _ _ ___ _ _ ___ _ _ ___ _ _
 72
    65
 73
     6
 40
1.25
 49
0.625
 49
-0.125
 49
0.125
 49
-0.125
 49
0.125
 49
-0.125
  0
ENDTAB
  0
TABLE
  2
LAYER
 70
     2
  0
LAYER
  2
0
 70
     0
 62
   255
  6
CONTINUOUS
  0
LAYER
  2
DEFPOINTS
 70
     0
 62
     7
  6
CONTINUOUS
  0
ENDTAB
  0
TABLE
  2
STYLE
 70
     1
  0
STYLE
  2
STANDARD
 70
     0
 40
0.0
 41
0.8
 50
0.0
 71
     0
 42
0.2
  3
txt
  4

  0
ENDTAB
  0
TABLE
  2
VIEW
 70
     1
  0
ENDTAB
  0
TABLE
  2
UCS
 70
     0
  0
ENDTAB
  0
TABLE
  2
APPID
 70
    12
  0
APPID
  2
ACAD
 70
     0
  0
APPID
  2
ACAD_MLEADERVER
 70
     0
  0
APPID
  2
ACAD_EXEMPT_FROM_CAD_STANDARDS
 70
     0
  0
APPID
  2
ACAD_NAV_VCDISPLAY
 70
     0
  0
APPID
  2
ACAECLAYERSTANDARD
 70
     0
  0
APPID
  2
ACCMTRANSPARENCY
 70
     0
  0
APPID
  2
ACAD_DSTYLE_DIMJAG
 70
     0
  0
APPID
  2
ACAD_DSTYLE_DIMTALN
 70
     0
  0
APPID
  2
ACDBATTR
 70
     0
  0
APPID
  2
ACADANNOTATIVE
 70
     0
  0
APPID
  2
GRADIENTCOLOR1ACI
 70
     0
  0
APPID
  2
GRADIENTCOLOR2ACI
 70
     0
  0
ENDTAB
  0
TABLE
  2
DIMSTYLE
 70
     1
  0
DIMSTYLE
  2
STANDARD
 70
     0
  3

  4

  5

  6

  7

 40
1.0
 41
0.1875
 42
0.0625
 43
0.38
 44
0.125
 45
0.0
 46
0.0
 47
0.01
 48
0.01
140
0.15625
141
0.09
142
0.0
143
25.3999999999999986
144
1.0
145
0.0
146
1.0
147
0.09
 71
     1
 72
     0
 73
     1
 74
     1
 75
     0
 76
     0
 77
     0
 78
     4
170
     0
171
     2
172
     0
173
     0
174
     0
175
     0
176
     0
177
     0
178
     0
  0
ENDTAB
  0
ENDSEC
  0
SECTION
  2
BLOCKS
  0
BLOCK
  8
0
  2
$MODEL_SPACE
 70
     0
 10
0.0
 20
0.0
 30
0.0
  3
$MODEL_SPACE
  1

  0
ENDBLK
  5
21
  8
0
  0
BLOCK
 67
     1
  8
0
  2
$PAPER_SPACE
 70
     0
 10
0.0
 20
0.0
 30
0.0
  3
$PAPER_SPACE
  1

  0
ENDBLK
  5
1D
 67
     1
  8
0
  0
BLOCK
  8
0
  2
_FILLED
 70
     0
 10
0.0
 20
0.0
 30
0.0
  3
_FILLED
  1

  0
SOLID
  5
13BBF
  8
0
  6
BYBLOCK
 62
     0
 10
0.0
 20
0.0
 30
0.0
 11
-1.0
 21
0.1666666667
 31
0.0
 12
-1.0
 22
-0.1666666667
 32
0.0
 13
-1.0
 23
-0.1666666667
 33
0.0
  0
ENDBLK
  5
13BC0
  8
0
  6
BYBLOCK
 62
     0
  0
ENDSEC
  0
SECTION
  2
ENTITIES
  0
ATTDEF
  5
3930
  8
DEFPOINTS
 10
8690.130851874306245
 20
2156.3618936161528836
 30
0.0
 40
0.001
  1
P33354-LV
  3

  2
MODELNUMBER
 70
     0
1001
ACDBATTR
1070
     0
1070
     1
  0
ATTDEF
  5
3931
  8
DEFPOINTS
 10
8690.130851874306245
 20
2156.3602269494867869
 30
0.0
 40
0.001
  1
AILERON
  3

  2
TRADENAME
 70
     0
1001
ACDBATTR
1070
     0
1070
     1
  0
ATTDEF
  5
3932
  8
DEFPOINTS
 10
8690.130851874306245
 20
2156.3585602828197807
 30
0.0
 40
0.001
  1
BATHROOM SINK FAUCET
  3

  2
PRODUCT
 70
     0
1001
ACDBATTR
1070
     0
1070
     1
  0
LINE
  5
13E67
  8
0
 10
8689.8942825141857611
 20
2155.2010085130968946
 30
0.0
 11
8689.8942825141857611
 21
2157.5238132374961424
 31
0.0
  0
LINE
  5
13E68
  8
0
 10
8690.1305029865870893
 20
2155.1813085130961554
 30
0.0
 11
8690.1305029865870893
 21
2157.5435132374959721
 31
0.0
  0
LINE
  5
13E69
  8
0
 10
8687.7682982620863186
 20
2155.8358360720958444
 30
0.0
 11
8687.7682982620863186
 21
2156.8889856784958283
 31
0.0
  0
LINE
  5
13E6A
  8
0
  6
CONTINUOUS
 10
8687.8084010579113965
 20
2155.8112297728971498
 30
0.0
 11
8687.7682982620863186
 21
2155.8513325687208635
 31
0.0
1001
GRADIENTCOLOR1ACI
1070
     5
1001
GRADIENTCOLOR2ACI
1070
     2
1001
ACAD
1010
0.0
1020
0.0
1030
0.0
  0
LINE
  5
13E6B
  8
0
  6
CONTINUOUS
 10
8687.8437563969691837
 20
2155.8112297728971498
 30
0.0
 11
8687.7682982620863186
 21
2155.8866879077809244
 31
0.0
1001
GRADIENTCOLOR1ACI
1070
     5
1001
GRADIENTCOLOR2ACI
1070
     2
1001
ACAD
1010
0.0
1020
0.0
1030
0.0
  0
LINE
  5
13E6C
  8
0
  6
CONTINUOUS
 10
8687.8791117360306089
 20
2155.8112297728971498
 30
0.0
 11
8687.7682982620863186
 21
2155.9220432468400759
 31
0.0
1001
GRADIENTCOLOR1ACI
1070
     5
1001
GRADIENTCOLOR2ACI
1070
     2
1001
ACAD
1010
0.0
1020
0.0
1030
0.0
  0
LINE
  5
13E6D
  8
0
  6
CONTINUOUS
 10
8687.9144670750902151
 20
2155.8112297728971498
 30
0.0
 11
8687.7682982620863186
 21
2155.9573985858992273
 31
0.0
1001
GRADIENTCOLOR1ACI
1070
     5
1001
GRADIENTCOLOR2ACI
1070
     2
1001
ACAD
1010
0.0
1020
0.0
1030
0.0
  0
LINE
  5
13E6E
  8
0
  6
CONTINUOUS
 10
8687.9498224141498213
 20
2155.8112297728971498
 30
0.0
 11
8687.7682982620863186
 21
2155.9927539249588335
 31
0.0
1001
GRADIENTCOLOR1ACI
1070
     5
1001
GRADIENTCOLOR2ACI
1070
     2
1001
ACAD
1010
0.0
1020
0.0
1030
0.0
  0
LINE
  5
13E6F
  8
0
  6
CONTINUOUS
 10
8687.9851777532076085
 20
2155.8112297728971498
 30
0.0
 11
8687.7682982620863186
 21
2156.028109264017985
 31
0.0
1001
GRADIENTCOLOR1ACI
1070
     5
1001
GRADIENTCOLOR2ACI
1070
     2
1001
ACAD
1010
0.0
1020
0.0
1030
0.0
  0
LINE
  5
13E70
  8
0
  6
CONTINUOUS
 10
8688.0205330922672147
 20
2155.8112297728971498
 30
0.0
 11
8687.7682982620863186
 21
2156.0634646030780459
 31
0.0
1001
GRADIENTCOLOR1ACI
1070
     5
1001
GRADIENTCOLOR2ACI
1070
     2
1001
ACAD
1010
0.0
1020
0.0
1030
0.0
  0
LINE
  5
13E71
  8
0
  6
CONTINUOUS
 10
8688.0558884313268209
 20
2155.8112297728971498
 30
0.0
 11
8687.7682982620863186
 21
2156.0988199421371974
 31
0.0
1001
GRADIENTCOLOR1ACI
1070
     5
1001
GRADIENTCOLOR2ACI
1070
     2
1001
ACAD
1010
0.0
1020
0.0
1030
0.0
  0
LINE
  5
13E72
  8
0
  6
CONTINUOUS
 10
8688.0912437703864271
 20
2155.8112297728971498
 30
0.0
 11
8687.7682982620863186
 21
2156.1341752811958941
 31
0.0
1001
GRADIENTCOLOR1ACI
1070
     5
1001
GRADIENTCOLOR2ACI
1070
     2
1001
ACAD
1010
0.0
1020
0.0
1030
0.0
  0
LINE
  5
13E73
  8
0
  6
CONTINUOUS
 10
8688.1265991094460333
 20
2155.8112297728971498
 30
0.0
 11
8687.7682982620863186
 21
2156.1695306202550455
 31
0.0
1001
GRADIENTCOLOR1ACI
1070
     5
1001
GRADIENTCOLOR2ACI
1070
     2
1001
ACAD
1010
0.0
1020
0.0
1030
0.0
  0
LINE
  5
13E74
  8
0
  6
CONTINUOUS
 10
8688.1619544485056394
 20
2155.8112297728971498
 30
0.0
 11
8687.7682982620863186
 21
2156.2048859593151064
 31
0.0
1001
GRADIENTCOLOR1ACI
1070
     5
1001
GRADIENTCOLOR2ACI
1070
     2
1001
ACAD
1010
0.0
1020
0.0
1030
0.0
  0
LINE
  5
13E75
  8
0
  6
CONTINUOUS
 10
8688.1973097875634267
 20
2155.8112297728971498
 30
0.0
 11
8687.7682982620863186
 21
2156.2402412983738031
 31
0.0
1001
GRADIENTCOLOR1ACI
1070
     5
1001
GRADIENTCOLOR2ACI
1070
     2
1001
ACAD
1010
0.0
1020
0.0
1030
0.0
  0
LINE
  5
13E76
  8
0
  6
CONTINUOUS
 10
8688.2326651266230328
 20
2155.8112297728971498
 30
0.0
 11
8687.7682982620863186
 21
2156.2755966374338641
 31
0.0
1001
GRADIENTCOLOR1ACI
1070
     5
1001
GRADIENTCOLOR2ACI
1070
     2
1001
ACAD
1010
0.0
1020
0.0
1030
0.0
  0
LINE
  5
13E77
  8
0
  6
CONTINUOUS
 10
8688.268020465682639
 20
2155.8112297728971498
 30
0.0
 11
8687.7682982620863186
 21
2156.3109519764930155
 31
0.0
1001
GRADIENTCOLOR1ACI
1070
     5
1001
GRADIENTCOLOR2ACI
1070
     2
1001
ACAD
1010
0.0
1020
0.0
1030
0.0
  0
LINE
  5
13E78
  8
0
  6
CONTINUOUS
 10
8688.3033758047404262
 20
2155.8112297728971498
 30
0.0
 11
8687.7682982620863186
 21
2156.346307315552167
 31
0.0
1001
GRADIENTCOLOR1ACI
1070
     5
1001
GRADIENTCOLOR2ACI
1070
     2
1001
ACAD
1010
0.0
1020
0.0
1030
0.0
  0
LINE
  5
13E79
  8
0
  6
CONTINUOUS
 10
8688.3387311438018514
 20
2155.8112297728971498
 30
0.0
 11
8687.7682982620863186
 21
2156.3816626546108637
 31
0.0
1001
GRADIENTCOLOR1ACI
1070
     5
1001
GRADIENTCOLOR2ACI
1070
     2
1001
ACAD
1010
0.0
1020
0.0
1030
0.0
  0
LINE
  5
13E7A
  8
0
  6
CONTINUOUS
 10
8688.3740864828614576
 20
2155.8112297728971498
 30
0.0
 11
8687.7682982620863186
 21
2156.4170179936709246
 31
0.0
1001
GRADIENTCOLOR1ACI
1070
     5
1001
GRADIENTCOLOR2ACI
1070
     2
1001
ACAD
1010
0.0
1020
0.0
1030
0.0
  0
LINE
  5
13E7B
  8
0
  6
CONTINUOUS
 10
8688.4094418219210638
 20
2155.8112297728971498
 30
0.0
 11
8687.7682982620863186
 21
2156.4523733327300761
 31
0.0
1001
GRADIENTCOLOR1ACI
1070
     5
1001
GRADIENTCOLOR2ACI
1070
     2
1001
ACAD
1010
0.0
1020
0.0
1030
0.0
  0
LINE
  5
13E7C
  8
0
  6
CONTINUOUS
 10
8688.444797160978851
 20
2155.8112297728971498
 30
0.0
 11
8687.7682982620863186
 21
2156.4877286717887728
 31
0.0
1001
GRADIENTCOLOR1ACI
1070
     5
1001
GRADIENTCOLOR2ACI
1070
     2
1001
ACAD
1010
0.0
1020
0.0
1030
0.0
  0
LINE
  5
13E7D
  8
0
  6
CONTINUOUS
 10
8688.4801525000384572
 20
2155.8112297728971498
 30
0.0
 11
8687.7682982620863186
 21
2156.5230840108488337
 31
0.0
1001
GRADIENTCOLOR1ACI
1070
     5
1001
GRADIENTCOLOR2ACI
1070
     2
1001
ACAD
1010
0.0
1020
0.0
1030
0.0
  0
LINE
  5
13E7E
  8
0
  6
CONTINUOUS
 10
8688.5155078390962444
 20
2155.8112297728971498
 30
0.0
 11
8687.7682982620863186
 21
2156.5584393499079852
 31
0.0
1001
GRADIENTCOLOR1ACI
1070
     5
1001
GRADIENTCOLOR2ACI
1070
     2
1001
ACAD
1010
0.0
1020
0.0
1030
0.0
  0
LINE
  5
13E7F
  8
0
  6
CONTINUOUS
 10
8688.5424266785958025
 20
2155.8196662724581074
 30
0.0
 11
8687.7682982620863186
 21
2156.5937946889671366
 31
0.0
1001
GRADIENTCOLOR1ACI
1070
     5
1001
GRADIENTCOLOR2ACI
1070
     2
1001
ACAD
1010
0.0
1020
0.0
1030
0.0
  0
LINE
  5
13E80
  8
0
  6
CONTINUOUS
 10
8688.5424266785958025
 20
2155.8550216115168041
 30
0.0
 11
8687.7682982620863186
 21
2156.6291500280271975
 31
0.0
1001
GRADIENTCOLOR1ACI
1070
     5
1001
GRADIENTCOLOR2ACI
1070
     2
1001
ACAD
1010
0.0
1020
0.0
1030
0.0
  0
LINE
  5
13E81
  8
0
  6
CONTINUOUS
 10
8688.5424266785958025
 20
2155.8903769505759556
 30
0.0
 11
8687.7682982620863186
 21
2156.6645053670858942
 31
0.0
1001
GRADIENTCOLOR1ACI
1070
     5
1001
GRADIENTCOLOR2ACI
1070
     2
1001
ACAD
1010
0.0
1020
0.0
1030
0.0
  0
LINE
  5
13E82
  8
0
  6
CONTINUOUS
 10
8688.5424266785958025
 20
2155.9257322896360165
 30
0.0
 11
8687.7682982620863186
 21
2156.6998607061450457
 31
0.0
1001
GRADIENTCOLOR1ACI
1070
     5
1001
GRADIENTCOLOR2ACI
1070
     2
1001
ACAD
1010
0.0
1020
0.0
1030
0.0
  0
LINE
  5
13E83
  8
0
  6
CONTINUOUS
 10
8688.5424266785958025
 20
2155.961087628695168
 30
0.0
 11
8687.7682982620863186
 21
2156.7352160452051066
 31
0.0
1001
GRADIENTCOLOR1ACI
1070
     5
1001
GRADIENTCOLOR2ACI
1070
     2
1001
ACAD
1010
0.0
1020
0.0
1030
0.0
  0
LINE
  5
13E84
  8
0
  6
CONTINUOUS
 10
8688.5424266785958025
 20
2155.9964429677538647
 30
0.0
 11
8687.7682982620863186
 21
2156.7705713842638033
 31
0.0
1001
GRADIENTCOLOR1ACI
1070
     5
1001
GRADIENTCOLOR2ACI
1070
     2
1001
ACAD
1010
0.0
1020
0.0
1030
0.0
  0
LINE
  5
13E85
  8
0
  6
CONTINUOUS
 10
8688.5424266785958025
 20
2156.0317983068139256
 30
0.0
 11
8687.7682982620863186
 21
2156.8059267233238643
 31
0.0
1001
GRADIENTCOLOR1ACI
1070
     5
1001
GRADIENTCOLOR2ACI
1070
     2
1001
ACAD
1010
0.0
1020
0.0
1030
0.0
  0
LINE
  5
13E86
  8
0
  6
CONTINUOUS
 10
8688.5424266785958025
 20
2156.067153645873077
 30
0.0
 11
8687.7682982620863186
 21
2156.8412820623830157
 31
0.0
1001
GRADIENTCOLOR1ACI
1070
     5
1001
GRADIENTCOLOR2ACI
1070
     2
1001
ACAD
1010
0.0
1020
0.0
1030
0.0
  0
LINE
  5
13E87
  8
0
  6
CONTINUOUS
 10
8688.5424266785958025
 20
2156.102508984933138
 30
0.0
 11
8687.7682982620863186
 21
2156.8766374014421672
 31
0.0
1001
GRADIENTCOLOR1ACI
1070
     5
1001
GRADIENTCOLOR2ACI
1070
     2
1001
ACAD
1010
0.0
1020
0.0
1030
0.0
  0
LINE
  5
13E88
  8
0
  6
CONTINUOUS
 10
8688.5424266785958025
 20
2156.1378643239918347
 30
0.0
 11
8687.7798017930890637
 21
2156.9004892094990282
 31
0.0
1001
GRADIENTCOLOR1ACI
1070
     5
1001
GRADIENTCOLOR2ACI
1070
     2
1001
ACAD
1010
0.0
1020
0.0
1030
0.0
  0
LINE
  5
13E89
  8
0
  6
CONTINUOUS
 10
8688.5424266785958025
 20
2156.1732196630509861
 30
0.0
 11
8687.8020543639504467
 21
2156.9135919776958872
 31
0.0
1001
GRADIENTCOLOR1ACI
1070
     5
1001
GRADIENTCOLOR2ACI
1070
     2
1001
ACAD
1010
0.0
1020
0.0
1030
0.0
  0
LINE
  5
13E8A
  8
0
  6
CONTINUOUS
 10
8688.5424266785958025
 20
2156.2085750021110471
 30
0.0
 11
8687.8374097030118719
 21
2156.9135919776958872
 31
0.0
1001
GRADIENTCOLOR1ACI
1070
     5
1001
GRADIENTCOLOR2ACI
1070
     2
1001
ACAD
1010
0.0
1020
0.0
1030
0.0
  0
LINE
  5
13E8B
  8
0
  6
CONTINUOUS
 10
8688.5424266785958025
 20
2156.2439303411701985
 30
0.0
 11
8687.8727650420714781
 21
2156.9135919776958872
 31
0.0
1001
GRADIENTCOLOR1ACI
1070
     5
1001
GRADIENTCOLOR2ACI
1070
     2
1001
ACAD
1010
0.0
1020
0.0
1030
0.0
  0
LINE
  5
13E8C
  8
0
  6
CONTINUOUS
 10
8688.5424266785958025
 20
2156.2792856802288952
 30
0.0
 11
8687.9081203811292653
 21
2156.9135919776958872
 31
0.0
1001
GRADIENTCOLOR1ACI
1070
     5
1001
GRADIENTCOLOR2ACI
1070
     2
1001
ACAD
1010
0.0
1020
0.0
1030
0.0
  0
LINE
  5
13E8D
  8
0
  6
CONTINUOUS
 10
8688.5424266785958025
 20
2156.3146410192889562
 30
0.0
 11
8687.9434757201888715
 21
2156.9135919776958872
 31
0.0
1001
GRADIENTCOLOR1ACI
1070
     5
1001
GRADIENTCOLOR2ACI
1070
     2
1001
ACAD
1010
0.0
1020
0.0
1030
0.0
  0
LINE
  5
13E8E
  8
0
  6
CONTINUOUS
 10
8688.5424266785958025
 20
2156.3499963583481076
 30
0.0
 11
8687.9788310592466587
 21
2156.9135919776958872
 31
0.0
1001
GRADIENTCOLOR1ACI
1070
     5
1001
GRADIENTCOLOR2ACI
1070
     2
1001
ACAD
1010
0.0
1020
0.0
1030
0.0
  0
LINE
  5
13E8F
  8
0
  6
CONTINUOUS
 10
8688.5424266785958025
 20
2156.3853516974068043
 30
0.0
 11
8688.0141863983062649
 21
2156.9135919776958872
 31
0.0
1001
GRADIENTCOLOR1ACI
1070
     5
1001
GRADIENTCOLOR2ACI
1070
     2
1001
ACAD
1010
0.0
1020
0.0
1030
0.0
  0
LINE
  5
13E90
  8
0
  6
CONTINUOUS
 10
8688.5424266785958025
 20
2156.4207070364659558
 30
0.0
 11
8688.0495417373676901
 21
2156.9135919776958872
 31
0.0
1001
GRADIENTCOLOR1ACI
1070
     5
1001
GRADIENTCOLOR2ACI
1070
     2
1001
ACAD
1010
0.0
1020
0.0
1030
0.0
  0
LINE
  5
13E91
  8
0
  6
CONTINUOUS
 10
8688.5424266785958025
 20
2156.4560623755260167
 30
0.0
 11
8688.0848970764272963
 21
2156.9135919776958872
 31
0.0
1001
GRADIENTCOLOR1ACI
1070
     5
1001
GRADIENTCOLOR2ACI
1070
     2
1001
ACAD
1010
0.0
1020
0.0
1030
0.0
  0
LINE
  5
13E92
  8
0
  6
CONTINUOUS
 10
8688.5424266785958025
 20
2156.4914177145851681
 30
0.0
 11
8688.1202524154850835
 21
2156.9135919776958872
 31
0.0
1001
GRADIENTCOLOR1ACI
1070
     5
1001
GRADIENTCOLOR2ACI
1070
     2
1001
ACAD
1010
0.0
1020
0.0
1030
0.0
  0
LINE
  5
13E93
  8
0
  6
CONTINUOUS
 10
8688.5424266785958025
 20
2156.5267730536447743
 30
0.0
 11
8688.1556077545446897
 21
2156.9135919776958872
 31
0.0
1001
GRADIENTCOLOR1ACI
1070
     5
1001
GRADIENTCOLOR2ACI
1070
     2
1001
ACAD
1010
0.0
1020
0.0
1030
0.0
  0
LINE
  5
13E94
  8
0
  6
CONTINUOUS
 10
8688.5424266785958025
 20
2156.5621283927039258
 30
0.0
 11
8688.1909630936006579
 21
2156.9135919776958872
 31
0.0
1001
GRADIENTCOLOR1ACI
1070
     5
1001
GRADIENTCOLOR2ACI
1070
     2
1001
ACAD
1010
0.0
1020
0.0
1030
0.0
  0
LINE
  5
13E95
  8
0
  6
CONTINUOUS
 10
8688.5424266785958025
 20
2156.5974837317630772
 30
0.0
 11
8688.2263184326602641
 21
2156.9135919776958872
 31
0.0
1001
GRADIENTCOLOR1ACI
1070
     5
1001
GRADIENTCOLOR2ACI
1070
     2
1001
ACAD
1010
0.0
1020
0.0
1030
0.0
  0
LINE
  5
13E96
  8
0
  6
CONTINUOUS
 10
8688.5424266785958025
 20
2156.6328390708217739
 30
0.0
 11
8688.2616737717216893
 21
2156.9135919776958872
 31
0.0
1001
GRADIENTCOLOR1ACI
1070
     5
1001
GRADIENTCOLOR2ACI
1070
     2
1001
ACAD
1010
0.0
1020
0.0
1030
0.0
  0
LINE
  5
13E97
  8
0
  6
CONTINUOUS
 10
8688.5424266785958025
 20
2156.6681944098818349
 30
0.0
 11
8688.2970291107812955
 21
2156.9135919776958872
 31
0.0
1001
GRADIENTCOLOR1ACI
1070
     5
1001
GRADIENTCOLOR2ACI
1070
     2
1001
ACAD
1010
0.0
1020
0.0
1030
0.0
  0
LINE
  5
13E98
  8
0
  6
CONTINUOUS
 10
8688.5424266785958025
 20
2156.7035497489409863
 30
0.0
 11
8688.3323844498409017
 21
2156.9135919776958872
 31
0.0
1001
GRADIENTCOLOR1ACI
1070
     5
1001
GRADIENTCOLOR2ACI
1070
     2
1001
ACAD
1010
0.0
1020
0.0
1030
0.0
  0
LINE
  5
13E99
  8
0
  6
CONTINUOUS
 10
8688.5424266785958025
 20
2156.7389050880001378
 30
0.0
 11
8688.3677397888986889
 21
2156.9135919776958872
 31
0.0
1001
GRADIENTCOLOR1ACI
1070
     5
1001
GRADIENTCOLOR2ACI
1070
     2
1001
ACAD
1010
0.0
1020
0.0
1030
0.0
  0
LINE
  5
13E9A
  8
0
  6
CONTINUOUS
 10
8688.5424266785958025
 20
2156.7742604270601987
 30
0.0
 11
8688.4030951279582951
 21
2156.9135919776958872
 31
0.0
1001
GRADIENTCOLOR1ACI
1070
     5
1001
GRADIENTCOLOR2ACI
1070
     2
1001
ACAD
1010
0.0
1020
0.0
1030
0.0
  0
LINE
  5
13E9B
  8
0
  6
CONTINUOUS
 10
8688.5424266785958025
 20
2156.8096157661188954
 30
0.0
 11
8688.4384504670179012
 21
2156.9135919776958872
 31
0.0
1001
GRADIENTCOLOR1ACI
1070
     5
1001
GRADIENTCOLOR2ACI
1070
     2
1001
ACAD
1010
0.0
1020
0.0
1030
0.0
  0
LINE
  5
13E9C
  8
0
  6
CONTINUOUS
 10
8688.5424266785958025
 20
2156.8449711051780469
 30
0.0
 11
8688.4738058060775074
 21
2156.9135919776958872
 31
0.0
1001
GRADIENTCOLOR1ACI
1070
     5
1001
GRADIENTCOLOR2ACI
1070
     2
1001
ACAD
1010
0.0
1020
0.0
1030
0.0
  0
LINE
  5
13E9D
  8
0
  6
CONTINUOUS
 10
8688.5424266785958025
 20
2156.8803264442371983
 30
0.0
 11
8688.5091611451371136
 21
2156.9135919776958872
 31
0.0
1001
GRADIENTCOLOR1ACI
1070
     5
1001
GRADIENTCOLOR2ACI
1070
     2
1001
ACAD
1010
0.0
1020
0.0
1030
0.0
  0
LINE
  5
13E9E
  8
0
  6
CONTINUOUS
 10
8688.5424266785958025
 20
2155.8157006869569159
 30
0.0
 11
8688.5379557645355817
 21
2155.8112297728971498
 31
0.0
1001
GRADIENTCOLOR1ACI
1070
     5
1001
GRADIENTCOLOR2ACI
1070
     2
1001
ACAD
1010
0.0
1020
0.0
1030
0.0
  0
LINE
  5
13E9F
  8
0
  6
CONTINUOUS
 10
8688.5424266785958025
 20
2155.8510560260160673
 30
0.0
 11
8688.5026004254759755
 21
2155.8112297728971498
 31
0.0
1001
GRADIENTCOLOR1ACI
1070
     5
1001
GRADIENTCOLOR2ACI
1070
     2
1001
ACAD
1010
0.0
1020
0.0
1030
0.0
  0
LINE
  5
13EA0
  8
0
  6
CONTINUOUS
 10
8688.5424266785958025
 20
2155.8864113650752188
 30
0.0
 11
8688.4672450864163693
 21
2155.8112297728971498
 31
0.0
1001
GRADIENTCOLOR1ACI
1070
     5
1001
GRADIENTCOLOR2ACI
1070
     2
1001
ACAD
1010
0.0
1020
0.0
1030
0.0
  0
LINE
  5
13EA1
  8
0
  6
CONTINUOUS
 10
8688.5424266785958025
 20
2155.921766704134825
 30
0.0
 11
8688.4318897473567631
 21
2155.8112297728971498
 31
0.0
1001
GRADIENTCOLOR1ACI
1070
     5
1001
GRADIENTCOLOR2ACI
1070
     2
1001
ACAD
1010
0.0
1020
0.0
1030
0.0
  0
LINE
  5
13EA2
  8
0
  6
CONTINUOUS
 10
8688.5424266785958025
 20
2155.9571220431939764
 30
0.0
 11
8688.3965344082953379
 21
2155.8112297728971498
 31
0.0
1001
GRADIENTCOLOR1ACI
1070
     5
1001
GRADIENTCOLOR2ACI
1070
     2
1001
ACAD
1010
0.0
1020
0.0
1030
0.0
  0
LINE
  5
13EA3
  8
0
  6
CONTINUOUS
 10
8688.5424266785958025
 20
2155.9924773822540374
 30
0.0
 11
8688.3611790692393697
 21
2155.8112297728971498
 31
0.0
1001
GRADIENTCOLOR1ACI
1070
     5
1001
GRADIENTCOLOR2ACI
1070
     2
1001
ACAD
1010
0.0
1020
0.0
1030
0.0
  0
LINE
  5
13EA4
  8
0
  6
CONTINUOUS
 10
8688.5424266785958025
 20
2156.0278327213131888
 30
0.0
 11
8688.3258237301797635
 21
2155.8112297728971498
 31
0.0
1001
GRADIENTCOLOR1ACI
1070
     5
1001
GRADIENTCOLOR2ACI
1070
     2
1001
ACAD
1010
0.0
1020
0.0
1030
0.0
  0
LINE
  5
13EA5
  8
0
  6
CONTINUOUS
 10
8688.5424266785958025
 20
2156.0631880603718855
 30
0.0
 11
8688.2904683911201573
 21
2155.8112297728971498
 31
0.0
1001
GRADIENTCOLOR1ACI
1070
     5
1001
GRADIENTCOLOR2ACI
1070
     2
1001
ACAD
1010
0.0
1020
0.0
1030
0.0
  0
LINE
  5
13EA6
  8
0
  6
CONTINUOUS
 10
8688.5424266785958025
 20
2156.0985433994319465
 30
0.0
 11
8688.2551130520605511
 21
2155.8112297728971498
 31
0.0
1001
GRADIENTCOLOR1ACI
1070
     5
1001
GRADIENTCOLOR2ACI
1070
     2
1001
ACAD
1010
0.0
1020
0.0
1030
0.0
  0
LINE
  5
13EA7
  8
0
  6
CONTINUOUS
 10
8688.5424266785958025
 20
2156.1338987384910979
 30
0.0
 11
8688.2197577130009449
 21
2155.8112297728971498
 31
0.0
1001
GRADIENTCOLOR1ACI
1070
     5
1001
GRADIENTCOLOR2ACI
1070
     2
1001
ACAD
1010
0.0
1020
0.0
1030
0.0
  0
LINE
  5
13EA8
  8
0
  6
CONTINUOUS
 10
8688.5424266785958025
 20
2156.1692540775497946
 30
0.0
 11
8688.1844023739413387
 21
2155.8112297728971498
 31
0.0
1001
GRADIENTCOLOR1ACI
1070
     5
1001
GRADIENTCOLOR2ACI
1070
     2
1001
ACAD
1010
0.0
1020
0.0
1030
0.0
  0
LINE
  5
13EA9
  8
0
  6
CONTINUOUS
 10
8688.5424266785958025
 20
2156.2046094166098555
 30
0.0
 11
8688.1490470348835515
 21
2155.8112297728971498
 31
0.0
1001
GRADIENTCOLOR1ACI
1070
     5
1001
GRADIENTCOLOR2ACI
1070
     2
1001
ACAD
1010
0.0
1020
0.0
1030
0.0
  0
LINE
  5
13EAA
  8
0
  6
CONTINUOUS
 10
8688.5424266785958025
 20
2156.239964755669007
 30
0.0
 11
8688.1136916958221263
 21
2155.8112297728971498
 31
0.0
1001
GRADIENTCOLOR1ACI
1070
     5
1001
GRADIENTCOLOR2ACI
1070
     2
1001
ACAD
1010
0.0
1020
0.0
1030
0.0
  0
LINE
  5
13EAB
  8
0
  6
CONTINUOUS
 10
8688.5424266785958025
 20
2156.2753200947281584
 30
0.0
 11
8688.0783363567643391
 21
2155.8112297728971498
 31
0.0
1001
GRADIENTCOLOR1ACI
1070
     5
1001
GRADIENTCOLOR2ACI
1070
     2
1001
ACAD
1010
0.0
1020
0.0
1030
0.0
  0
LINE
  5
13EAC
  8
0
  6
CONTINUOUS
 10
8688.5424266785958025
 20
2156.3106754337868551
 30
0.0
 11
8688.0429810177047329
 21
2155.8112297728971498
 31
0.0
1001
GRADIENTCOLOR1ACI
1070
     5
1001
GRADIENTCOLOR2ACI
1070
     2
1001
ACAD
1010
0.0
1020
0.0
1030
0.0
  0
LINE
  5
13EAD
  8
0
  6
CONTINUOUS
 10
8688.5424266785958025
 20
2156.3460307728469161
 30
0.0
 11
8688.0076256786451268
 21
2155.8112297728971498
 31
0.0
1001
GRADIENTCOLOR1ACI
1070
     5
1001
GRADIENTCOLOR2ACI
1070
     2
1001
ACAD
1010
0.0
1020
0.0
1030
0.0
  0
LINE
  5
13EAE
  8
0
  6
CONTINUOUS
 10
8688.5424266785958025
 20
2156.3813861119060675
 30
0.0
 11
8687.9722703395855206
 21
2155.8112297728971498
 31
0.0
1001
GRADIENTCOLOR1ACI
1070
     5
1001
GRADIENTCOLOR2ACI
1070
     2
1001
ACAD
1010
0.0
1020
0.0
1030
0.0
  0
LINE
  5
13EAF
  8
0
  6
CONTINUOUS
 10
8688.5424266785958025
 20
2156.4167414509661285
 30
0.0
 11
8687.9369150005240954
 21
2155.8112297728971498
 31
0.0
1001
GRADIENTCOLOR1ACI
1070
     5
1001
GRADIENTCOLOR2ACI
1070
     2
1001
ACAD
1010
0.0
1020
0.0
1030
0.0
  0
LINE
  5
13EB0
  8
0
  6
CONTINUOUS
 10
8688.5424266785958025
 20
2156.4520967900248252
 30
0.0
 11
8687.9015596614663082
 21
2155.8112297728971498
 31
0.0
1001
GRADIENTCOLOR1ACI
1070
     5
1001
GRADIENTCOLOR2ACI
1070
     2
1001
ACAD
1010
0.0
1020
0.0
1030
0.0
  0
LINE
  5
13EB1
  8
0
  6
CONTINUOUS
 10
8688.5424266785958025
 20
2156.4874521290839766
 30
0.0
 11
8687.866204322408521
 21
2155.8112297728971498
 31
0.0
1001
GRADIENTCOLOR1ACI
1070
     5
1001
GRADIENTCOLOR2ACI
1070
     2
1001
ACAD
1010
0.0
1020
0.0
1030
0.0
  0
LINE
  5
13EB2
  8
0
  6
CONTINUOUS
 10
8688.5424266785958025
 20
2156.5228074681440376
 30
0.0
 11
8687.8308489833489148
 21
2155.8112297728971498
 31
0.0
1001
GRADIENTCOLOR1ACI
1070
     5
1001
GRADIENTCOLOR2ACI
1070
     2
1001
ACAD
1010
0.0
1020
0.0
1030
0.0
  0
LINE
  5
13EB3
  8
0
  6
CONTINUOUS
 10
8688.5424266785958025
 20
2156.558162807203189
 30
0.0
 11
8687.7954936442893086
 21
2155.8112297728971498
 31
0.0
1001
GRADIENTCOLOR1ACI
1070
     5
1001
GRADIENTCOLOR2ACI
1070
     2
1001
ACAD
1010
0.0
1020
0.0
1030
0.0
  0
LINE
  5
13EB4
  8
0
  6
CONTINUOUS
 10
8688.5424266785958025
 20
2156.5935181462618857
 30
0.0
 11
8687.7765214332575852
 21
2155.8276129009250326
 31
0.0
1001
GRADIENTCOLOR1ACI
1070
     5
1001
GRADIENTCOLOR2ACI
1070
     2
1001
ACAD
1010
0.0
1020
0.0
1030
0.0
  0
LINE
  5
13EB5
  8
0
  6
CONTINUOUS
 10
8688.5424266785958025
 20
2156.6288734853219466
 30
0.0
 11
8687.7682982620863186
 21
2155.854745068812008
 31
0.0
1001
GRADIENTCOLOR1ACI
1070
     5
1001
GRADIENTCOLOR2ACI
1070
     2
1001
ACAD
1010
0.0
1020
0.0
1030
0.0
  0
LINE
  5
13EB6
  8
0
  6
CONTINUOUS
 10
8688.5424266785958025
 20
2156.6642288243801886
 30
0.0
 11
8687.7682982620863186
 21
2155.8901004078711594
 31
0.0
1001
GRADIENTCOLOR1ACI
1070
     5
1001
GRADIENTCOLOR2ACI
1070
     2
1001
ACAD
1010
0.0
1020
0.0
1030
0.0
  0
LINE
  5
13EB7
  8
0
  6
CONTINUOUS
 10
8688.5424266785958025
 20
2156.6995841634397948
 30
0.0
 11
8687.7682982620863186
 21
2155.9254557469312203
 31
0.0
1001
GRADIENTCOLOR1ACI
1070
     5
1001
GRADIENTCOLOR2ACI
1070
     2
1001
ACAD
1010
0.0
1020
0.0
1030
0.0
  0
LINE
  5
13EB8
  8
0
  6
CONTINUOUS
 10
8688.5424266785958025
 20
2156.7349395024989462
 30
0.0
 11
8687.7682982620863186
 21
2155.960811085989917
 31
0.0
1001
GRADIENTCOLOR1ACI
1070
     5
1001
GRADIENTCOLOR2ACI
1070
     2
1001
ACAD
1010
0.0
1020
0.0
1030
0.0
  0
LINE
  5
13EB9
  8
0
  6
CONTINUOUS
 10
8688.5424266785958025
 20
2156.7702948415590072
 30
0.0
 11
8687.7682982620863186
 21
2155.9961664250490685
 31
0.0
1001
GRADIENTCOLOR1ACI
1070
     5
1001
GRADIENTCOLOR2ACI
1070
     2
1001
ACAD
1010
0.0
1020
0.0
1030
0.0
  0
LINE
  5
13EBA
  8
0
  6
CONTINUOUS
 10
8688.5424266785958025
 20
2156.8056501806181586
 30
0.0
 11
8687.7682982620863186
 21
2156.0315217641091294
 31
0.0
1001
GRADIENTCOLOR1ACI
1070
     5
1001
GRADIENTCOLOR2ACI
1070
     2
1001
ACAD
1010
0.0
1020
0.0
1030
0.0
  0
LINE
  5
13EBB
  8
0
  6
CONTINUOUS
 10
8688.5424266785958025
 20
2156.8410055196782196
 30
0.0
 11
8687.7682982620863186
 21
2156.0668771031678261
 31
0.0
1001
GRADIENTCOLOR1ACI
1070
     5
1001
GRADIENTCOLOR2ACI
1070
     2
1001
ACAD
1010
0.0
1020
0.0
1030
0.0
  0
LINE
  5
13EBC
  8
0
  6
CONTINUOUS
 10
8688.5424266785958025
 20
2156.8763608587369163
 30
0.0
 11
8687.7682982620863186
 21
2156.1022324422269776
 31
0.0
1001
GRADIENTCOLOR1ACI
1070
     5
1001
GRADIENTCOLOR2ACI
1070
     2
1001
ACAD
1010
0.0
1020
0.0
1030
0.0
  0
LINE
  5
13EBD
  8
0
  6
CONTINUOUS
 10
8688.5424266785958025
 20
2156.9117161977960677
 30
0.0
 11
8687.7682982620863186
 21
2156.1375877812870385
 31
0.0
1001
GRADIENTCOLOR1ACI
1070
     5
1001
GRADIENTCOLOR2ACI
1070
     2
1001
ACAD
1010
0.0
1020
0.0
1030
0.0
  0
LINE
  5
13EBE
  8
0
  6
CONTINUOUS
 10
8688.5089471194369253
 20
2156.9135919776958872
 30
0.0
 11
8687.7682982620863186
 21
2156.17294312034619
 31
0.0
1001
GRADIENTCOLOR1ACI
1070
     5
1001
GRADIENTCOLOR2ACI
1070
     2
1001
ACAD
1010
0.0
1020
0.0
1030
0.0
  0
LINE
  5
13EBF
  8
0
  6
CONTINUOUS
 10
8688.4735917803773191
 20
2156.9135919776958872
 30
0.0
 11
8687.7682982620863186
 21
2156.2082984594048867
 31
0.0
1001
GRADIENTCOLOR1ACI
1070
     5
1001
GRADIENTCOLOR2ACI
1070
     2
1001
ACAD
1010
0.0
1020
0.0
1030
0.0
  0
LINE
  5
13EC0
  8
0
  6
CONTINUOUS
 10
8688.4382364413195319
 20
2156.9135919776958872
 30
0.0
 11
8687.7682982620863186
 21
2156.2436537984649476
 31
0.0
1001
GRADIENTCOLOR1ACI
1070
     5
1001
GRADIENTCOLOR2ACI
1070
     2
1001
ACAD
1010
0.0
1020
0.0
1030
0.0
  0
LINE
  5
13EC1
  8
0
  6
CONTINUOUS
 10
8688.4028811022581067
 20
2156.9135919776958872
 30
0.0
 11
8687.7682982620863186
 21
2156.2790091375240991
 31
0.0
1001
GRADIENTCOLOR1ACI
1070
     5
1001
GRADIENTCOLOR2ACI
1070
     2
1001
ACAD
1010
0.0
1020
0.0
1030
0.0
  0
LINE
  5
13EC2
  8
0
  6
CONTINUOUS
 10
8688.3675257632003195
 20
2156.9135919776958872
 30
0.0
 11
8687.7682982620863186
 21
2156.31436447658416
 31
0.0
1001
GRADIENTCOLOR1ACI
1070
     5
1001
GRADIENTCOLOR2ACI
1070
     2
1001
ACAD
1010
0.0
1020
0.0
1030
0.0
  0
LINE
  5
13EC3
  8
0
  6
CONTINUOUS
 10
8688.3321704241407133
 20
2156.9135919776958872
 30
0.0
 11
8687.7682982620863186
 21
2156.3497198156419472
 31
0.0
1001
GRADIENTCOLOR1ACI
1070
     5
1001
GRADIENTCOLOR2ACI
1070
     2
1001
ACAD
1010
0.0
1020
0.0
1030
0.0
  0
LINE
  5
13EC4
  8
0
  6
CONTINUOUS
 10
8688.2968150850811071
 20
2156.9135919776958872
 30
0.0
 11
8687.7682982620863186
 21
2156.3850751547020081
 31
0.0
1001
GRADIENTCOLOR1ACI
1070
     5
1001
GRADIENTCOLOR2ACI
1070
     2
1001
ACAD
1010
0.0
1020
0.0
1030
0.0
  0
LINE
  5
13EC5
  8
0
  6
CONTINUOUS
 10
8688.2614597460215009
 20
2156.9135919776958872
 30
0.0
 11
8687.7682982620863186
 21
2156.4204304937611596
 31
0.0
1001
GRADIENTCOLOR1ACI
1070
     5
1001
GRADIENTCOLOR2ACI
1070
     2
1001
ACAD
1010
0.0
1020
0.0
1030
0.0
  0
LINE
  5
13EC6
  8
0
  6
CONTINUOUS
 10
8688.2261044069637137
 20
2156.9135919776958872
 30
0.0
 11
8687.7682982620863186
 21
2156.4557858328198563
 31
0.0
1001
GRADIENTCOLOR1ACI
1070
     5
1001
GRADIENTCOLOR2ACI
1070
     2
1001
ACAD
1010
0.0
1020
0.0
1030
0.0
  0
LINE
  5
13EC7
  8
0
  6
CONTINUOUS
 10
8688.1907490679022885
 20
2156.9135919776958872
 30
0.0
 11
8687.7682982620863186
 21
2156.4911411718799172
 31
0.0
1001
GRADIENTCOLOR1ACI
1070
     5
1001
GRADIENTCOLOR2ACI
1070
     2
1001
ACAD
1010
0.0
1020
0.0
1030
0.0
  0
LINE
  5
13EC8
  8
0
  6
CONTINUOUS
 10
8688.1553937288426823
 20
2156.9135919776958872
 30
0.0
 11
8687.7682982620863186
 21
2156.5264965109390687
 31
0.0
1001
GRADIENTCOLOR1ACI
1070
     5
1001
GRADIENTCOLOR2ACI
1070
     2
1001
ACAD
1010
0.0
1020
0.0
1030
0.0
  0
LINE
  5
13EC9
  8
0
  6
CONTINUOUS
 10
8688.1200383897848951
 20
2156.9135919776958872
 30
0.0
 11
8687.7682982620863186
 21
2156.5618518499991296
 31
0.0
1001
GRADIENTCOLOR1ACI
1070
     5
1001
GRADIENTCOLOR2ACI
1070
     2
1001
ACAD
1010
0.0
1020
0.0
1030
0.0
  0
LINE
  5
13ECA
  8
0
  6
CONTINUOUS
 10
8688.0846830507252889
 20
2156.9135919776958872
 30
0.0
 11
8687.7682982620863186
 21
2156.5972071890578263
 31
0.0
1001
GRADIENTCOLOR1ACI
1070
     5
1001
GRADIENTCOLOR2ACI
1070
     2
1001
ACAD
1010
0.0
1020
0.0
1030
0.0
  0
LINE
  5
13ECB
  8
0
  6
CONTINUOUS
 10
8688.0493277116656827
 20
2156.9135919776958872
 30
0.0
 11
8687.7682982620863186
 21
2156.6325625281169778
 31
0.0
1001
GRADIENTCOLOR1ACI
1070
     5
1001
GRADIENTCOLOR2ACI
1070
     2
1001
ACAD
1010
0.0
1020
0.0
1030
0.0
  0
LINE
  5
13ECC
  8
0
  6
CONTINUOUS
 10
8688.0139723726078955
 20
2156.9135919776958872
 30
0.0
 11
8687.7682982620863186
 21
2156.6679178671770387
 31
0.0
1001
GRADIENTCOLOR1ACI
1070
     5
1001
GRADIENTCOLOR2ACI
1070
     2
1001
ACAD
1010
0.0
1020
0.0
1030
0.0
  0
LINE
  5
13ECD
  8
0
  6
CONTINUOUS
 10
8687.9786170335464703
 20
2156.9135919776958872
 30
0.0
 11
8687.7682982620863186
 21
2156.7032732062361902
 31
0.0
1001
GRADIENTCOLOR1ACI
1070
     5
1001
GRADIENTCOLOR2ACI
1070
     2
1001
ACAD
1010
0.0
1020
0.0
1030
0.0
  0
LINE
  5
13ECE
  8
0
  6
CONTINUOUS
 10
8687.9432616944868641
 20
2156.9135919776958872
 30
0.0
 11
8687.7682982620863186
 21
2156.7386285452957964
 31
0.0
1001
GRADIENTCOLOR1ACI
1070
     5
1001
GRADIENTCOLOR2ACI
1070
     2
1001
ACAD
1010
0.0
1020
0.0
1030
0.0
  0
LINE
  5
13ECF
  8
0
  6
CONTINUOUS
 10
8687.9079063554272579
 20
2156.9135919776958872
 30
0.0
 11
8687.7682982620863186
 21
2156.7739838843549478
 31
0.0
1001
GRADIENTCOLOR1ACI
1070
     5
1001
GRADIENTCOLOR2ACI
1070
     2
1001
ACAD
1010
0.0
1020
0.0
1030
0.0
  0
LINE
  5
13ED0
  8
0
  6
CONTINUOUS
 10
8687.8725510163694707
 20
2156.9135919776958872
 30
0.0
 11
8687.7682982620863186
 21
2156.8093392234140993
 31
0.0
1001
GRADIENTCOLOR1ACI
1070
     5
1001
GRADIENTCOLOR2ACI
1070
     2
1001
ACAD
1010
0.0
1020
0.0
1030
0.0
  0
LINE
  5
13ED1
  8
0
  6
CONTINUOUS
 10
8687.8371956773098645
 20
2156.9135919776958872
 30
0.0
 11
8687.7682982620863186
 21
2156.844694562472796
 31
0.0
1001
GRADIENTCOLOR1ACI
1070
     5
1001
GRADIENTCOLOR2ACI
1070
     2
1001
ACAD
1010
0.0
1020
0.0
1030
0.0
  0
LINE
  5
13ED2
  8
0
  6
CONTINUOUS
 10
8687.8018403382502584
 20
2156.9135919776958872
 30
0.0
 11
8687.7682982620863186
 21
2156.8800499015319474
 31
0.0
1001
GRADIENTCOLOR1ACI
1070
     5
1001
GRADIENTCOLOR2ACI
1070
     2
1001
ACAD
1010
0.0
1020
0.0
1030
0.0
  0
LINE
  5
13ED3
  8
0
 10
8687.5517628290872381
 20
2155.8309297728960701
 30
0.0
 11
8687.5517628290872381
 21
2156.8938919776960574
 31
0.0
  0
LINE
  5
13ED4
  8
0
 10
8689.9139825141883193
 20
2155.1813085130961554
 30
0.0
 11
8690.1305029865870893
 21
2155.1813085130961554
 31
0.0
  0
ARC
  5
13ED5
  8
0
 10
8689.9139825141883193
 20
2155.2010085130968946
 30
0.0
 40
0.0197
 50
180.0
 51
270.0
  0
LINE
  5
13ED6
  8
0
 10
8689.8942825141857611
 20
2155.8112297728971498
 30
0.0
 11
8687.7929045612872869
 21
2155.8112297728971498
 31
0.0
  0
LINE
  5
13ED7
  8
0
 10
8687.7682982620863186
 20
2155.8358360720958444
 30
0.0
 11
8687.7929045612872869
 21
2155.8112297728971498
 31
0.0
  0
LINE
  5
13ED8
  8
0
 10
8687.7682982620863186
 20
2155.9687100878968522
 30
0.0
 11
8687.6304628290872643
 21
2155.9687100878968522
 31
0.0
  0
ARC
  5
13ED9
  8
0
 10
8687.6304628290872643
 20
2155.890010087896826
 30
0.0
 40
0.0787
 50
90.0
 51
180.0
  0
LINE
  5
13EDA
  8
0
 10
8687.5320628290864988
 20
2155.8112297728971498
 30
0.0
 11
8686.8229715077432047
 21
2155.8112297728971498
 31
0.0
  0
ARC
  5
13EDB
  8
0
 10
8687.5320628290864988
 20
2155.8309297728960701
 30
0.0
 40
0.0197
 50
270.0
 51
0.0
  0
ARC
  5
13EDC
  8
0
 10
8688.3836424734308821
 20
2156.3740900350239826
 30
0.0
 40
1.7581795862129721
 50
180.3806047387408
 51
185.7821816335543872
  0
ARC
  5
13EDD
  8
0
 10
8687.8331546098561375
 20
2156.3273453341689674
 30
0.0
 40
1.205816411231023
 50
186.2076013978050923
 51
193.5416715057862973
  0
ARC
  5
13EDE
  8
0
 10
8687.3472077892911329
 20
2156.2103059565979493
 30
0.0
 40
0.7059739077164902
 50
193.5416715057862973
 51
200.881172904471299
  0
ARC
  5
13EDF
  8
0
 10
8687.1340274131707702
 20
2156.1289805414257899
 30
0.0
 40
0.4778079682870649
 50
200.881172904471299
 51
209.2911858207777129
  0
ARC
  5
13EE0
  8
0
 10
8686.9257730596054898
 20
2156.0121557711481728
 30
0.0
 40
0.2390237503646918
 50
209.2911858207777129
 51
225.308901608158493
  0
ARC
  5
13EE1
  8
0
 10
8686.838068186352757
 20
2155.9235000670601039
 30
0.0
 40
0.1143161777797709
 50
225.308901608158493
 51
241.1702050255271104
  0
ARC
  5
13EE2
  8
0
 10
8686.8351945901140425
 20
2155.918279447491841
 30
0.0
 40
0.1083569476271218
 50
241.1702050255271104
 51
254.4735405760968092
  0
ARC
  5
13EE3
  8
0
 10
8686.8267598570982955
 20
2155.8897724243311131
 30
0.0
 40
0.0786339601271368
 50
254.8349976381039141
 51
267.2385915408898995
  0
ARC
  5
13EE4
  8
0
 10
8688.9167291806588764
 20
2156.3845447867652183
 30
0.0
 40
2.1304253083711968
 50
180.5952813844384934
 51
184.0743758944311139
  0
ARC
  5
13EE5
  8
0
 10
8688.0872904743100662
 20
2156.3393044551557978
 30
0.0
 40
1.2999418130337681
 50
184.6829288768070967
 51
194.0907087396819861
  0
ARC
  5
13EE6
  8
0
 10
8687.4046579476489569
 20
2156.1679566932261878
 30
0.0
 40
0.5961327324064644
 50
194.0907087396819861
 51
205.1938666918975969
  0
ARC
  5
13EE7
  8
0
 10
8687.1429843359746883
 20
2156.0448566502809626
 30
0.0
 40
0.3069499189105979
 50
205.1938666918975969
 51
220.7425604913379971
  0
ARC
  5
13EE8
  8
0
 10
8686.9893689258333325
 20
2155.9125278956830698
 30
0.0
 40
0.104197376325549
 50
220.7425604913379971
 51
242.5120485185908024
  0
ARC
  5
13EE9
  8
0
 10
8686.980068434293571
 20
2155.8946526410691149
 30
0.0
 40
0.0840473423177934
 50
242.5120485185908024
 51
263.011207637700295
  0
LINE
  5
13EEA
  8
0
 10
8686.6838597700698301
 20
2155.9687100878968522
 30
0.0
 11
8682.5645366774297145
 21
2155.9687100878968522
 31
0.0
  0
LINE
  5
13EEB
  8
0
 10
8689.9139825141883193
 20
2157.5435132374959721
 30
0.0
 11
8690.1305029865870893
 21
2157.5435132374959721
 31
0.0
  0
ARC
  5
13EEC
  8
0
 10
8689.9139825141883193
 20
2157.5238132374961424
 30
0.0
 40
0.0197
 50
90.0
 51
180.0
  0
LINE
  5
13EED
  8
0
 10
8689.8942825141857611
 20
2156.9135919776958872
 30
0.0
 11
8687.7929045612872869
 21
2156.9135919776958872
 31
0.0
  0
LINE
  5
13EEE
  8
0
 10
8687.7682982620863186
 20
2156.8889856784958283
 30
0.0
 11
8687.7929045612872869
 21
2156.9135919776958872
 31
0.0
  0
LINE
  5
13EEF
  8
0
 10
8687.7682982620863186
 20
2156.7561116626961848
 30
0.0
 11
8687.6304628290872643
 21
2156.7561116626961848
 31
0.0
  0
ARC
  5
13EF0
  8
0
 10
8687.6304628290872643
 20
2156.834811662696211
 30
0.0
 40
0.0787
 50
180.0
 51
270.0
  0
LINE
  5
13EF1
  8
0
 10
8687.5320628290864988
 20
2156.9135919776958872
 30
0.0
 11
8686.8229715077432047
 21
2156.9135919776958872
 31
0.0
  0
ARC
  5
13EF2
  8
0
 10
8687.5320628290864988
 20
2156.8938919776960574
 30
0.0
 40
0.0197
 50
0.0
 51
90.0
  0
ARC
  5
13EF3
  8
0
 10
8688.3836424734308821
 20
2156.3507317155681449
 30
0.0
 40
1.7581795862126439
 50
174.2178183664456128
 51
179.6193952612590863
  0
ARC
  5
13EF4
  8
0
 10
8687.8331546098561375
 20
2156.3974764164240696
 30
0.0
 40
1.205816411231023
 50
166.4583284942137027
 51
173.792398602194794
  0
ARC
  5
13EF5
  8
0
 10
8687.3472077892911329
 20
2156.5145157939941782
 30
0.0
 40
0.7059739077164902
 50
159.1188270955285873
 51
166.4583284942137027
  0
ARC
  5
13EF6
  8
0
 10
8687.1340274131707702
 20
2156.5958412091667924
 30
0.0
 40
0.4778079682870649
 50
150.7088141792222871
 51
159.1188270955285873
  0
ARC
  5
13EF7
  8
0
 10
8686.9257730596054898
 20
2156.7126659794439547
 30
0.0
 40
0.2390237503646918
 50
134.691098391841507
 51
150.7088141792222871
  0
ARC
  5
13EF8
  8
0
 10
8686.838068186352757
 20
2156.8013216835329331
 30
0.0
 40
0.1143161777797709
 50
118.8297949744729038
 51
134.691098391841507
  0
ARC
  5
13EF9
  8
0
 10
8686.8351945901140425
 20
2156.806542303101196
 30
0.0
 40
0.1083569476271218
 50
105.526459423903205
 51
118.8297949744729038
  0
ARC
  5
13EFA
  8
0
 10
8686.8267598570982955
 20
2156.8350493262610144
 30
0.0
 40
0.0786339601271368
 50
92.7614084591101289
 51
105.1650023618961001
  0
ARC
  5
13EFB
  8
0
 10
8688.9167291806588764
 20
2156.3402769638269092
 30
0.0
 40
2.1304253083710751
 50
175.9256241055688008
 51
179.4047186155615066
  0
ARC
  5
13EFC
  8
0
 10
8688.0872904743100662
 20
2156.3855172954367845
 30
0.0
 40
1.2999418130337681
 50
165.9092912603180139
 51
175.3170711231927896
  0
ARC
  5
13EFD
  8
0
 10
8687.4046579476489569
 20
2156.5568650573659397
 30
0.0
 40
0.5961327324064644
 50
154.8061333081022894
 51
165.9092912603180139
  0
ARC
  5
13EFE
  8
0
 10
8687.1429843359746883
 20
2156.6799651003120744
 30
0.0
 40
0.3069499189105979
 50
139.2574395086620029
 51
154.8061333081022894
  0
ARC
  5
13EFF
  8
0
 10
8686.9893689258333325
 20
2156.8122938549090577
 30
0.0
 40
0.104197376325549
 50
117.4879514814090982
 51
139.2574395086620029
  0
ARC
  5
13F00
  8
0
 10
8686.980068434293571
 20
2156.8301691095239221
 30
0.0
 40
0.0840473423177934
 50
96.9887923622996766
 51
117.4879514814090982
  0
LINE
  5
13F01
  8
0
 10
8686.6838597700698301
 20
2156.7561116626961848
 30
0.0
 11
8682.5645352343071863
 21
2156.7561116626961848
 31
0.0
  0
LINE
  5
13F02
  8
0
 10
8680.8573350130718609
 20
2154.3557137373982187
 30
0.0
 11
8680.9368527170954621
 21
2155.2646154307840334
 31
0.0
  0
LINE
  5
13F03
  8
0
 10
8681.6417402872102684
 20
2154.2870871679660922
 30
0.0
 11
8681.7212578654998651
 21
2155.1959874241388206
 31
0.0
  0
LINE
  5
13F04
  8
0
 10
8681.6150830420865532
 20
2154.2647190834341018
 30
0.0
 11
8680.8797030975856615
 21
2154.3290564919329881
 31
0.0
  0
LINE
  5
13F05
  8
0
 10
8680.8797030975856615
 20
2154.3290564919329881
 30
0.0
 11
8680.8573350130718609
 21
2154.3557137373982187
 31
0.0
  0
LINE
  5
13F06
  8
0
 10
8681.6417402872102684
 20
2154.2870871679660922
 30
0.0
 11
8681.6150830420865532
 21
2154.2647190834341018
 31
0.0
  0
ARC
  5
13F07
  8
0
 10
8682.5645366774297145
 20
2155.1222100878958372
 30
0.0
 40
0.8464999999999999
 50
90.0
 51
174.9999999995559108
  0
ARC
  5
13F08
  8
0
 10
8682.5645352343071863
 20
2155.1222116626959178
 30
0.0
 40
1.633899999999999
 50
90.0
 51
174.9999999995559108
  0
LINE
  5
13F09
  8
0
 10
8680.91009168808705
 20
2154.9587252915330282
 30
0.0
 11
8681.6944969621981727
 21
2154.8900987225579229
 31
0.0
  0
LINE
  5
13F0A
  8
0
  6
CONTINUOUS
 10
8681.6433730557655508
 20
2154.3057497979239088
 30
0.0
 11
8681.5964204121210059
 21
2154.2663518519580066
 31
0.0
1001
GRADIENTCOLOR1ACI
1070
     5
1001
GRADIENTCOLOR2ACI
1070
     2
1001
ACAD
1010
0.0
1020
0.0
1030
0.0
  0
LINE
  5
13F0B
  8
0
  6
CONTINUOUS
 10
8681.64645447660223
 20
2154.340970599243974
 30
0.0
 11
8681.5611996108018502
 21
2154.2694332727937763
 31
0.0
1001
GRADIENTCOLOR1ACI
1070
     5
1001
GRADIENTCOLOR2ACI
1070
     2
1001
ACAD
1010
0.0
1020
0.0
1030
0.0
  0
LINE
  5
13F0C
  8
0
  6
CONTINUOUS
 10
8681.6495358974389092
 20
2154.3761914005640392
 30
0.0
 11
8681.5259788094808755
 21
2154.2725146936309102
 31
0.0
1001
GRADIENTCOLOR1ACI
1070
     5
1001
GRADIENTCOLOR2ACI
1070
     2
1001
ACAD
1010
0.0
1020
0.0
1030
0.0
  0
LINE
  5
13F0D
  8
0
  6
CONTINUOUS
 10
8681.6526173182737693
 20
2154.4114122018850139
 30
0.0
 11
8681.4907580081635388
 21
2154.2755961144662251
 31
0.0
1001
GRADIENTCOLOR1ACI
1070
     5
1001
GRADIENTCOLOR2ACI
1070
     2
1001
ACAD
1010
0.0
1020
0.0
1030
0.0
  0
LINE
  5
13F0E
  8
0
  6
CONTINUOUS
 10
8681.6556987391122675
 20
2154.4466330032050791
 30
0.0
 11
8681.455537206842564
 21
2154.2786775353019948
 31
0.0
1001
GRADIENTCOLOR1ACI
1070
     5
1001
GRADIENTCOLOR2ACI
1070
     2
1001
ACAD
1010
0.0
1020
0.0
1030
0.0
  0
LINE
  5
13F0F
  8
0
  6
CONTINUOUS
 10
8681.6587801599453087
 20
2154.4818538045251444
 30
0.0
 11
8681.4203164055197703
 21
2154.2817589561382192
 31
0.0
1001
GRADIENTCOLOR1ACI
1070
     5
1001
GRADIENTCOLOR2ACI
1070
     2
1001
ACAD
1010
0.0
1020
0.0
1030
0.0
  0
LINE
  5
13F10
  8
0
  6
CONTINUOUS
 10
8681.6618615807838069
 20
2154.5170746058461191
 30
0.0
 11
8681.3850956042006146
 21
2154.2848403769730794
 31
0.0
1001
GRADIENTCOLOR1ACI
1070
     5
1001
GRADIENTCOLOR2ACI
1070
     2
1001
ACAD
1010
0.0
1020
0.0
1030
0.0
  0
LINE
  5
13F11
  8
0
  6
CONTINUOUS
 10
8681.664943001618667
 20
2154.5522954071661843
 30
0.0
 11
8681.3498748028796399
 21
2154.2879217978088491
 31
0.0
1001
GRADIENTCOLOR1ACI
1070
     5
1001
GRADIENTCOLOR2ACI
1070
     2
1001
ACAD
1010
0.0
1020
0.0
1030
0.0
  0
LINE
  5
13F12
  8
0
  6
CONTINUOUS
 10
8681.6680244224553462
 20
2154.5875162084857948
 30
0.0
 11
8681.3146540015604842
 21
2154.2910032186450735
 31
0.0
1001
GRADIENTCOLOR1ACI
1070
     5
1001
GRADIENTCOLOR2ACI
1070
     2
1001
ACAD
1010
0.0
1020
0.0
1030
0.0
  0
LINE
  5
13F13
  8
0
  6
CONTINUOUS
 10
8681.6711058432902064
 20
2154.6227370098072242
 30
0.0
 11
8681.2794332002395095
 21
2154.2940846394808432
 31
0.0
1001
GRADIENTCOLOR1ACI
1070
     5
1001
GRADIENTCOLOR2ACI
1070
     2
1001
ACAD
1010
0.0
1020
0.0
1030
0.0
  0
LINE
  5
13F14
  8
0
  6
CONTINUOUS
 10
8681.6741872641268856
 20
2154.657957811128199
 30
0.0
 11
8681.2442123989203537
 21
2154.2971660603170676
 31
0.0
1001
GRADIENTCOLOR1ACI
1070
     5
1001
GRADIENTCOLOR2ACI
1070
     2
1001
ACAD
1010
0.0
1020
0.0
1030
0.0
  0
LINE
  5
13F15
  8
0
  6
CONTINUOUS
 10
8681.6772686849617457
 20
2154.6931786124478094
 30
0.0
 11
8681.20899159759756
 21
2154.3002474811528373
 31
0.0
1001
GRADIENTCOLOR1ACI
1070
     5
1001
GRADIENTCOLOR2ACI
1070
     2
1001
ACAD
1010
0.0
1020
0.0
1030
0.0
  0
LINE
  5
13F16
  8
0
  6
CONTINUOUS
 10
8681.6803501057984249
 20
2154.7283994137678746
 30
0.0
 11
8681.1737707962802233
 21
2154.3033289019881522
 31
0.0
1001
GRADIENTCOLOR1ACI
1070
     5
1001
GRADIENTCOLOR2ACI
1070
     2
1001
ACAD
1010
0.0
1020
0.0
1030
0.0
  0
LINE
  5
13F17
  8
0
  6
CONTINUOUS
 10
8681.6834315266332851
 20
2154.7636202150888494
 30
0.0
 11
8681.1385499949592486
 21
2154.3064103228239219
 31
0.0
1001
GRADIENTCOLOR1ACI
1070
     5
1001
GRADIENTCOLOR2ACI
1070
     2
1001
ACAD
1010
0.0
1020
0.0
1030
0.0
  0
LINE
  5
13F18
  8
0
  6
CONTINUOUS
 10
8681.6865129474717833
 20
2154.7988410164089146
 30
0.0
 11
8681.1033291936382739
 21
2154.3094917436601463
 31
0.0
1001
GRADIENTCOLOR1ACI
1070
     5
1001
GRADIENTCOLOR2ACI
1070
     2
1001
ACAD
1010
0.0
1020
0.0
1030
0.0
  0
LINE
  5
13F19
  8
0
  6
CONTINUOUS
 10
8681.6895943683066434
 20
2154.8340618177298893
 30
0.0
 11
8681.0681083923191181
 21
2154.312573164495916
 31
0.0
1001
GRADIENTCOLOR1ACI
1070
     5
1001
GRADIENTCOLOR2ACI
1070
     2
1001
ACAD
1010
0.0
1020
0.0
1030
0.0
  0
LINE
  5
13F1A
  8
0
  6
CONTINUOUS
 10
8681.6926757891433226
 20
2154.8692826190499545
 30
0.0
 11
8681.0328875909981434
 21
2154.3156545853321404
 31
0.0
1001
GRADIENTCOLOR1ACI
1070
     5
1001
GRADIENTCOLOR2ACI
1070
     2
1001
ACAD
1010
0.0
1020
0.0
1030
0.0
  0
LINE
  5
13F1B
  8
0
  6
CONTINUOUS
 10
8681.6800922644033562
 20
2154.8913589703138314
 30
0.0
 11
8680.9976667896789877
 21
2154.3187360061670006
 31
0.0
1001
GRADIENTCOLOR1ACI
1070
     5
1001
GRADIENTCOLOR2ACI
1070
     2
1001
ACAD
1010
0.0
1020
0.0
1030
0.0
  0
LINE
  5
13F1C
  8
0
  6
CONTINUOUS
 10
8681.6448714630751056
 20
2154.8944403911459631
 30
0.0
 11
8680.962445988358013
 21
2154.321817427003225
 31
0.0
1001
GRADIENTCOLOR1ACI
1070
     5
1001
GRADIENTCOLOR2ACI
1070
     2
1001
ACAD
1010
0.0
1020
0.0
1030
0.0
  0
LINE
  5
13F1D
  8
0
  6
CONTINUOUS
 10
8681.6096506617504929
 20
2154.897521811975821
 30
0.0
 11
8680.9272251870388573
 21
2154.3248988478389947
 31
0.0
1001
GRADIENTCOLOR1ACI
1070
     5
1001
GRADIENTCOLOR2ACI
1070
     2
1001
ACAD
1010
0.0
1020
0.0
1030
0.0
  0
LINE
  5
13F1E
  8
0
  6
CONTINUOUS
 10
8681.5744298604258802
 20
2154.9006032328070432
 30
0.0
 11
8680.8920043857178825
 21
2154.3279802686752191
 31
0.0
1001
GRADIENTCOLOR1ACI
1070
     5
1001
GRADIENTCOLOR2ACI
1070
     2
1001
ACAD
1010
0.0
1020
0.0
1030
0.0
  0
LINE
  5
13F1F
  8
0
  6
CONTINUOUS
 10
8681.5392090590994485
 20
2154.9036846536378107
 30
0.0
 11
8680.8692459397807397
 21
2154.3415188473159105
 31
0.0
1001
GRADIENTCOLOR1ACI
1070
     5
1001
GRADIENTCOLOR2ACI
1070
     2
1001
ACAD
1010
0.0
1020
0.0
1030
0.0
  0
LINE
  5
13F20
  8
0
  6
CONTINUOUS
 10
8681.5039882577730168
 20
2154.9067660744690329
 30
0.0
 11
8680.8581324709139153
 21
2154.3648287219220947
 31
0.0
1001
GRADIENTCOLOR1ACI
1070
     5
1001
GRADIENTCOLOR2ACI
1070
     2
1001
ACAD
1010
0.0
1020
0.0
1030
0.0
  0
LINE
  5
13F21
  8
0
  6
CONTINUOUS
 10
8681.4687674564465851
 20
2154.9098474952998004
 30
0.0
 11
8680.8612138917505945
 21
2154.4000495232421599
 31
0.0
1001
GRADIENTCOLOR1ACI
1070
     5
1001
GRADIENTCOLOR2ACI
1070
     2
1001
ACAD
1010
0.0
1020
0.0
1030
0.0
  0
LINE
  5
13F22
  8
0
  6
CONTINUOUS
 10
8681.4335466551237914
 20
2154.9129289161310226
 30
0.0
 11
8680.8642953125854547
 21
2154.4352703245622251
 31
0.0
1001
GRADIENTCOLOR1ACI
1070
     5
1001
GRADIENTCOLOR2ACI
1070
     2
1001
ACAD
1010
0.0
1020
0.0
1030
0.0
  0
LINE
  5
13F23
  8
0
  6
CONTINUOUS
 10
8681.3983258537973597
 20
2154.91601033696179
 30
0.0
 11
8680.8673767334221338
 21
2154.4704911258818356
 31
0.0
1001
GRADIENTCOLOR1ACI
1070
     5
1001
GRADIENTCOLOR2ACI
1070
     2
1001
ACAD
1010
0.0
1020
0.0
1030
0.0
  0
LINE
  5
13F24
  8
0
  6
CONTINUOUS
 10
8681.3631050524691091
 20
2154.9190917577930122
 30
0.0
 11
8680.870458154258813
 21
2154.5057119272019008
 31
0.0
1001
GRADIENTCOLOR1ACI
1070
     5
1001
GRADIENTCOLOR2ACI
1070
     2
1001
ACAD
1010
0.0
1020
0.0
1030
0.0
  0
LINE
  5
13F25
  8
0
  6
CONTINUOUS
 10
8681.3278842511444964
 20
2154.9221731786237797
 30
0.0
 11
8680.8735395750936732
 21
2154.5409327285219661
 31
0.0
1001
GRADIENTCOLOR1ACI
1070
     5
1001
GRADIENTCOLOR2ACI
1070
     2
1001
ACAD
1010
0.0
1020
0.0
1030
0.0
  0
LINE
  5
13F26
  8
0
  6
CONTINUOUS
 10
8681.2926634498180647
 20
2154.9252545994550019
 30
0.0
 11
8680.8766209959285334
 21
2154.5761535298429408
 31
0.0
1001
GRADIENTCOLOR1ACI
1070
     5
1001
GRADIENTCOLOR2ACI
1070
     2
1001
ACAD
1010
0.0
1020
0.0
1030
0.0
  0
LINE
  5
13F27
  8
0
  6
CONTINUOUS
 10
8681.257442648491633
 20
2154.9283360202862241
 30
0.0
 11
8680.8797024167652125
 21
2154.611374331163006
 31
0.0
1001
GRADIENTCOLOR1ACI
1070
     5
1001
GRADIENTCOLOR2ACI
1070
     2
1001
ACAD
1010
0.0
1020
0.0
1030
0.0
  0
LINE
  5
13F28
  8
0
  6
CONTINUOUS
 10
8681.2222218471652013
 20
2154.9314174411169915
 30
0.0
 11
8680.8827838376018917
 21
2154.6465951324830712
 31
0.0
1001
GRADIENTCOLOR1ACI
1070
     5
1001
GRADIENTCOLOR2ACI
1070
     2
1001
ACAD
1010
0.0
1020
0.0
1030
0.0
  0
LINE
  5
13F29
  8
0
  6
CONTINUOUS
 10
8681.1870010458405886
 20
2154.9344988619482137
 30
0.0
 11
8680.8858652584367519
 21
2154.6818159338031364
 31
0.0
1001
GRADIENTCOLOR1ACI
1070
     5
1001
GRADIENTCOLOR2ACI
1070
     2
1001
ACAD
1010
0.0
1020
0.0
1030
0.0
  0
LINE
  5
13F2A
  8
0
  6
CONTINUOUS
 10
8681.1517802445141569
 20
2154.9375802827789812
 30
0.0
 11
8680.8889466792734311
 21
2154.7170367351232017
 31
0.0
1001
GRADIENTCOLOR1ACI
1070
     5
1001
GRADIENTCOLOR2ACI
1070
     2
1001
ACAD
1010
0.0
1020
0.0
1030
0.0
  0
LINE
  5
13F2B
  8
0
  6
CONTINUOUS
 10
8681.1165594431877253
 20
2154.9406617036102034
 30
0.0
 11
8680.8920281001082913
 21
2154.7522575364428121
 31
0.0
1001
GRADIENTCOLOR1ACI
1070
     5
1001
GRADIENTCOLOR2ACI
1070
     2
1001
ACAD
1010
0.0
1020
0.0
1030
0.0
  0
LINE
  5
13F2C
  8
0
  6
CONTINUOUS
 10
8681.0813386418631126
 20
2154.9437431244409709
 30
0.0
 11
8680.8951095209431514
 21
2154.7874783377628773
 31
0.0
1001
GRADIENTCOLOR1ACI
1070
     5
1001
GRADIENTCOLOR2ACI
1070
     2
1001
ACAD
1010
0.0
1020
0.0
1030
0.0
  0
LINE
  5
13F2D
  8
0
  6
CONTINUOUS
 10
8681.0461178405348619
 20
2154.9468245452708288
 30
0.0
 11
8680.8981909417798306
 21
2154.8226991390829426
 31
0.0
1001
GRADIENTCOLOR1ACI
1070
     5
1001
GRADIENTCOLOR2ACI
1070
     2
1001
ACAD
1010
0.0
1020
0.0
1030
0.0
  0
LINE
  5
13F2E
  8
0
  6
CONTINUOUS
 10
8681.0108970392102492
 20
2154.9499059661029605
 30
0.0
 11
8680.9012723626165098
 21
2154.8579199404039173
 31
0.0
1001
GRADIENTCOLOR1ACI
1070
     5
1001
GRADIENTCOLOR2ACI
1070
     2
1001
ACAD
1010
0.0
1020
0.0
1030
0.0
  0
LINE
  5
13F2F
  8
0
  6
CONTINUOUS
 10
8680.9756762378838175
 20
2154.9529873869328185
 30
0.0
 11
8680.90435378345137
 21
2154.8931407417239825
 31
0.0
1001
GRADIENTCOLOR1ACI
1070
     5
1001
GRADIENTCOLOR2ACI
1070
     2
1001
ACAD
1010
0.0
1020
0.0
1030
0.0
  0
LINE
  5
13F30
  8
0
  6
CONTINUOUS
 10
8680.9404554365610238
 20
2154.9560688077649502
 30
0.0
 11
8680.9074352042880491
 21
2154.9283615430440477
 31
0.0
1001
GRADIENTCOLOR1ACI
1070
     5
1001
GRADIENTCOLOR2ACI
1070
     2
1001
ACAD
1010
0.0
1020
0.0
1030
0.0
  0
LINE
  5
13F31
  8
0
  6
CONTINUOUS
 10
8681.654372357243119
 20
2154.8936091706141269
 30
0.0
 11
8681.6909865141551563
 21
2154.8499741175751296
 31
0.0
1001
GRADIENTCOLOR1ACI
1070
     5
1001
GRADIENTCOLOR2ACI
1070
     2
1001
ACAD
1010
0.0
1020
0.0
1030
0.0
  0
LINE
  5
13F32
  8
0
  6
CONTINUOUS
 10
8681.6191515559276013
 20
2154.8966905914439849
 30
0.0
 11
8681.6879050933166582
 21
2154.8147533162550644
 31
0.0
1001
GRADIENTCOLOR1ACI
1070
     5
1001
GRADIENTCOLOR2ACI
1070
     2
1001
ACAD
1010
0.0
1020
0.0
1030
0.0
  0
LINE
  5
13F33
  8
0
  6
CONTINUOUS
 10
8681.5839307546120835
 20
2154.8997720122738428
 30
0.0
 11
8681.684823672481798
 21
2154.7795325149349992
 31
0.0
1001
GRADIENTCOLOR1ACI
1070
     5
1001
GRADIENTCOLOR2ACI
1070
     2
1001
ACAD
1010
0.0
1020
0.0
1030
0.0
  0
LINE
  5
13F34
  8
0
  6
CONTINUOUS
 10
8681.5487099532965658
 20
2154.9028534331041556
 30
0.0
 11
8681.6817422516451188
 21
2154.744311713614934
 31
0.0
1001
GRADIENTCOLOR1ACI
1070
     5
1001
GRADIENTCOLOR2ACI
1070
     2
1001
ACAD
1010
0.0
1020
0.0
1030
0.0
  0
LINE
  5
13F35
  8
0
  6
CONTINUOUS
 10
8681.5134891519810481
 20
2154.9059348539340135
 30
0.0
 11
8681.6786608308102586
 21
2154.7090909122948688
 31
0.0
1001
GRADIENTCOLOR1ACI
1070
     5
1001
GRADIENTCOLOR2ACI
1070
     2
1001
ACAD
1010
0.0
1020
0.0
1030
0.0
  0
LINE
  5
13F36
  8
0
  6
CONTINUOUS
 10
8681.4782683506673493
 20
2154.9090162747638715
 30
0.0
 11
8681.6755794099735795
 21
2154.6738701109748035
 31
0.0
1001
GRADIENTCOLOR1ACI
1070
     5
1001
GRADIENTCOLOR2ACI
1070
     2
1001
ACAD
1010
0.0
1020
0.0
1030
0.0
  0
LINE
  5
13F37
  8
0
  6
CONTINUOUS
 10
8681.4430475493518315
 20
2154.9120976955950937
 30
0.0
 11
8681.6724979891387193
 21
2154.6386493096561026
 31
0.0
1001
GRADIENTCOLOR1ACI
1070
     5
1001
GRADIENTCOLOR2ACI
1070
     2
1001
ACAD
1010
0.0
1020
0.0
1030
0.0
  0
LINE
  5
13F38
  8
0
  6
CONTINUOUS
 10
8681.4078267480363138
 20
2154.9151791164240421
 30
0.0
 11
8681.6694165683020401
 21
2154.6034285083360373
 31
0.0
1001
GRADIENTCOLOR1ACI
1070
     5
1001
GRADIENTCOLOR2ACI
1070
     2
1001
ACAD
1010
0.0
1020
0.0
1030
0.0
  0
LINE
  5
13F39
  8
0
  6
CONTINUOUS
 10
8681.3726059467207961
 20
2154.9182605372539001
 30
0.0
 11
8681.6663351474653609
 21
2154.5682077070159721
 31
0.0
1001
GRADIENTCOLOR1ACI
1070
     5
1001
GRADIENTCOLOR2ACI
1070
     2
1001
ACAD
1010
0.0
1020
0.0
1030
0.0
  0
LINE
  5
13F3A
  8
0
  6
CONTINUOUS
 10
8681.3373851454052783
 20
2154.9213419580842128
 30
0.0
 11
8681.6632537266305008
 21
2154.5329869056959069
 31
0.0
1001
GRADIENTCOLOR1ACI
1070
     5
1001
GRADIENTCOLOR2ACI
1070
     2
1001
ACAD
1010
0.0
1020
0.0
1030
0.0
  0
LINE
  5
13F3B
  8
0
  6
CONTINUOUS
 10
8681.3021643440897606
 20
2154.9244233789140708
 30
0.0
 11
8681.6601723057956406
 21
2154.4977661043758417
 31
0.0
1001
GRADIENTCOLOR1ACI
1070
     5
1001
GRADIENTCOLOR2ACI
1070
     2
1001
ACAD
1010
0.0
1020
0.0
1030
0.0
  0
LINE
  5
13F3C
  8
0
  6
CONTINUOUS
 10
8681.2669435427742428
 20
2154.9275047997439287
 30
0.0
 11
8681.6570908849571424
 21
2154.4625453030571407
 31
0.0
1001
GRADIENTCOLOR1ACI
1070
     5
1001
GRADIENTCOLOR2ACI
1070
     2
1001
ACAD
1010
0.0
1020
0.0
1030
0.0
  0
LINE
  5
13F3D
  8
0
  6
CONTINUOUS
 10
8681.2317227414587251
 20
2154.9305862205737867
 30
0.0
 11
8681.6540094641222822
 21
2154.4273245017370755
 31
0.0
1001
GRADIENTCOLOR1ACI
1070
     5
1001
GRADIENTCOLOR2ACI
1070
     2
1001
ACAD
1010
0.0
1020
0.0
1030
0.0
  0
LINE
  5
13F3E
  8
0
  6
CONTINUOUS
 10
8681.1965019401468453
 20
2154.9336676414040994
 30
0.0
 11
8681.6509280432856031
 21
2154.3921037004170103
 31
0.0
1001
GRADIENTCOLOR1ACI
1070
     5
1001
GRADIENTCOLOR2ACI
1070
     2
1001
ACAD
1010
0.0
1020
0.0
1030
0.0
  0
LINE
  5
13F3F
  8
0
  6
CONTINUOUS
 10
8681.1612811388295086
 20
2154.9367490622339574
 30
0.0
 11
8681.6478466224507429
 21
2154.356882899096945
 31
0.0
1001
GRADIENTCOLOR1ACI
1070
     5
1001
GRADIENTCOLOR2ACI
1070
     2
1001
ACAD
1010
0.0
1020
0.0
1030
0.0
  0
LINE
  5
13F40
  8
0
  6
CONTINUOUS
 10
8681.1260603375158098
 20
2154.9398304830638153
 30
0.0
 11
8681.6447652016140637
 21
2154.3216620977768798
 31
0.0
1001
GRADIENTCOLOR1ACI
1070
     5
1001
GRADIENTCOLOR2ACI
1070
     2
1001
ACAD
1010
0.0
1020
0.0
1030
0.0
  0
LINE
  5
13F41
  8
0
  6
CONTINUOUS
 10
8681.0908395361984731
 20
2154.942911903894128
 30
0.0
 11
8681.6413890982403245
 21
2154.2867924854299417
 31
0.0
1001
GRADIENTCOLOR1ACI
1070
     5
1001
GRADIENTCOLOR2ACI
1070
     2
1001
ACAD
1010
0.0
1020
0.0
1030
0.0
  0
LINE
  5
13F42
  8
0
  6
CONTINUOUS
 10
8681.0556187348847743
 20
2154.945993324723986
 30
0.0
 11
8681.6222379871560406
 21
2154.2707227951959794
 31
0.0
1001
GRADIENTCOLOR1ACI
1070
     5
1001
GRADIENTCOLOR2ACI
1070
     2
1001
ACAD
1010
0.0
1020
0.0
1030
0.0
  0
LINE
  5
13F43
  8
0
  6
CONTINUOUS
 10
8681.0203979335674376
 20
2154.949074745553844
 30
0.0
 11
8681.5930208976242284
 21
2154.2666492709390695
 31
0.0
1001
GRADIENTCOLOR1ACI
1070
     5
1001
GRADIENTCOLOR2ACI
1070
     2
1001
ACAD
1010
0.0
1020
0.0
1030
0.0
  0
LINE
  5
13F44
  8
0
  6
CONTINUOUS
 10
8680.9851771322537388
 20
2154.9521561663841567
 30
0.0
 11
8681.5578000963032537
 21
2154.2697306917739297
 31
0.0
1001
GRADIENTCOLOR1ACI
1070
     5
1001
GRADIENTCOLOR2ACI
1070
     2
1001
ACAD
1010
0.0
1020
0.0
1030
0.0
  0
LINE
  5
13F45
  8
0
  6
CONTINUOUS
 10
8680.9499563309382211
 20
2154.9552375872140146
 30
0.0
 11
8681.5225792949840979
 21
2154.2728121126101541
 31
0.0
1001
GRADIENTCOLOR1ACI
1070
     5
1001
GRADIENTCOLOR2ACI
1070
     2
1001
ACAD
1010
0.0
1020
0.0
1030
0.0
  0
LINE
  5
13F46
  8
0
  6
CONTINUOUS
 10
8680.9147355296245223
 20
2154.9583190080447821
 30
0.0
 11
8681.4873584936631232
 21
2154.2758935334459238
 31
0.0
1001
GRADIENTCOLOR1ACI
1070
     5
1001
GRADIENTCOLOR2ACI
1070
     2
1001
ACAD
1010
0.0
1020
0.0
1030
0.0
  0
LINE
  5
13F47
  8
0
  6
CONTINUOUS
 10
8680.9074165507154248
 20
2154.9281483317759012
 30
0.0
 11
8681.4521376923439675
 21
2154.2789749542821482
 31
0.0
1001
GRADIENTCOLOR1ACI
1070
     5
1001
GRADIENTCOLOR2ACI
1070
     2
1001
ACAD
1010
0.0
1020
0.0
1030
0.0
  0
LINE
  5
13F48
  8
0
  6
CONTINUOUS
 10
8680.9043351298823836
 20
2154.8929275304558359
 30
0.0
 11
8681.4169168910211738
 21
2154.2820563751179179
 31
0.0
1001
GRADIENTCOLOR1ACI
1070
     5
1001
GRADIENTCOLOR2ACI
1070
     2
1001
ACAD
1010
0.0
1020
0.0
1030
0.0
  0
LINE
  5
13F49
  8
0
  6
CONTINUOUS
 10
8680.9012537090457045
 20
2154.8577067291348612
 30
0.0
 11
8681.381696089705656
 21
2154.2851377959527781
 31
0.0
1001
GRADIENTCOLOR1ACI
1070
     5
1001
GRADIENTCOLOR2ACI
1070
     2
1001
ACAD
1010
0.0
1020
0.0
1030
0.0
  0
LINE
  5
13F4A
  8
0
  6
CONTINUOUS
 10
8680.8981722882108443
 20
2154.8224859278161603
 30
0.0
 11
8681.3464752883846813
 21
2154.2882192167890025
 31
0.0
1001
GRADIENTCOLOR1ACI
1070
     5
1001
GRADIENTCOLOR2ACI
1070
     2
1001
ACAD
1010
0.0
1020
0.0
1030
0.0
  0
LINE
  5
13F4B
  8
0
  6
CONTINUOUS
 10
8680.8950908673723461
 20
2154.7872651264951855
 30
0.0
 11
8681.3112544870618876
 21
2154.291300637625227
 31
0.0
1001
GRADIENTCOLOR1ACI
1070
     5
1001
GRADIENTCOLOR2ACI
1070
     2
1001
ACAD
1010
0.0
1020
0.0
1030
0.0
  0
LINE
  5
13F4C
  8
0
  6
CONTINUOUS
 10
8680.8920094465393049
 20
2154.7520443251751203
 30
0.0
 11
8681.2760336857427319
 21
2154.2943820584609966
 31
0.0
1001
GRADIENTCOLOR1ACI
1070
     5
1001
GRADIENTCOLOR2ACI
1070
     2
1001
ACAD
1010
0.0
1020
0.0
1030
0.0
  0
LINE
  5
13F4D
  8
0
  6
CONTINUOUS
 10
8680.8889280257026257
 20
2154.7168235238550551
 30
0.0
 11
8681.2408128844235762
 21
2154.2974634792972211
 31
0.0
1001
GRADIENTCOLOR1ACI
1070
     5
1001
GRADIENTCOLOR2ACI
1070
     2
1001
ACAD
1010
0.0
1020
0.0
1030
0.0
  0
LINE
  5
13F4E
  8
0
  6
CONTINUOUS
 10
8680.8858466048677656
 20
2154.6816027225349899
 30
0.0
 11
8681.2055920831026015
 21
2154.3005449001329907
 31
0.0
1001
GRADIENTCOLOR1ACI
1070
     5
1001
GRADIENTCOLOR2ACI
1070
     2
1001
ACAD
1010
0.0
1020
0.0
1030
0.0
  0
LINE
  5
13F4F
  8
0
  6
CONTINUOUS
 10
8680.8827651840329054
 20
2154.6463819212149247
 30
0.0
 11
8681.1703712817816267
 21
2154.3036263209678509
 31
0.0
1001
GRADIENTCOLOR1ACI
1070
     5
1001
GRADIENTCOLOR2ACI
1070
     2
1001
ACAD
1010
0.0
1020
0.0
1030
0.0
  0
LINE
  5
13F50
  8
0
  6
CONTINUOUS
 10
8680.8796837631962262
 20
2154.6111611198948594
 30
0.0
 11
8681.135150480462471
 21
2154.3067077418040753
 31
0.0
1001
GRADIENTCOLOR1ACI
1070
     5
1001
GRADIENTCOLOR2ACI
1070
     2
1001
ACAD
1010
0.0
1020
0.0
1030
0.0
  0
LINE
  5
13F51
  8
0
  6
CONTINUOUS
 10
8680.876602342359547
 20
2154.5759403185738847
 30
0.0
 11
8681.0999296791414963
 21
2154.309789162639845
 31
0.0
1001
GRADIENTCOLOR1ACI
1070
     5
1001
GRADIENTCOLOR2ACI
1070
     2
1001
ACAD
1010
0.0
1020
0.0
1030
0.0
  0
LINE
  5
13F52
  8
0
  6
CONTINUOUS
 10
8680.8735209215246869
 20
2154.5407195172551837
 30
0.0
 11
8681.0647088778223406
 21
2154.3128705834760694
 31
0.0
1001
GRADIENTCOLOR1ACI
1070
     5
1001
GRADIENTCOLOR2ACI
1070
     2
1001
ACAD
1010
0.0
1020
0.0
1030
0.0
  0
LINE
  5
13F53
  8
0
  6
CONTINUOUS
 10
8680.8704395006880077
 20
2154.505498715934209
 30
0.0
 11
8681.0294880765013659
 21
2154.3159520043118391
 31
0.0
1001
GRADIENTCOLOR1ACI
1070
     5
1001
GRADIENTCOLOR2ACI
1070
     2
1001
ACAD
1010
0.0
1020
0.0
1030
0.0
  0
LINE
  5
13F54
  8
0
  6
CONTINUOUS
 10
8680.8673580798513285
 20
2154.4702779146141438
 30
0.0
 11
8680.9942672751822101
 21
2154.3190334251480635
 31
0.0
1001
GRADIENTCOLOR1ACI
1070
     5
1001
GRADIENTCOLOR2ACI
1070
     2
1001
ACAD
1010
0.0
1020
0.0
1030
0.0
  0
LINE
  5
13F55
  8
0
  6
CONTINUOUS
 10
8680.8642766590164683
 20
2154.4350571132940786
 30
0.0
 11
8680.9590464738612354
 21
2154.3221148459829237
 31
0.0
1001
GRADIENTCOLOR1ACI
1070
     5
1001
GRADIENTCOLOR2ACI
1070
     2
1001
ACAD
1010
0.0
1020
0.0
1030
0.0
  0
LINE
  5
13F56
  8
0
  6
CONTINUOUS
 10
8680.8611952381834271
 20
2154.3998363119740134
 30
0.0
 11
8680.9238256725402607
 21
2154.3251962668191481
 31
0.0
1001
GRADIENTCOLOR1ACI
1070
     5
1001
GRADIENTCOLOR2ACI
1070
     2
1001
ACAD
1010
0.0
1020
0.0
1030
0.0
  0
LINE
  5
13F57
  8
0
  6
CONTINUOUS
 10
8680.858113817344929
 20
2154.3646155106539481
 30
0.0
 11
8680.888604871221105
 21
2154.3282776876549178
 31
0.0
1001
GRADIENTCOLOR1ACI
1070
     5
1001
GRADIENTCOLOR2ACI
1070
     2
1001
ACAD
1010
0.0
1020
0.0
1030
0.0
  0
LINE
  5
13F58
  8
0
 10
8688.5424266785958025
 20
2156.9135919776958872
 30
0.0
 11
8688.5424266785958025
 21
2155.8112297728971498
 31
0.0
  0
ENDSEC
  0
EOF
