  0
SECTION
  2
HEADER
  9
$ACADVER
  1
AC1009
  9
$INSBASE
 10
8717.8945622260034725
 20
2174.6397279003422227
 30
0.0
  9
$EXTMIN
 10
8714.838370386403767
 20
2172.2775231759419512
 30
0.0
  9
$EXTMAX
 10
8717.9059392741237389
 20
2177.0019326247420395
 30
0.0
  9
$LIMMIN
 10
0.0
 20
0.0
  9
$LIMMAX
 10
11.6929133858000007
 20
8.2677165353999982
  9
$ORTHOMODE
 70
     0
  9
$REGENMODE
 70
     1
  9
$FILLMODE
 70
     1
  9
$QTEXTMODE
 70
     0
  9
$MIRRTEXT
 70
     0
  9
$DRAGMODE
 70
     2
  9
$LTSCALE
 40
0.6431102362
  9
$OSMODE
 70
  4095
  9
$ATTMODE
 70
     1
  9
$TEXTSIZE
 40
0.2
  9
$TRACEWID
 40
0.05
  9
$TEXTSTYLE
  7
STANDARD
  9
$CLAYER
  8
0
  9
$CELTYPE
  6
BYLAYER
  9
$CECOLOR
 62
   256
  9
$DIMSCALE
 40
1.0
  9
$DIMASZ
 40
0.1875
  9
$DIMEXO
 40
0.0625
  9
$DIMDLI
 40
0.4443307087
  9
$DIMRND
 40
0.0
  9
$DIMDLE
 40
0.0
  9
$DIMEXE
 40
0.125
  9
$DIMTP
 40
0.01
  9
$DIMTM
 40
0.01
  9
$DIMTXT
 40
2.0
  9
$DIMCEN
 40
0.1052362205
  9
$DIMTSZ
 40
0.0
  9
$DIMTOL
 70
     1
  9
$DIMLIM
 70
     0
  9
$DIMTIH
 70
     1
  9
$DIMTOH
 70
     1
  9
$DIMSE1
 70
     0
  9
$DIMSE2
 70
     0
  9
$DIMTAD
 70
     0
  9
$DIMZIN
 70
     0
  9
$DIMBLK
  1

  9
$DIMASO
 70
     1
  9
$DIMSHO
 70
     1
  9
$DIMPOST
  1
\X
  9
$DIMAPOST
  1

  9
$DIMALT
 70
     1
  9
$DIMALTD
 70
     2
  9
$DIMALTF
 40
25.3999999999999986
  9
$DIMLFAC
 40
1.0
  9
$DIMTOFL
 70
     0
  9
$DIMTVP
 40
0.0
  9
$DIMTIX
 70
     0
  9
$DIMSOXD
 70
     0
  9
$DIMSAH
 70
     0
  9
$DIMBLK1
  1

  9
$DIMBLK2
  1

  9
$DIMSTYLE
  2
STANDARD
  9
$DIMCLRD
 70
     0
  9
$DIMCLRE
 70
     0
  9
$DIMCLRT
 70
     0
  9
$DIMTFAC
 40
1.0
  9
$DIMGAP
 40
0.09
  9
$LUNITS
 70
     2
  9
$LUPREC
 70
     4
  9
$SKETCHINC
 40
0.1
  9
$FILLETRAD
 40
0.0
  9
$AUNITS
 70
     0
  9
$AUPREC
 70
     0
  9
$MENU
  1
.
  9
$ELEVATION
 40
0.0
  9
$PELEVATION
 40
0.0
  9
$THICKNESS
 40
0.0
  9
$LIMCHECK
 70
     0
  9
$BLIPMODE
 70
     0
  9
$CHAMFERA
 40
0.0
  9
$CHAMFERB
 40
0.0
  9
$SKPOLY
 70
     0
  9
$TDCREATE
 40
2458060.468368056230247
  9
$TDUPDATE
 40
2460585.4740162040106952
  9
$TDINDWG
 40
0.5828079861
  9
$TDUSRTIMER
 40
0.5828079861
  9
$USRTIMER
 70
     1
  9
$ANGBASE
 50
0.0
  9
$ANGDIR
 70
     0
  9
$PDMODE
 70
     0
  9
$PDSIZE
 40
0.3125
  9
$PLINEWID
 40
0.0
  9
$COORDS
 70
     1
  9
$SPLFRAME
 70
     0
  9
$SPLINETYPE
 70
     6
  9
$SPLINESEGS
 70
     8
  9
$ATTDIA
 70
     1
  9
$ATTREQ
 70
     1
  9
$HANDLING
 70
     1
  9
$HANDSEED
  5
1420F
  9
$SURFTAB1
 70
     6
  9
$SURFTAB2
 70
     6
  9
$SURFTYPE
 70
     6
  9
$SURFU
 70
     6
  9
$SURFV
 70
     6
  9
$UCSNAME
  2

  9
$UCSORG
 10
0.0
 20
0.0
 30
0.0
  9
$UCSXDIR
 10
1.0
 20
0.0
 30
0.0
  9
$UCSYDIR
 10
0.0
 20
1.0
 30
0.0
  9
$PUCSNAME
  2

  9
$PUCSORG
 10
0.0
 20
0.0
 30
0.0
  9
$PUCSXDIR
 10
1.0
 20
0.0
 30
0.0
  9
$PUCSYDIR
 10
0.0
 20
1.0
 30
0.0
  9
$USERI1
 70
     0
  9
$USERI2
 70
     0
  9
$USERI3
 70
     0
  9
$USERI4
 70
     0
  9
$USERI5
 70
     0
  9
$USERR1
 40
0.0
  9
$USERR2
 40
0.0
  9
$USERR3
 40
0.0
  9
$USERR4
 40
0.0
  9
$USERR5
 40
0.0
  9
$WORLDVIEW
 70
     1
  9
$SHADEDGE
 70
     3
  9
$SHADEDIF
 70
    70
  9
$TILEMODE
 70
     1
  9
$MAXACTVP
 70
    64
  9
$PLIMCHECK
 70
     0
  9
$PEXTMIN
 10
1.0000000000000000E+20
 20
1.0000000000000000E+20
 30
1.0000000000000000E+20
  9
$PEXTMAX
 10
-1.0000000000000000E+20
 20
-1.0000000000000000E+20
 30
-1.0000000000000000E+20
  9
$PLIMMIN
 10
0.0
 20
0.0
  9
$PLIMMAX
 10
12.0
 20
9.0
  9
$UNITMODE
 70
     0
  9
$VISRETAIN
 70
     1
  9
$PLINEGEN
 70
     0
  9
$PSLTSCALE
 70
     1
  0
ENDSEC
  0
SECTION
  2
TABLES
  0
TABLE
  2
VPORT
 70
     1
  0
VPORT
  2
*ACTIVE
 70
     0
 10
0.0
 20
0.0
 11
1.0
 21
1.0
 12
3901.0738149865142077
 22
1926.8311036327640977
 13
0.0
 23
0.0
 14
1.0
 24
1.0
 15
0.0
 25
0.0
 16
0.0
 26
0.0
 36
9.5192988075487186
 17
4815.2983398437490905
 27
247.8086242675780966
 37
0.0
 40
4.7623565126459653
 41
2.558981233243967
 42
50.0
 43
0.0
 44
0.0
 50
0.0
 51
0.0
 71
     0
 72
   100
 73
     1
 74
     1
 75
     0
 76
     0
 77
     0
 78
     0
  0
ENDTAB
  0
TABLE
  2
LTYPE
 70
     3
  0
LTYPE
  2
CONTINUOUS
 70
     0
  3
Solid line
 72
    65
 73
     0
 40
0.0
  0
LTYPE
  2
PHANTOM2
 70
     0
  3
___ _ _ ___ _ _ ___ _ _ ___ _ _
 72
    65
 73
     6
 40
1.25
 49
0.625
 49
-0.125
 49
0.125
 49
-0.125
 49
0.125
 49
-0.125
  0
ENDTAB
  0
TABLE
  2
LAYER
 70
     2
  0
LAYER
  2
0
 70
     0
 62
   255
  6
CONTINUOUS
  0
LAYER
  2
DEFPOINTS
 70
     0
 62
     7
  6
CONTINUOUS
  0
ENDTAB
  0
TABLE
  2
STYLE
 70
     1
  0
STYLE
  2
STANDARD
 70
     0
 40
0.0
 41
0.8
 50
0.0
 71
     0
 42
0.2
  3
txt
  4

  0
ENDTAB
  0
TABLE
  2
VIEW
 70
     3
  0
ENDTAB
  0
TABLE
  2
UCS
 70
     0
  0
ENDTAB
  0
TABLE
  2
APPID
 70
    12
  0
APPID
  2
ACAD
 70
     0
  0
APPID
  2
ACAD_MLEADERVER
 70
     0
  0
APPID
  2
ACAD_EXEMPT_FROM_CAD_STANDARDS
 70
     0
  0
APPID
  2
ACAD_NAV_VCDISPLAY
 70
     0
  0
APPID
  2
ACAECLAYERSTANDARD
 70
     0
  0
APPID
  2
ACCMTRANSPARENCY
 70
     0
  0
APPID
  2
ACAD_DSTYLE_DIMJAG
 70
     0
  0
APPID
  2
ACAD_DSTYLE_DIMTALN
 70
     0
  0
APPID
  2
ACDBATTR
 70
     0
  0
APPID
  2
ACADANNOTATIVE
 70
     0
  0
APPID
  2
GRADIENTCOLOR1ACI
 70
     0
  0
APPID
  2
GRADIENTCOLOR2ACI
 70
     0
  0
ENDTAB
  0
TABLE
  2
DIMSTYLE
 70
     2
  0
DIMSTYLE
  2
STANDARD
 70
     0
  3

  4

  5

  6

  7

 40
1.0
 41
0.1875
 42
0.0625
 43
0.38
 44
0.125
 45
0.0
 46
0.0
 47
0.01
 48
0.01
140
0.15625
141
0.09
142
0.0
143
25.3999999999999986
144
1.0
145
0.0
146
1.0
147
0.09
 71
     1
 72
     0
 73
     1
 74
     1
 75
     0
 76
     0
 77
     0
 78
     4
170
     0
171
     2
172
     0
173
     0
174
     0
175
     0
176
     0
177
     0
178
     0
  0
ENDTAB
  0
ENDSEC
  0
SECTION
  2
BLOCKS
  0
BLOCK
  8
0
  2
$MODEL_SPACE
 70
     0
 10
0.0
 20
0.0
 30
0.0
  3
$MODEL_SPACE
  1

  0
ENDBLK
  5
21
  8
0
  0
BLOCK
 67
     1
  8
0
  2
$PAPER_SPACE
 70
     0
 10
0.0
 20
0.0
 30
0.0
  3
$PAPER_SPACE
  1

  0
ENDBLK
  5
1D
 67
     1
  8
0
  0
BLOCK
  8
0
  2
_FILLED
 70
     0
 10
0.0
 20
0.0
 30
0.0
  3
_FILLED
  1

  0
SOLID
  5
13BBF
  8
0
  6
BYBLOCK
 62
     0
 10
0.0
 20
0.0
 30
0.0
 11
-1.0
 21
0.1666666667
 31
0.0
 12
-1.0
 22
-0.1666666667
 32
0.0
 13
-1.0
 23
-0.1666666667
 33
0.0
  0
ENDBLK
  5
13BC0
  8
0
  6
BYBLOCK
 62
     0
  0
ENDSEC
  0
SECTION
  2
ENTITIES
  0
ATTDEF
  5
3930
  8
DEFPOINTS
 10
8717.8952726074548991
 20
2174.6404110755411239
 30
0.0
 40
0.001
  1
P33358-00
  3

  2
MODELNUMBER
 70
     0
1001
ACDBATTR
1070
     0
1070
     1
  0
ATTDEF
  5
3931
  8
DEFPOINTS
 10
8717.8952726074548991
 20
2174.6387444088750271
 30
0.0
 40
0.001
  1
BEZEL
  3

  2
TRADENAME
 70
     0
1001
ACDBATTR
1070
     0
1070
     1
  0
ATTDEF
  5
3932
  8
DEFPOINTS
 10
8717.8952726074548991
 20
2174.6370777422071114
 30
0.0
 40
0.001
  1
VALVE TRIM
  3

  2
PRODUCT
 70
     0
1001
ACDBATTR
1070
     0
1070
     1
  0
LINE
  5
1415E
  8
0
 10
8717.7449559268025041
 20
2172.2775231759419512
 30
0.0
 11
8717.8945622260034725
 21
2172.2775231759419512
 31
0.0
  0
LINE
  5
1415F
  8
0
 10
8717.7449559268025041
 20
2177.0019326247420395
 30
0.0
 11
8717.8945622260034725
 21
2177.0019326247420395
 31
0.0
  0
LINE
  5
14160
  8
0
 10
8717.7566991019575653
 20
2176.7657121523420756
 30
0.0
 11
8717.8945622260034725
 21
2176.7657121523420756
 31
0.0
  0
LINE
  5
14161
  8
0
 10
8717.7566991017138207
 20
2172.5137436484419595
 30
0.0
 11
8717.8945622260034725
 21
2172.5137436484419595
 31
0.0
  0
LINE
  5
14162
  8
0
 10
8715.7745134071028588
 20
2175.5393341995418268
 30
0.0
 11
8716.2468945095024537
 21
2175.5393341995418268
 31
0.0
  0
LINE
  5
14163
  8
0
 10
8717.8945622260034725
 20
2177.0019326247420395
 30
0.0
 11
8717.8945622260034725
 21
2172.2775231759419512
 31
0.0
  0
LINE
  5
14164
  8
0
 10
8717.5087354543047695
 20
2176.7657121522429406
 30
0.0
 11
8717.5087354543047695
 21
2172.5137436484419595
 31
0.0
  0
LINE
  5
14165
  8
0
 10
8717.7449559268025041
 20
2177.0019326247420395
 30
0.0
 11
8717.5087354543047695
 21
2176.7657121522429406
 31
0.0
  0
LINE
  5
14166
  8
0
 10
8717.5174594323034398
 20
2176.7657139608750185
 30
0.0
 11
8717.5174594323034398
 21
2172.5137418398089721
 31
0.0
  0
LINE
  5
14167
  8
0
 10
8717.5174594323034398
 20
2176.7657139608750185
 30
0.0
 11
8717.7545323871036089
 21
2177.0019326247420395
 31
0.0
  0
LINE
  5
14168
  8
0
 10
8717.7566991019575653
 20
2176.7657121523420756
 30
0.0
 11
8717.5174594323034398
 21
2176.6675083988279766
 31
0.0
  0
LINE
  5
14169
  8
0
 10
8715.7351134071031993
 20
2175.4999341995421673
 30
0.0
 11
8715.7351134071031993
 21
2175.4271294751429195
 31
0.0
  0
LINE
  5
1416A
  8
0
 10
8716.2862945095021132
 20
2175.4999341995421673
 30
0.0
 11
8716.2862945095021132
 21
2175.4271294751429195
 31
0.0
  0
ARC
  5
1416B
  8
0
 10
8715.7745134071028588
 20
2175.4999341995421673
 30
0.0
 40
0.0394
 50
90.0
 51
180.0
  0
ARC
  5
1416C
  8
0
 10
8716.2468945095024537
 20
2175.4999341995421673
 30
0.0
 40
0.0394
 50
0.0
 51
90.0
  0
LINE
  5
1416D
  8
0
 10
8716.961491359903448
 20
2175.4271294751429195
 30
0.0
 11
8716.961491359903448
 21
2173.8523263255419806
 31
0.0
  0
LINE
  5
1416E
  8
0
 10
8717.0126724622004986
 20
2175.4271294751429195
 30
0.0
 11
8717.0126724622004986
 21
2173.8523263255419806
 31
0.0
  0
LINE
  5
1416F
  8
0
 10
8716.961491359903448
 20
2175.318861758642015
 30
0.0
 11
8717.0008614386024419
 21
2175.318861758642015
 31
0.0
  0
ARC
  5
14170
  8
0
 10
8717.0008614386024419
 20
2175.3070507350421394
 30
0.0
 40
0.0118110236000018
 50
0.0
 51
90.0
  0
LINE
  5
14171
  8
0
 10
8715.212386134400731
 20
2175.4271294751429195
 30
0.0
 11
8715.212386134400731
 21
2173.8523263255419806
 31
0.0
  0
LINE
  5
14172
  8
0
 10
8715.212386134400731
 20
2175.4271294751429195
 30
0.0
 11
8715.003724717102159
 21
2175.4271294751429195
 31
0.0
  0
LINE
  5
14173
  8
0
 10
8715.2292078953032615
 20
2175.4271294751429195
 30
0.0
 11
8716.961491359903448
 21
2175.4271294751429195
 31
0.0
  0
LINE
  5
14174
  8
0
 10
8717.0126724622004986
 20
2175.4271294751429195
 30
0.0
 11
8717.5087354543047695
 21
2175.4271294751429195
 31
0.0
  0
LINE
  5
14175
  8
0
 10
8715.2292078953032615
 20
2175.4271294751429195
 30
0.0
 11
8715.2292078953032615
 21
2173.8523263255419806
 31
0.0
  0
ARC
  5
14176
  8
0
 10
8715.2163231421582168
 20
2175.4015389238988973
 30
0.0
 40
0.0039370077565435
 50
179.9999993675905046
 51
270.0000020877433826
  0
LINE
  5
14177
  8
0
 10
8715.2163231423055549
 20
2175.3976019161418662
 30
0.0
 11
8715.2281341659036116
 21
2175.3976019165729667
 31
0.0
  0
ARC
  5
14178
  8
0
 10
8715.2281341660454927
 20
2175.3936649205411413
 30
0.0
 40
0.003936996031412
 50
74.1154166703992132
 51
90.0000020877433826
  0
LINE
  5
14179
  8
0
 10
8714.838370386403767
 20
2175.2617751444417991
 30
0.0
 11
8714.838370386403767
 21
2174.0176806562431011
 31
0.0
  0
LINE
  5
1417A
  8
0
 10
8715.003724717102159
 20
2175.4271294751429195
 30
0.0
 11
8714.838370386403767
 21
2175.2617751444417991
 31
0.0
  0
LINE
  5
1417B
  8
0
 10
8715.003724717102159
 20
2175.1909090027429556
 30
0.0
 11
8715.212386134400731
 21
2175.1909090027429556
 31
0.0
  0
LINE
  5
1417C
  8
0
 10
8715.2292078953032615
 20
2175.1909090027429556
 30
0.0
 11
8716.961491359903448
 21
2175.1909090027429556
 31
0.0
  0
LINE
  5
1417D
  8
0
 10
8717.0126724622004986
 20
2175.1909090027429556
 30
0.0
 11
8717.5087354543047695
 21
2175.1909090027429556
 31
0.0
  0
LINE
  5
1417E
  8
0
 10
8715.003724717102159
 20
2175.1909090027429556
 30
0.0
 11
8714.838370386403767
 21
2175.1224169963429631
 31
0.0
  0
LINE
  5
14180
  8
0
 10
8717.7566991019575653
 20
2172.5137436483428246
 30
0.0
 11
8717.8945622260034725
 21
2172.5137436483428246
 31
0.0
  0
LINE
  5
14181
  8
0
 10
8717.7449559268025041
 20
2172.2775231759419512
 30
0.0
 11
8717.5087354543047695
 21
2172.5137436484419595
 31
0.0
  0
LINE
  5
14182
  8
0
 10
8717.5174594323034398
 20
2172.5137418398089721
 30
0.0
 11
8717.7545323871036089
 21
2172.2775231759419512
 31
0.0
  0
LINE
  5
14183
  8
0
 10
8717.7566991019575653
 20
2172.5137436483428246
 30
0.0
 11
8717.5174594323034398
 21
2172.611947401856014
 31
0.0
  0
LINE
  5
14184
  8
0
 10
8716.961491359903448
 20
2173.9605940420428851
 30
0.0
 11
8717.0008614386024419
 21
2173.9605940420428851
 31
0.0
  0
ARC
  5
14185
  8
0
 10
8717.0008614386024419
 20
2173.9724050656418513
 30
0.0
 40
0.0118110236000018
 50
270.0
 51
0.0
  0
LINE
  5
14186
  8
0
 10
8715.212386134400731
 20
2173.8523263255419806
 30
0.0
 11
8715.003724717102159
 21
2173.8523263255419806
 31
0.0
  0
LINE
  5
14187
  8
0
 10
8715.2292078953032615
 20
2173.8523263255419806
 30
0.0
 11
8716.961491359903448
 21
2173.8523263255419806
 31
0.0
  0
LINE
  5
14188
  8
0
 10
8717.0126724622004986
 20
2173.8523263255419806
 30
0.0
 11
8717.5087354543047695
 21
2173.8523263255419806
 31
0.0
  0
ARC
  5
14189
  8
0
 10
8715.2163231421582168
 20
2173.8779168767860028
 30
0.0
 40
0.0039370077565435
 50
89.9999979122566316
 51
180.0000006324094954
  0
LINE
  5
1418A
  8
0
 10
8715.2163231423055549
 20
2173.8818538845430339
 30
0.0
 11
8715.2281341659036116
 21
2173.8818538841119334
 31
0.0
  0
ARC
  5
1418B
  8
0
 10
8715.2281341660454927
 20
2173.8857908801428493
 30
0.0
 40
0.003936996031412
 50
269.9999979122566174
 51
285.8845833296007868
  0
LINE
  5
1418C
  8
0
 10
8715.003724717102159
 20
2173.8523263255419806
 30
0.0
 11
8714.838370386403767
 21
2174.0176806562431011
 31
0.0
  0
LINE
  5
1418D
  8
0
 10
8715.003724717102159
 20
2174.088546797942854
 30
0.0
 11
8715.212386134400731
 21
2174.088546797942854
 31
0.0
  0
LINE
  5
1418E
  8
0
 10
8715.2292078953032615
 20
2174.088546797942854
 30
0.0
 11
8716.961491359903448
 21
2174.088546797942854
 31
0.0
  0
LINE
  5
1418F
  8
0
 10
8717.0126724622004986
 20
2174.088546797942854
 30
0.0
 11
8717.5087354543047695
 21
2174.088546797942854
 31
0.0
  0
LINE
  5
14190
  8
0
 10
8715.003724717102159
 20
2174.088546797942854
 30
0.0
 11
8714.838370386403767
 21
2174.1570388043419371
 31
0.0
  0
LINE
  5
14191
  8
0
 10
8717.7566991019575653
 20
2177.0019326247420395
 30
0.0
 11
8717.7566991019575653
 21
2172.2775231759419512
 31
0.0
  0
LINE
  5
14192
  8
0
 10
8715.003724717102159
 20
2175.4271294751429195
 30
0.0
 11
8715.003724717102159
 21
2173.8523263255419806
 31
0.0
  0
ENDSEC
  0
EOF
