  0
SECTION
  2
HEADER
  9
$ACADVER
  1
AC1009
  9
$INSBASE
 10
8715.2981892581829015
 20
2174.526624524842191
 30
0.0
  9
$EXTMIN
 10
8713.5265097659012099
 20
2172.7554253694779618
 30
0.0
  9
$EXTMAX
 10
8717.0698687504645932
 20
2176.2987324568412077
 30
0.0
  9
$LIMMIN
 10
0.0
 20
0.0
  9
$LIMMAX
 10
11.6929133858000007
 20
8.2677165353999982
  9
$ORTHOMODE
 70
     0
  9
$REGENMODE
 70
     1
  9
$FILLMODE
 70
     1
  9
$QTEXTMODE
 70
     0
  9
$MIRRTEXT
 70
     0
  9
$DRAGMODE
 70
     2
  9
$LTSCALE
 40
0.6431102362
  9
$OSMODE
 70
  4095
  9
$ATTMODE
 70
     1
  9
$TEXTSIZE
 40
0.2
  9
$TRACEWID
 40
0.05
  9
$TEXTSTYLE
  7
STANDARD
  9
$CLAYER
  8
0
  9
$CELTYPE
  6
BYLAYER
  9
$CECOLOR
 62
   256
  9
$DIMSCALE
 40
1.0
  9
$DIMASZ
 40
0.1875
  9
$DIMEXO
 40
0.0625
  9
$DIMDLI
 40
0.4443307087
  9
$DIMRND
 40
0.0
  9
$DIMDLE
 40
0.0
  9
$DIMEXE
 40
0.125
  9
$DIMTP
 40
0.01
  9
$DIMTM
 40
0.01
  9
$DIMTXT
 40
2.0
  9
$DIMCEN
 40
0.1052362205
  9
$DIMTSZ
 40
0.0
  9
$DIMTOL
 70
     1
  9
$DIMLIM
 70
     0
  9
$DIMTIH
 70
     1
  9
$DIMTOH
 70
     1
  9
$DIMSE1
 70
     0
  9
$DIMSE2
 70
     0
  9
$DIMTAD
 70
     0
  9
$DIMZIN
 70
     0
  9
$DIMBLK
  1

  9
$DIMASO
 70
     1
  9
$DIMSHO
 70
     1
  9
$DIMPOST
  1
\X
  9
$DIMAPOST
  1

  9
$DIMALT
 70
     1
  9
$DIMALTD
 70
     2
  9
$DIMALTF
 40
25.3999999999999986
  9
$DIMLFAC
 40
1.0
  9
$DIMTOFL
 70
     0
  9
$DIMTVP
 40
0.0
  9
$DIMTIX
 70
     0
  9
$DIMSOXD
 70
     0
  9
$DIMSAH
 70
     0
  9
$DIMBLK1
  1

  9
$DIMBLK2
  1

  9
$DIMSTYLE
  2
STANDARD
  9
$DIMCLRD
 70
     0
  9
$DIMCLRE
 70
     0
  9
$DIMCLRT
 70
     0
  9
$DIMTFAC
 40
1.0
  9
$DIMGAP
 40
0.09
  9
$LUNITS
 70
     2
  9
$LUPREC
 70
     4
  9
$SKETCHINC
 40
0.1
  9
$FILLETRAD
 40
0.0
  9
$AUNITS
 70
     0
  9
$AUPREC
 70
     0
  9
$MENU
  1
.
  9
$ELEVATION
 40
0.0
  9
$PELEVATION
 40
0.0
  9
$THICKNESS
 40
0.0
  9
$LIMCHECK
 70
     0
  9
$BLIPMODE
 70
     0
  9
$CHAMFERA
 40
0.0
  9
$CHAMFERB
 40
0.0
  9
$SKPOLY
 70
     0
  9
$TDCREATE
 40
2458060.468368056230247
  9
$TDUPDATE
 40
2460585.5048032412305474
  9
$TDINDWG
 40
0.6330278935
  9
$TDUSRTIMER
 40
0.6330278935
  9
$USRTIMER
 70
     1
  9
$ANGBASE
 50
0.0
  9
$ANGDIR
 70
     0
  9
$PDMODE
 70
     0
  9
$PDSIZE
 40
0.3125
  9
$PLINEWID
 40
0.0
  9
$COORDS
 70
     1
  9
$SPLFRAME
 70
     0
  9
$SPLINETYPE
 70
     6
  9
$SPLINESEGS
 70
     8
  9
$ATTDIA
 70
     1
  9
$ATTREQ
 70
     1
  9
$HANDLING
 70
     1
  9
$HANDSEED
  5
14237
  9
$SURFTAB1
 70
     6
  9
$SURFTAB2
 70
     6
  9
$SURFTYPE
 70
     6
  9
$SURFU
 70
     6
  9
$SURFV
 70
     6
  9
$UCSNAME
  2

  9
$UCSORG
 10
0.0
 20
0.0
 30
0.0
  9
$UCSXDIR
 10
1.0
 20
0.0
 30
0.0
  9
$UCSYDIR
 10
0.0
 20
1.0
 30
0.0
  9
$PUCSNAME
  2

  9
$PUCSORG
 10
0.0
 20
0.0
 30
0.0
  9
$PUCSXDIR
 10
1.0
 20
0.0
 30
0.0
  9
$PUCSYDIR
 10
0.0
 20
1.0
 30
0.0
  9
$USERI1
 70
     0
  9
$USERI2
 70
     0
  9
$USERI3
 70
     0
  9
$USERI4
 70
     0
  9
$USERI5
 70
     0
  9
$USERR1
 40
0.0
  9
$USERR2
 40
0.0
  9
$USERR3
 40
0.0
  9
$USERR4
 40
0.0
  9
$USERR5
 40
0.0
  9
$WORLDVIEW
 70
     1
  9
$SHADEDGE
 70
     3
  9
$SHADEDIF
 70
    70
  9
$TILEMODE
 70
     1
  9
$MAXACTVP
 70
    64
  9
$PLIMCHECK
 70
     0
  9
$PEXTMIN
 10
1.0000000000000000E+20
 20
1.0000000000000000E+20
 30
1.0000000000000000E+20
  9
$PEXTMAX
 10
-1.0000000000000000E+20
 20
-1.0000000000000000E+20
 30
-1.0000000000000000E+20
  9
$PLIMMIN
 10
0.0
 20
0.0
  9
$PLIMMAX
 10
12.0
 20
9.0
  9
$UNITMODE
 70
     0
  9
$VISRETAIN
 70
     1
  9
$PLINEGEN
 70
     0
  9
$PSLTSCALE
 70
     1
  0
ENDSEC
  0
SECTION
  2
TABLES
  0
TABLE
  2
VPORT
 70
     1
  0
VPORT
  2
*ACTIVE
 70
     0
 10
0.0
 20
0.0
 11
1.0
 21
1.0
 12
3899.9998494144329015
 22
1926.718454645581005
 13
0.0
 23
0.0
 14
1.0
 24
1.0
 15
0.0
 25
0.0
 16
0.0
 26
0.0
 36
9.5192988075487186
 17
4815.2983398437490905
 27
247.8086242675780966
 37
0.0
 40
3.5723417985138992
 41
2.558981233243967
 42
50.0
 43
0.0
 44
0.0
 50
0.0
 51
0.0
 71
     0
 72
   100
 73
     1
 74
     1
 75
     0
 76
     0
 77
     0
 78
     0
  0
ENDTAB
  0
TABLE
  2
LTYPE
 70
     2
  0
LTYPE
  2
CONTINUOUS
 70
     0
  3
Solid line
 72
    65
 73
     0
 40
0.0
  0
LTYPE
  2
PHANTOM2
 70
     0
  3
___ _ _ ___ _ _ ___ _ _ ___ _ _
 72
    65
 73
     6
 40
1.25
 49
0.625
 49
-0.125
 49
0.125
 49
-0.125
 49
0.125
 49
-0.125
  0
ENDTAB
  0
TABLE
  2
LAYER
 70
     2
  0
LAYER
  2
0
 70
     0
 62
   255
  6
CONTINUOUS
  0
LAYER
  2
DEFPOINTS
 70
     0
 62
     7
  6
CONTINUOUS
  0
ENDTAB
  0
TABLE
  2
STYLE
 70
     1
  0
STYLE
  2
STANDARD
 70
     0
 40
0.0
 41
0.8
 50
0.0
 71
     0
 42
0.2
  3
txt
  4

  0
ENDTAB
  0
TABLE
  2
VIEW
 70
     1
  0
ENDTAB
  0
TABLE
  2
UCS
 70
     0
  0
ENDTAB
  0
TABLE
  2
APPID
 70
    12
  0
APPID
  2
ACAD
 70
     0
  0
APPID
  2
ACAD_MLEADERVER
 70
     0
  0
APPID
  2
ACAD_EXEMPT_FROM_CAD_STANDARDS
 70
     0
  0
APPID
  2
ACAD_NAV_VCDISPLAY
 70
     0
  0
APPID
  2
ACAECLAYERSTANDARD
 70
     0
  0
APPID
  2
ACCMTRANSPARENCY
 70
     0
  0
APPID
  2
ACAD_DSTYLE_DIMJAG
 70
     0
  0
APPID
  2
ACAD_DSTYLE_DIMTALN
 70
     0
  0
APPID
  2
ACDBATTR
 70
     0
  0
APPID
  2
ACADANNOTATIVE
 70
     0
  0
APPID
  2
GRADIENTCOLOR1ACI
 70
     0
  0
APPID
  2
GRADIENTCOLOR2ACI
 70
     0
  0
ENDTAB
  0
TABLE
  2
DIMSTYLE
 70
     1
  0
DIMSTYLE
  2
STANDARD
 70
     0
  3

  4

  5

  6

  7

 40
1.0
 41
0.1875
 42
0.0625
 43
0.38
 44
0.125
 45
0.0
 46
0.0
 47
0.01
 48
0.01
140
0.15625
141
0.09
142
0.0
143
25.3999999999999986
144
1.0
145
0.0
146
1.0
147
0.09
 71
     1
 72
     0
 73
     1
 74
     1
 75
     0
 76
     0
 77
     0
 78
     4
170
     0
171
     2
172
     0
173
     0
174
     0
175
     0
176
     0
177
     0
178
     0
  0
ENDTAB
  0
ENDSEC
  0
SECTION
  2
BLOCKS
  0
BLOCK
  8
0
  2
$MODEL_SPACE
 70
     0
 10
0.0
 20
0.0
 30
0.0
  3
$MODEL_SPACE
  1

  0
ENDBLK
  5
21
  8
0
  0
BLOCK
 67
     1
  8
0
  2
$PAPER_SPACE
 70
     0
 10
0.0
 20
0.0
 30
0.0
  3
$PAPER_SPACE
  1

  0
ENDBLK
  5
1D
 67
     1
  8
0
  0
BLOCK
  8
0
  2
_FILLED
 70
     0
 10
0.0
 20
0.0
 30
0.0
  3
_FILLED
  1

  0
SOLID
  5
13BBF
  8
0
  6
BYBLOCK
 62
     0
 10
0.0
 20
0.0
 30
0.0
 11
-1.0
 21
0.1666666667
 31
0.0
 12
-1.0
 22
-0.1666666667
 32
0.0
 13
-1.0
 23
-0.1666666667
 33
0.0
  0
ENDBLK
  5
13BC0
  8
0
  6
BYBLOCK
 62
     0
  0
ENDSEC
  0
SECTION
  2
ENTITIES
  0
ATTDEF
  5
3930
  8
DEFPOINTS
 10
8715.2969936992121802
 20
2174.5306865849179303
 30
0.0
 40
0.001
  1
P33359-00
  3

  2
MODELNUMBER
 70
     0
1001
ACDBATTR
1070
     0
1070
     1
  0
ATTDEF
  5
3931
  8
DEFPOINTS
 10
8715.2969936992121802
 20
2174.5290199182518336
 30
0.0
 40
0.001
  1
BEZEL
  3

  2
TRADENAME
 70
     0
1001
ACDBATTR
1070
     0
1070
     1
  0
ATTDEF
  5
3932
  8
DEFPOINTS
 10
8715.2969936992121802
 20
2174.5273532515848274
 30
0.0
 40
0.001
  1
VALVE TRIM
  3

  2
PRODUCT
 70
     0
1001
ACDBATTR
1070
     0
1070
     1
  0
LINE
  5
14171
  8
0
 10
8713.7597088613347296
 20
2172.7554253711427918
 30
0.0
 11
8716.8366696550292545
 21
2172.7554253694779618
 31
0.0
  0
LINE
  5
14172
  8
0
 10
8713.7606094480634056
 20
2176.2987324568412077
 30
0.0
 11
8716.8357690683023975
 21
2176.2987324551768324
 31
0.0
  0
LINE
  5
14173
  8
0
 10
8713.5265097659012099
 20
2176.0625034470867831
 30
0.0
 11
8713.5265097659012099
 21
2172.9907456025957799
 31
0.0
  0
LINE
  5
14174
  8
0
 10
8713.8585596925331629
 20
2176.0625119844407891
 30
0.0
 11
8716.7378188238326402
 21
2176.0625119827768685
 31
0.0
  0
LINE
  5
14175
  8
0
 10
8713.8576502245523443
 20
2172.9916458436428002
 30
0.0
 11
8716.7387282918152778
 21
2172.9916458419779701
 31
0.0
  0
LINE
  5
14176
  8
0
 10
8717.0677153668148094
 20
2172.9916458419779701
 30
0.0
 11
8717.0698687504645932
 21
2172.9916458419779701
 31
0.0
  0
LINE
  5
14177
  8
0
 10
8713.7606094480634056
 20
2175.9646360082988394
 30
0.0
 11
8713.7606094480634056
 21
2173.0886130413841784
 31
0.0
  0
LINE
  5
14178
  8
0
 10
8713.7606094480634056
 20
2176.2987324568412077
 30
0.0
 11
8713.5265097659012099
 21
2176.0625034470867831
 31
0.0
  0
LINE
  5
14179
  8
0
 10
8713.8585596925331629
 20
2176.0625119844407891
 30
0.0
 11
8713.7606094480634056
 21
2175.9646360082988394
 31
0.0
  0
LINE
  5
1417A
  8
0
 10
8713.7597088613347296
 20
2172.7554253711427918
 30
0.0
 11
8713.5265097659012099
 21
2172.9907456025957799
 31
0.0
  0
LINE
  5
1417B
  8
0
 10
8713.8576502245523443
 20
2172.9916458436428002
 30
0.0
 11
8713.7606094480634056
 21
2173.0886130413841784
 31
0.0
  0
LINE
  5
1417C
  8
0
 10
8713.7606094480634056
 20
2176.2987324568412077
 30
0.0
 11
8713.8585596925331629
 21
2176.0625119844407891
 31
0.0
  0
LINE
  5
1417D
  8
0
 10
8713.5265097659012099
 20
2176.0625034470867831
 30
0.0
 11
8713.7606094480634056
 21
2175.9646360082988394
 31
0.0
  0
LINE
  5
1417E
  8
0
 10
8713.5265097659012099
 20
2172.9907456025957799
 30
0.0
 11
8713.7606094480634056
 21
2173.0886130413841784
 31
0.0
  0
LINE
  5
1417F
  8
0
 10
8713.7597088613347296
 20
2172.7554253711427918
 30
0.0
 11
8713.8576502245523443
 21
2172.9916458436428002
 31
0.0
  0
LINE
  5
14180
  8
0
 10
8714.815501285085702
 20
2175.149126157406954
 30
0.0
 11
8715.7808794769844098
 21
2175.149126157406954
 31
0.0
  0
LINE
  5
14181
  8
0
 10
8714.7470092787862086
 20
2175.314480488107165
 30
0.0
 11
8715.8493714832857222
 21
2175.314480488107165
 31
0.0
  0
LINE
  5
14182
  8
0
 10
8714.815501285085702
 20
2173.9050316692068918
 30
0.0
 11
8715.7808794769844098
 21
2173.9050316692068918
 31
0.0
  0
LINE
  5
14183
  8
0
 10
8714.7470092787862086
 20
2173.7396773385071356
 30
0.0
 11
8715.8493714832857222
 21
2173.7396773385071356
 31
0.0
  0
LINE
  5
14184
  8
0
 10
8714.510788806284836
 20
2175.0782600157072011
 30
0.0
 11
8714.510788806284836
 21
2173.9758978109070995
 31
0.0
  0
LINE
  5
14185
  8
0
 10
8714.676143136985047
 20
2175.0097680093072086
 30
0.0
 11
8714.676143136985047
 21
2174.044389817307092
 31
0.0
  0
LINE
  5
14186
  8
0
 10
8714.815501285085702
 20
2175.149126157406954
 30
0.0
 11
8714.676143136985047
 21
2175.0097680093072086
 31
0.0
  0
LINE
  5
14187
  8
0
 10
8714.7470092787862086
 20
2175.314480488107165
 30
0.0
 11
8714.510788806284836
 21
2175.0782600157072011
 31
0.0
  0
LINE
  5
14188
  8
0
 10
8714.7470092787862086
 20
2175.314480488107165
 30
0.0
 11
8714.815501285085702
 21
2175.149126157406954
 31
0.0
  0
LINE
  5
14189
  8
0
 10
8714.510788806284836
 20
2175.0782600157072011
 30
0.0
 11
8714.676143136985047
 21
2175.0097680093072086
 31
0.0
  0
LINE
  5
1418A
  8
0
 10
8714.815501285085702
 20
2173.9050316692068918
 30
0.0
 11
8714.676143136985047
 21
2174.044389817307092
 31
0.0
  0
LINE
  5
1418B
  8
0
 10
8714.7470092787862086
 20
2173.7396773385071356
 30
0.0
 11
8714.510788806284836
 21
2173.9758978109070995
 31
0.0
  0
LINE
  5
1418C
  8
0
 10
8714.7470092787862086
 20
2173.7396773385071356
 30
0.0
 11
8714.815501285085702
 21
2173.9050316692068918
 31
0.0
  0
LINE
  5
1418D
  8
0
 10
8714.510788806284836
 20
2173.9758978109070995
 30
0.0
 11
8714.676143136985047
 21
2174.044389817307092
 31
0.0
  0
LINE
  5
1418E
  8
0
 10
8714.7599228466442582
 20
2173.7199922992072061
 30
0.0
 11
8715.8364579154276726
 21
2173.7199922992072061
 31
0.0
  0
LINE
  5
1418F
  8
0
 10
8714.7599228467443027
 20
2175.3341655275071389
 30
0.0
 11
8715.8364579153258092
 21
2175.3341655275071389
 31
0.0
  0
LINE
  5
14190
  8
0
 10
8714.4911037668862264
 20
2173.9888113789261297
 30
0.0
 11
8714.4911037668862264
 21
2175.0653464476881709
 31
0.0
  0
LINE
  5
14191
  8
0
 10
8714.5141544632115256
 20
2175.1209957513729023
 30
0.0
 11
8714.7042735430732137
 21
2175.3111148311918441
 31
0.0
  0
LINE
  5
14192
  8
0
 10
8714.7042735429713503
 20
2173.7430429955220461
 30
0.0
 11
8714.5141544632115256
 21
2173.9331620752409435
 31
0.0
  0
ARC
  5
14193
  8
0
 10
8714.7599228466442582
 20
2173.7986922992067775
 30
0.0
 40
0.0787
 50
225.0000000060246066
 51
270.0
  0
ARC
  5
14194
  8
0
 10
8714.5698037668862526
 20
2173.9888113789261297
 30
0.0
 40
0.0787
 50
180.0
 51
225.0000000060246066
  0
ARC
  5
14195
  8
0
 10
8714.5698037668862526
 20
2175.0653464476881709
 30
0.0
 40
0.0787
 50
134.9999999937911923
 51
180.0
  0
ARC
  5
14196
  8
0
 10
8714.7599228467443027
 20
2175.2554655275080222
 30
0.0
 40
0.0787
 50
90.0
 51
134.9999999936989923
  0
LINE
  5
14197
  8
0
 10
8717.0698687504645932
 20
2176.0625034454228626
 30
0.0
 11
8717.0698687504645932
 21
2172.9907456009332236
 31
0.0
  0
LINE
  5
14198
  8
0
 10
8716.8357690683023975
 20
2175.9646360066358284
 30
0.0
 11
8716.8357690683023975
 21
2173.0886130397198031
 31
0.0
  0
LINE
  5
14199
  8
0
 10
8716.8357690683023975
 20
2176.2987324551768324
 30
0.0
 11
8717.0698687504645932
 21
2176.0625034454228626
 31
0.0
  0
LINE
  5
1419A
  8
0
 10
8716.7378188238326402
 20
2176.0625119827768685
 30
0.0
 11
8716.8357690683023975
 21
2175.9646360066358284
 31
0.0
  0
LINE
  5
1419B
  8
0
 10
8716.8366696550292545
 20
2172.7554253694779618
 30
0.0
 11
8717.0698687504645932
 21
2172.9907456009332236
 31
0.0
  0
LINE
  5
1419C
  8
0
 10
8716.7387282918152778
 20
2172.9916458419779701
 30
0.0
 11
8716.8357690683023975
 21
2173.0886130397198031
 31
0.0
  0
LINE
  5
1419D
  8
0
 10
8716.8357690683023975
 20
2176.2987324551768324
 30
0.0
 11
8716.7378188238326402
 21
2176.0625119827768685
 31
0.0
  0
LINE
  5
1419E
  8
0
 10
8717.0698687504645932
 20
2176.0625034454228626
 30
0.0
 11
8716.8357690683023975
 21
2175.9646360066358284
 31
0.0
  0
LINE
  5
1419F
  8
0
 10
8717.0698687504645932
 20
2172.9907456009332236
 30
0.0
 11
8716.8357690683023975
 21
2173.0886130397198031
 31
0.0
  0
LINE
  5
141A0
  8
0
 10
8716.8366696550292545
 20
2172.7554253694779618
 30
0.0
 11
8716.7387282918152778
 21
2172.9916458419779701
 31
0.0
  0
LINE
  5
141A1
  8
0
 10
8716.0855919557870948
 20
2175.0782600157072011
 30
0.0
 11
8716.0855919557870948
 21
2173.9758978109070995
 31
0.0
  0
LINE
  5
141A2
  8
0
 10
8715.9202376250832458
 20
2175.0097680093072086
 30
0.0
 11
8715.9202376250832458
 21
2174.044389817307092
 31
0.0
  0
LINE
  5
141A3
  8
0
 10
8715.7808794769844098
 20
2175.149126157406954
 30
0.0
 11
8715.9202376250832458
 21
2175.0097680093072086
 31
0.0
  0
LINE
  5
141A4
  8
0
 10
8715.8493714832857222
 20
2175.314480488107165
 30
0.0
 11
8716.0855919557870948
 21
2175.0782600157072011
 31
0.0
  0
LINE
  5
141A5
  8
0
 10
8715.8493714832857222
 20
2175.314480488107165
 30
0.0
 11
8715.7808794769844098
 21
2175.149126157406954
 31
0.0
  0
LINE
  5
141A6
  8
0
 10
8716.0855919557870948
 20
2175.0782600157072011
 30
0.0
 11
8715.9202376250832458
 21
2175.0097680093072086
 31
0.0
  0
LINE
  5
141A7
  8
0
 10
8715.7808794769844098
 20
2173.9050316692068918
 30
0.0
 11
8715.9202376250832458
 21
2174.044389817307092
 31
0.0
  0
LINE
  5
141A8
  8
0
 10
8715.8493714832857222
 20
2173.7396773385071356
 30
0.0
 11
8716.0855919557870948
 21
2173.9758978109070995
 31
0.0
  0
LINE
  5
141A9
  8
0
 10
8715.8493714832857222
 20
2173.7396773385071356
 30
0.0
 11
8715.7808794769844098
 21
2173.9050316692068918
 31
0.0
  0
LINE
  5
141AA
  8
0
 10
8716.0855919557870948
 20
2173.9758978109070995
 30
0.0
 11
8715.9202376250832458
 21
2174.044389817307092
 31
0.0
  0
LINE
  5
141AB
  8
0
 10
8716.1052769951857044
 20
2173.9888113789261297
 30
0.0
 11
8716.1052769951857044
 21
2175.0653464476881709
 31
0.0
  0
LINE
  5
141AC
  8
0
 10
8716.0822262988585862
 20
2175.1209957513729023
 30
0.0
 11
8715.8921072189987171
 21
2175.3111148311918441
 31
0.0
  0
LINE
  5
141AD
  8
0
 10
8715.8921072191005806
 20
2173.7430429955220461
 30
0.0
 11
8716.0822262988585862
 21
2173.9331620752409435
 31
0.0
  0
ARC
  5
141AE
  8
0
 10
8715.8364579154276726
 20
2173.7986922992067775
 30
0.0
 40
0.0787
 50
270.0
 51
314.9999999939753934
  0
ARC
  5
141AF
  8
0
 10
8716.0265769951874972
 20
2173.9888113789261297
 30
0.0
 40
0.0787
 50
314.9999999939753934
 51
0.0
  0
ARC
  5
141B0
  8
0
 10
8716.0265769951874972
 20
2175.0653464476881709
 30
0.0
 40
0.0787
 50
0.0
 51
45.000000006282491
  0
ARC
  5
141B1
  8
0
 10
8715.8364579153258092
 20
2175.2554655275080222
 30
0.0
 40
0.0787
 50
45.0000000063009225
 51
90.0
  0
ENDSEC
  0
EOF
