  0
SECTION
  2
HEADER
  9
$ACADVER
  1
AC1009
  9
$INSBASE
 10
8732.8314214911497402
 20
2174.3733785058229842
 30
0.0
  9
$EXTMIN
 10
8729.8984572841072804
 20
2172.6021793509889903
 30
0.0
  9
$EXTMAX
 10
8732.8423466033764271
 20
2176.145486437587806
 30
0.0
  9
$LIMMIN
 10
0.0
 20
0.0
  9
$LIMMAX
 10
11.6929133858000007
 20
8.2677165353999982
  9
$ORTHOMODE
 70
     0
  9
$REGENMODE
 70
     1
  9
$FILLMODE
 70
     1
  9
$QTEXTMODE
 70
     0
  9
$MIRRTEXT
 70
     0
  9
$DRAGMODE
 70
     2
  9
$LTSCALE
 40
0.6431102362
  9
$OSMODE
 70
  4095
  9
$ATTMODE
 70
     1
  9
$TEXTSIZE
 40
0.2
  9
$TRACEWID
 40
0.05
  9
$TEXTSTYLE
  7
STANDARD
  9
$CLAYER
  8
0
  9
$CELTYPE
  6
BYLAYER
  9
$CECOLOR
 62
   256
  9
$DIMSCALE
 40
1.0
  9
$DIMASZ
 40
0.1875
  9
$DIMEXO
 40
0.0625
  9
$DIMDLI
 40
0.4443307087
  9
$DIMRND
 40
0.0
  9
$DIMDLE
 40
0.0
  9
$DIMEXE
 40
0.125
  9
$DIMTP
 40
0.01
  9
$DIMTM
 40
0.01
  9
$DIMTXT
 40
2.0
  9
$DIMCEN
 40
0.1052362205
  9
$DIMTSZ
 40
0.0
  9
$DIMTOL
 70
     1
  9
$DIMLIM
 70
     0
  9
$DIMTIH
 70
     1
  9
$DIMTOH
 70
     1
  9
$DIMSE1
 70
     0
  9
$DIMSE2
 70
     0
  9
$DIMTAD
 70
     0
  9
$DIMZIN
 70
     0
  9
$DIMBLK
  1

  9
$DIMASO
 70
     1
  9
$DIMSHO
 70
     1
  9
$DIMPOST
  1
\X
  9
$DIMAPOST
  1

  9
$DIMALT
 70
     1
  9
$DIMALTD
 70
     2
  9
$DIMALTF
 40
25.3999999999999986
  9
$DIMLFAC
 40
1.0
  9
$DIMTOFL
 70
     0
  9
$DIMTVP
 40
0.0
  9
$DIMTIX
 70
     0
  9
$DIMSOXD
 70
     0
  9
$DIMSAH
 70
     0
  9
$DIMBLK1
  1

  9
$DIMBLK2
  1

  9
$DIMSTYLE
  2
STANDARD
  9
$DIMCLRD
 70
     0
  9
$DIMCLRE
 70
     0
  9
$DIMCLRT
 70
     0
  9
$DIMTFAC
 40
1.0
  9
$DIMGAP
 40
0.09
  9
$LUNITS
 70
     2
  9
$LUPREC
 70
     4
  9
$SKETCHINC
 40
0.1
  9
$FILLETRAD
 40
0.0
  9
$AUNITS
 70
     0
  9
$AUPREC
 70
     0
  9
$MENU
  1
.
  9
$ELEVATION
 40
0.0
  9
$PELEVATION
 40
0.0
  9
$THICKNESS
 40
0.0
  9
$LIMCHECK
 70
     0
  9
$BLIPMODE
 70
     0
  9
$CHAMFERA
 40
0.0
  9
$CHAMFERB
 40
0.0
  9
$SKPOLY
 70
     0
  9
$TDCREATE
 40
2458060.468368056230247
  9
$TDUPDATE
 40
2460585.5071064820513129
  9
$TDINDWG
 40
0.633571875
  9
$TDUSRTIMER
 40
0.633571875
  9
$USRTIMER
 70
     1
  9
$ANGBASE
 50
0.0
  9
$ANGDIR
 70
     0
  9
$PDMODE
 70
     0
  9
$PDSIZE
 40
0.3125
  9
$PLINEWID
 40
0.0
  9
$COORDS
 70
     1
  9
$SPLFRAME
 70
     0
  9
$SPLINETYPE
 70
     6
  9
$SPLINESEGS
 70
     8
  9
$ATTDIA
 70
     1
  9
$ATTREQ
 70
     1
  9
$HANDLING
 70
     1
  9
$HANDSEED
  5
1434F
  9
$SURFTAB1
 70
     6
  9
$SURFTAB2
 70
     6
  9
$SURFTYPE
 70
     6
  9
$SURFU
 70
     6
  9
$SURFV
 70
     6
  9
$UCSNAME
  2

  9
$UCSORG
 10
0.0
 20
0.0
 30
0.0
  9
$UCSXDIR
 10
1.0
 20
0.0
 30
0.0
  9
$UCSYDIR
 10
0.0
 20
1.0
 30
0.0
  9
$PUCSNAME
  2

  9
$PUCSORG
 10
0.0
 20
0.0
 30
0.0
  9
$PUCSXDIR
 10
1.0
 20
0.0
 30
0.0
  9
$PUCSYDIR
 10
0.0
 20
1.0
 30
0.0
  9
$USERI1
 70
     0
  9
$USERI2
 70
     0
  9
$USERI3
 70
     0
  9
$USERI4
 70
     0
  9
$USERI5
 70
     0
  9
$USERR1
 40
0.0
  9
$USERR2
 40
0.0
  9
$USERR3
 40
0.0
  9
$USERR4
 40
0.0
  9
$USERR5
 40
0.0
  9
$WORLDVIEW
 70
     1
  9
$SHADEDGE
 70
     3
  9
$SHADEDIF
 70
    70
  9
$TILEMODE
 70
     1
  9
$MAXACTVP
 70
    64
  9
$PLIMCHECK
 70
     0
  9
$PEXTMIN
 10
1.0000000000000000E+20
 20
1.0000000000000000E+20
 30
1.0000000000000000E+20
  9
$PEXTMAX
 10
-1.0000000000000000E+20
 20
-1.0000000000000000E+20
 30
-1.0000000000000000E+20
  9
$PLIMMIN
 10
0.0
 20
0.0
  9
$PLIMMAX
 10
12.0
 20
9.0
  9
$UNITMODE
 70
     0
  9
$VISRETAIN
 70
     1
  9
$PLINEGEN
 70
     0
  9
$PSLTSCALE
 70
     1
  0
ENDSEC
  0
SECTION
  2
TABLES
  0
TABLE
  2
VPORT
 70
     1
  0
VPORT
  2
*ACTIVE
 70
     0
 10
0.0
 20
0.0
 11
1.0
 21
1.0
 12
3916.0720620999918538
 22
1926.5652086267100458
 13
0.0
 23
0.0
 14
1.0
 24
1.0
 15
0.0
 25
0.0
 16
0.0
 26
0.0
 36
9.5192988075487186
 17
4815.2983398437490905
 27
247.8086242675780966
 37
0.0
 40
3.5718342308287481
 41
2.558981233243967
 42
50.0
 43
0.0
 44
0.0
 50
0.0
 51
0.0
 71
     0
 72
   100
 73
     1
 74
     1
 75
     0
 76
     0
 77
     0
 78
     0
  0
ENDTAB
  0
TABLE
  2
LTYPE
 70
     2
  0
LTYPE
  2
CONTINUOUS
 70
     0
  3
Solid line
 72
    65
 73
     0
 40
0.0
  0
LTYPE
  2
PHANTOM2
 70
     0
  3
___ _ _ ___ _ _ ___ _ _ ___ _ _
 72
    65
 73
     6
 40
1.25
 49
0.625
 49
-0.125
 49
0.125
 49
-0.125
 49
0.125
 49
-0.125
  0
ENDTAB
  0
TABLE
  2
LAYER
 70
     2
  0
LAYER
  2
0
 70
     0
 62
   255
  6
CONTINUOUS
  0
LAYER
  2
DEFPOINTS
 70
     0
 62
     7
  6
CONTINUOUS
  0
ENDTAB
  0
TABLE
  2
STYLE
 70
     1
  0
STYLE
  2
STANDARD
 70
     0
 40
0.0
 41
0.8
 50
0.0
 71
     0
 42
0.2
  3
txt
  4

  0
ENDTAB
  0
TABLE
  2
VIEW
 70
     2
  0
ENDTAB
  0
TABLE
  2
UCS
 70
     0
  0
ENDTAB
  0
TABLE
  2
APPID
 70
    12
  0
APPID
  2
ACAD
 70
     0
  0
APPID
  2
ACAD_MLEADERVER
 70
     0
  0
APPID
  2
ACAD_EXEMPT_FROM_CAD_STANDARDS
 70
     0
  0
APPID
  2
ACAD_NAV_VCDISPLAY
 70
     0
  0
APPID
  2
ACAECLAYERSTANDARD
 70
     0
  0
APPID
  2
ACCMTRANSPARENCY
 70
     0
  0
APPID
  2
ACAD_DSTYLE_DIMJAG
 70
     0
  0
APPID
  2
ACAD_DSTYLE_DIMTALN
 70
     0
  0
APPID
  2
ACDBATTR
 70
     0
  0
APPID
  2
ACADANNOTATIVE
 70
     0
  0
APPID
  2
GRADIENTCOLOR1ACI
 70
     0
  0
APPID
  2
GRADIENTCOLOR2ACI
 70
     0
  0
ENDTAB
  0
TABLE
  2
DIMSTYLE
 70
     1
  0
DIMSTYLE
  2
STANDARD
 70
     0
  3

  4

  5

  6

  7

 40
1.0
 41
0.1875
 42
0.0625
 43
0.38
 44
0.125
 45
0.0
 46
0.0
 47
0.01
 48
0.01
140
0.15625
141
0.09
142
0.0
143
25.3999999999999986
144
1.0
145
0.0
146
1.0
147
0.09
 71
     1
 72
     0
 73
     1
 74
     1
 75
     0
 76
     0
 77
     0
 78
     4
170
     0
171
     2
172
     0
173
     0
174
     0
175
     0
176
     0
177
     0
178
     0
  0
ENDTAB
  0
ENDSEC
  0
SECTION
  2
BLOCKS
  0
BLOCK
  8
0
  2
$MODEL_SPACE
 70
     0
 10
0.0
 20
0.0
 30
0.0
  3
$MODEL_SPACE
  1

  0
ENDBLK
  5
21
  8
0
  0
BLOCK
 67
     1
  8
0
  2
$PAPER_SPACE
 70
     0
 10
0.0
 20
0.0
 30
0.0
  3
$PAPER_SPACE
  1

  0
ENDBLK
  5
1D
 67
     1
  8
0
  0
BLOCK
  8
0
  2
_FILLED
 70
     0
 10
0.0
 20
0.0
 30
0.0
  3
_FILLED
  1

  0
SOLID
  5
13BBF
  8
0
  6
BYBLOCK
 62
     0
 10
0.0
 20
0.0
 30
0.0
 11
-1.0
 21
0.1666666667
 31
0.0
 12
-1.0
 22
-0.1666666667
 32
0.0
 13
-1.0
 23
-0.1666666667
 33
0.0
  0
ENDBLK
  5
13BC0
  8
0
  6
BYBLOCK
 62
     0
  0
ENDSEC
  0
SECTION
  2
ENTITIES
  0
ATTDEF
  5
3930
  8
DEFPOINTS
 10
8732.8316799367057683
 20
2174.3733048977787803
 30
0.0
 40
0.001
  1
P33359-GTM
  3

  2
MODELNUMBER
 70
     0
1001
ACDBATTR
1070
     0
1070
     1
  0
ATTDEF
  5
3931
  8
DEFPOINTS
 10
8732.8316799367057683
 20
2174.3716382311131383
 30
0.0
 40
0.001
  1
BEZEL
  3

  2
TRADENAME
 70
     0
1001
ACDBATTR
1070
     0
1070
     1
  0
ATTDEF
  5
3932
  8
DEFPOINTS
 10
8732.8316799367057683
 20
2174.3699715644461321
 30
0.0
 40
0.001
  1
VALVE TRIM
  3

  2
PRODUCT
 70
     0
1001
ACDBATTR
1070
     0
1070
     1
  0
LINE
  5
142BC
  8
0
 10
8732.6935583679351112
 20
2175.9092834538200805
 30
0.0
 11
8732.8314214919810183
 21
2175.9092834538200805
 31
0.0
  0
LINE
  5
142BD
  8
0
 10
8732.8314214919810183
 20
2176.1454864369911775
 30
0.0
 11
8732.831421490316643
 21
2172.6021815969979798
 31
0.0
  0
LINE
  5
142BE
  8
0
 10
8732.4455947202804964
 20
2175.9092834537200361
 30
0.0
 11
8732.4455947198857757
 21
2175.1809195084888415
 31
0.0
  0
LINE
  5
142BF
  8
0
 10
8732.4455947190126608
 20
2173.5667462800879548
 30
0.0
 11
8732.4455947186161211
 21
2172.8383800907367913
 31
0.0
  0
LINE
  5
142C0
  8
0
 10
8732.6935583679351112
 20
2175.9092834538200805
 30
0.0
 11
8732.4455947202277457
 21
2175.8074986579481447
 31
0.0
  0
LINE
  5
142C1
  8
0
 10
8732.0441265754088818
 20
2175.1612344690879581
 30
0.0
 11
8732.0441265754088818
 21
2173.5864313194879287
 31
0.0
  0
LINE
  5
142C2
  8
0
 10
8732.0874336620072427
 20
2175.1612344690879581
 30
0.0
 11
8732.0874336620072427
 21
2173.5864313194879287
 31
0.0
  0
LINE
  5
142C3
  8
0
 10
8730.0638116148074914
 20
2175.1612344690879581
 30
0.0
 11
8732.0441265754088818
 21
2175.1612344690879581
 31
0.0
  0
LINE
  5
142C4
  8
0
 10
8732.0874336620072427
 20
2175.1612344690879581
 30
0.0
 11
8732.4466848575939366
 21
2175.1612344690879581
 31
0.0
  0
LINE
  5
142C5
  8
0
 10
8729.8984572841072804
 20
2174.9958801383882019
 30
0.0
 11
8729.8984572841072804
 21
2173.7517856501890492
 31
0.0
  0
LINE
  5
142C6
  8
0
 10
8730.0638116148074914
 20
2175.1612344690879581
 30
0.0
 11
8729.8984572841072804
 21
2174.9958801383882019
 31
0.0
  0
LINE
  5
142C7
  8
0
 10
8730.0638116148074914
 20
2174.9250139966889037
 30
0.0
 11
8732.0441265754088818
 21
2174.9250139966889037
 31
0.0
  0
LINE
  5
142C8
  8
0
 10
8732.0874336620072427
 20
2174.9250139966889037
 30
0.0
 11
8732.4466848461197515
 21
2174.9250139966889037
 31
0.0
  0
LINE
  5
142C9
  8
0
 10
8730.0638116148074914
 20
2174.9250139966889037
 30
0.0
 11
8729.8984572841072804
 21
2174.8565219902889112
 31
0.0
  0
LINE
  5
142CA
  8
0
 10
8730.0638116148074914
 20
2173.5864313194879287
 30
0.0
 11
8732.0441265754088818
 21
2173.5864313194879287
 31
0.0
  0
LINE
  5
142CB
  8
0
 10
8732.0874336620072427
 20
2173.5864313194879287
 30
0.0
 11
8732.4466847811054322
 21
2173.5864313194879287
 31
0.0
  0
LINE
  5
142CC
  8
0
 10
8730.0638116148074914
 20
2173.5864313194879287
 30
0.0
 11
8729.8984572841072804
 21
2173.7517856501890492
 31
0.0
  0
LINE
  5
142CD
  8
0
 10
8730.0638116148074914
 20
2173.8226517918888021
 30
0.0
 11
8732.0441265754088818
 21
2173.8226517918888021
 31
0.0
  0
LINE
  5
142CE
  8
0
 10
8732.0874336620072427
 20
2173.8226517918888021
 30
0.0
 11
8732.4466847925777984
 21
2173.8226517918888021
 31
0.0
  0
LINE
  5
142CF
  8
0
 10
8730.0638116148074914
 20
2173.8226517918888021
 30
0.0
 11
8729.8984572841072804
 21
2173.8911437982887946
 31
0.0
  0
LINE
  5
142D0
  8
0
 10
8732.6907022844497988
 20
2176.1454864369911775
 30
0.0
 11
8732.6907022844497988
 21
2172.6021793512918521
 31
0.0
  0
LINE
  5
142D1
  8
0
 10
8730.0638116148074914
 20
2175.1612344691379803
 30
0.0
 11
8730.0638116148074914
 21
2173.5864313193392263
 31
0.0
  0
LINE
  5
142D2
  8
0
 10
8732.0441265754088818
 20
2175.1021793509889903
 30
0.0
 11
8732.0638116148074914
 21
2175.1021793509889903
 31
0.0
  0
LINE
  5
142D3
  8
0
 10
8732.0638116148074914
 20
2175.1021793509889903
 30
0.0
 11
8732.0638116148074914
 21
2173.645486437587806
 31
0.0
  0
LINE
  5
142D4
  8
0
 10
8732.0638116148074914
 20
2173.645486437587806
 30
0.0
 11
8732.0441265754088818
 21
2173.645486437587806
 31
0.0
  0
LINE
  5
142D5
  8
0
 10
8732.0874336620072427
 20
2173.9112344690879581
 30
0.0
 11
8732.0638116148074914
 21
2173.9112344690879581
 31
0.0
  0
LINE
  5
142D6
  8
0
 10
8732.0874336620072427
 20
2174.8364313194888382
 30
0.0
 11
8732.0638116148074914
 21
2174.8364313194888382
 31
0.0
  0
LINE
  5
142D7
  8
0
 10
8732.4455947202804964
 20
2175.9092834537200361
 30
0.0
 11
8732.6818151912520989
 21
2176.1454864369911775
 31
0.0
  0
LINE
  5
142D8
  8
0
 10
8732.6818151916450006
 20
2172.6021793512918521
 30
0.0
 11
8732.8314214919810183
 21
2172.6021793512918521
 31
0.0
  0
LINE
  5
142D9
  8
0
 10
8732.6935583679351112
 20
2172.8383800890519524
 30
0.0
 11
8732.8314214919810183
 21
2172.8383800890519524
 31
0.0
  0
LINE
  5
142DA
  8
0
 10
8732.6935583679351112
 20
2172.8383800890519524
 30
0.0
 11
8732.4455947202277457
 21
2172.9401648849229787
 31
0.0
  0
LINE
  5
142DB
  8
0
 10
8732.4455947186161211
 20
2172.8383800907367913
 30
0.0
 11
8732.6818151919487718
 21
2172.6021793509889903
 31
0.0
  0
LINE
  5
142DC
  8
0
 10
8732.6818151912520989
 20
2176.1454864369911775
 30
0.0
 11
8732.8314214919810183
 21
2176.1454864369911775
 31
0.0
  0
LINE
  5
142DE
  8
0
 10
8732.4455947193491738
 20
2175.1809195084888415
 30
0.0
 11
8732.446684858548906
 21
2175.1809195084888415
 31
0.0
  0
LINE
  5
142DF
  8
0
 10
8732.446684858548906
 20
2175.1809195084888415
 30
0.0
 11
8732.4466847801486438
 21
2173.5667462800879548
 31
0.0
  0
LINE
  5
142E0
  8
0
 10
8732.4466847801486438
 20
2173.5667462800879548
 30
0.0
 11
8732.4455947190126608
 21
2173.5667462800879548
 31
0.0
  0
LINE
  5
142E1
  8
0
 10
8732.6907022844497988
 20
2176.145486437587806
 30
0.0
 11
8732.453406995649857
 21
2175.9092622746879897
 31
0.0
  0
LINE
  5
142E2
  8
0
 10
8732.453406995649857
 20
2175.9092622746879897
 30
0.0
 11
8732.453406995649857
 21
2172.8385212631501417
 31
0.0
  0
LINE
  5
142E3
  8
0
 10
8732.453406995649857
 20
2172.8385212631501417
 30
0.0
 11
8732.6907022844497988
 21
2172.6021793509889903
 31
0.0
  0
ENDSEC
  0
EOF
