  0
SECTION
  2
HEADER
  9
$ACADVER
  1
AC1009
  9
$INSBASE
 10
4919.5587300494671581
 20
-2.5639987117251319
 30
0.0
  9
$EXTMIN
 10
4916.6256591832670892
 20
-4.3356522550251331
 30
0.0
  9
$EXTMAX
 10
4919.5694547795228573
 20
-0.7923451684251326
 30
0.0
  9
$LIMMIN
 10
0.0
 20
0.0
  9
$LIMMAX
 10
11.6929133858000007
 20
8.2677165353999982
  9
$ORTHOMODE
 70
     1
  9
$REGENMODE
 70
     1
  9
$FILLMODE
 70
     1
  9
$QTEXTMODE
 70
     0
  9
$MIRRTEXT
 70
     0
  9
$DRAGMODE
 70
     2
  9
$LTSCALE
 40
0.6431102362
  9
$OSMODE
 70
  4095
  9
$ATTMODE
 70
     1
  9
$TEXTSIZE
 40
0.2
  9
$TRACEWID
 40
0.05
  9
$TEXTSTYLE
  7
STANDARD
  9
$CLAYER
  8
0
  9
$CELTYPE
  6
BYLAYER
  9
$CECOLOR
 62
   256
  9
$DIMSCALE
 40
1.0
  9
$DIMASZ
 40
0.1875
  9
$DIMEXO
 40
0.0625
  9
$DIMDLI
 40
0.4443307087
  9
$DIMRND
 40
0.0
  9
$DIMDLE
 40
0.0
  9
$DIMEXE
 40
0.125
  9
$DIMTP
 40
0.01
  9
$DIMTM
 40
0.01
  9
$DIMTXT
 40
2.0
  9
$DIMCEN
 40
0.1052362205
  9
$DIMTSZ
 40
0.0
  9
$DIMTOL
 70
     1
  9
$DIMLIM
 70
     0
  9
$DIMTIH
 70
     1
  9
$DIMTOH
 70
     1
  9
$DIMSE1
 70
     0
  9
$DIMSE2
 70
     0
  9
$DIMTAD
 70
     0
  9
$DIMZIN
 70
     0
  9
$DIMBLK
  1

  9
$DIMASO
 70
     1
  9
$DIMSHO
 70
     1
  9
$DIMPOST
  1
\X
  9
$DIMAPOST
  1

  9
$DIMALT
 70
     1
  9
$DIMALTD
 70
     2
  9
$DIMALTF
 40
25.3999999999999986
  9
$DIMLFAC
 40
1.0
  9
$DIMTOFL
 70
     0
  9
$DIMTVP
 40
0.0
  9
$DIMTIX
 70
     0
  9
$DIMSOXD
 70
     0
  9
$DIMSAH
 70
     0
  9
$DIMBLK1
  1

  9
$DIMBLK2
  1

  9
$DIMSTYLE
  2
STANDARD
  9
$DIMCLRD
 70
     0
  9
$DIMCLRE
 70
     0
  9
$DIMCLRT
 70
     0
  9
$DIMTFAC
 40
1.0
  9
$DIMGAP
 40
0.09
  9
$LUNITS
 70
     2
  9
$LUPREC
 70
     4
  9
$SKETCHINC
 40
0.1
  9
$FILLETRAD
 40
0.0
  9
$AUNITS
 70
     0
  9
$AUPREC
 70
     0
  9
$MENU
  1
.
  9
$ELEVATION
 40
0.0
  9
$PELEVATION
 40
0.0
  9
$THICKNESS
 40
0.0
  9
$LIMCHECK
 70
     0
  9
$BLIPMODE
 70
     0
  9
$CHAMFERA
 40
0.0
  9
$CHAMFERB
 40
0.0
  9
$SKPOLY
 70
     0
  9
$TDCREATE
 40
2458060.468368056230247
  9
$TDUPDATE
 40
2460595.6954166670329869
  9
$TDINDWG
 40
0.7660950231
  9
$TDUSRTIMER
 40
0.7660950231
  9
$USRTIMER
 70
     1
  9
$ANGBASE
 50
0.0
  9
$ANGDIR
 70
     0
  9
$PDMODE
 70
     0
  9
$PDSIZE
 40
0.3125
  9
$PLINEWID
 40
0.0
  9
$COORDS
 70
     1
  9
$SPLFRAME
 70
     0
  9
$SPLINETYPE
 70
     6
  9
$SPLINESEGS
 70
     8
  9
$ATTDIA
 70
     1
  9
$ATTREQ
 70
     1
  9
$HANDLING
 70
     1
  9
$HANDSEED
  5
2FAE5
  9
$SURFTAB1
 70
     6
  9
$SURFTAB2
 70
     6
  9
$SURFTYPE
 70
     6
  9
$SURFU
 70
     6
  9
$SURFV
 70
     6
  9
$UCSNAME
  2

  9
$UCSORG
 10
0.0
 20
0.0
 30
0.0
  9
$UCSXDIR
 10
1.0
 20
0.0
 30
0.0
  9
$UCSYDIR
 10
0.0
 20
1.0
 30
0.0
  9
$PUCSNAME
  2

  9
$PUCSORG
 10
0.0
 20
0.0
 30
0.0
  9
$PUCSXDIR
 10
1.0
 20
0.0
 30
0.0
  9
$PUCSYDIR
 10
0.0
 20
1.0
 30
0.0
  9
$USERI1
 70
     0
  9
$USERI2
 70
     0
  9
$USERI3
 70
     0
  9
$USERI4
 70
     0
  9
$USERI5
 70
     0
  9
$USERR1
 40
0.0
  9
$USERR2
 40
0.0
  9
$USERR3
 40
0.0
  9
$USERR4
 40
0.0
  9
$USERR5
 40
0.0
  9
$WORLDVIEW
 70
     1
  9
$SHADEDGE
 70
     3
  9
$SHADEDIF
 70
    70
  9
$TILEMODE
 70
     1
  9
$MAXACTVP
 70
    64
  9
$PLIMCHECK
 70
     0
  9
$PEXTMIN
 10
1.0000000000000000E+20
 20
1.0000000000000000E+20
 30
1.0000000000000000E+20
  9
$PEXTMAX
 10
-1.0000000000000000E+20
 20
-1.0000000000000000E+20
 30
-1.0000000000000000E+20
  9
$PLIMMIN
 10
0.0
 20
0.0
  9
$PLIMMAX
 10
12.0
 20
9.0
  9
$UNITMODE
 70
     0
  9
$VISRETAIN
 70
     1
  9
$PLINEGEN
 70
     0
  9
$PSLTSCALE
 70
     1
  0
ENDSEC
  0
SECTION
  2
TABLES
  0
TABLE
  2
VPORT
 70
     1
  0
VPORT
  2
*ACTIVE
 70
     0
 10
0.0
 20
0.0
 11
1.0
 21
1.0
 12
1125.7396468251449733
 22
-122.7446551448306025
 13
0.0
 23
0.0
 14
1.0
 24
1.0
 15
0.0
 25
0.0
 16
0.0
 26
0.0
 36
5.1040778033513332
 17
3792.35791015625
 27
120.1806564331053977
 37
0.0
 40
3.5708814608148032
 41
2.4792207792207792
 42
50.0
 43
0.0
 44
0.0
 50
0.0
 51
0.0
 71
     0
 72
   100
 73
     1
 74
     1
 75
     0
 76
     0
 77
     0
 78
     0
  0
ENDTAB
  0
TABLE
  2
LTYPE
 70
     2
  0
LTYPE
  2
CONTINUOUS
 70
     0
  3
Solid line
 72
    65
 73
     0
 40
0.0
  0
LTYPE
  2
PHANTOM2
 70
     0
  3
___ _ _ ___ _ _ ___ _ _ ___ _ _
 72
    65
 73
     6
 40
1.25
 49
0.625
 49
-0.125
 49
0.125
 49
-0.125
 49
0.125
 49
-0.125
  0
ENDTAB
  0
TABLE
  2
LAYER
 70
     2
  0
LAYER
  2
0
 70
     0
 62
   255
  6
CONTINUOUS
  0
LAYER
  2
DEFPOINTS
 70
     0
 62
     7
  6
CONTINUOUS
  0
ENDTAB
  0
TABLE
  2
STYLE
 70
     1
  0
STYLE
  2
STANDARD
 70
     0
 40
0.0
 41
0.8
 50
0.0
 71
     0
 42
0.2
  3
txt
  4

  0
ENDTAB
  0
TABLE
  2
VIEW
 70
     0
  0
ENDTAB
  0
TABLE
  2
UCS
 70
     0
  0
ENDTAB
  0
TABLE
  2
APPID
 70
    11
  0
APPID
  2
ACAD
 70
     0
  0
APPID
  2
ACAD_MLEADERVER
 70
     0
  0
APPID
  2
ACAD_EXEMPT_FROM_CAD_STANDARDS
 70
     0
  0
APPID
  2
ACAD_NAV_VCDISPLAY
 70
     0
  0
APPID
  2
ACAECLAYERSTANDARD
 70
     0
  0
APPID
  2
ACCMTRANSPARENCY
 70
     0
  0
APPID
  2
ACAD_DSTYLE_DIMJAG
 70
     0
  0
APPID
  2
ACAD_DSTYLE_DIMTALN
 70
     0
  0
APPID
  2
ACDBATTR
 70
     0
  0
APPID
  2
GRADIENTCOLOR1ACI
 70
     0
  0
APPID
  2
GRADIENTCOLOR2ACI
 70
     0
  0
ENDTAB
  0
TABLE
  2
DIMSTYLE
 70
     1
  0
DIMSTYLE
  2
STANDARD
 70
     0
  3

  4

  5

  6

  7

 40
1.0
 41
0.1875
 42
0.0625
 43
0.38
 44
0.125
 45
0.0
 46
0.0
 47
0.01
 48
0.01
140
0.15625
141
0.09
142
0.0
143
25.3999999999999986
144
1.0
145
0.0
146
1.0
147
0.09
 71
     1
 72
     0
 73
     1
 74
     1
 75
     0
 76
     0
 77
     0
 78
     4
170
     0
171
     2
172
     0
173
     0
174
     0
175
     0
176
     0
177
     0
178
     0
  0
ENDTAB
  0
ENDSEC
  0
SECTION
  2
BLOCKS
  0
BLOCK
  8
0
  2
$MODEL_SPACE
 70
     0
 10
0.0
 20
0.0
 30
0.0
  3
$MODEL_SPACE
  1

  0
ENDBLK
  5
21
  8
0
  0
BLOCK
 67
     1
  8
0
  2
$PAPER_SPACE
 70
     0
 10
0.0
 20
0.0
 30
0.0
  3
$PAPER_SPACE
  1

  0
ENDBLK
  5
1D
 67
     1
  8
0
  0
ENDSEC
  0
SECTION
  2
ENTITIES
  0
LINE
  5
2F850
  8
0
 10
4919.5587300494671581
 20
-0.7923451684251326
 30
0.0
 11
4919.4091237502670992
 21
-0.7923451684251335
 31
0.0
  0
LINE
  5
2F853
  8
0
 10
4919.4180091104672101
 20
-3.351400286525132
 30
0.0
 11
4919.4169366720179823
 21
-3.351400286525132
 31
0.0
  0
LINE
  5
2F854
  8
0
 10
4919.1729032777675457
 20
-3.351400286525132
 30
0.0
 11
4918.8146355612670959
 21
-3.351400286525132
 31
0.0
  0
LINE
  5
2F855
  8
0
 10
4918.7713284746678255
 20
-3.351400286525132
 30
0.0
 11
4916.7910135139673002
 21
-3.351400286525132
 31
0.0
  0
LINE
  5
2F85B
  8
0
 10
4919.5587300494671581
 20
-4.3356522550251331
 30
0.0
 11
4919.5587300494671581
 21
-0.7923451684251335
 31
0.0
  0
LINE
  5
2F85C
  8
0
 10
4919.4162130502290893
 20
-4.3356522550251331
 30
0.0
 11
4919.4188180886676491
 21
-0.7923451684251335
 31
0.0
  0
LINE
  5
2F85D
  8
0
 10
4916.7910135139673002
 20
-3.3514002865251311
 30
0.0
 11
4916.7910135139673002
 21
-1.7765971369251341
 31
0.0
  0
LINE
  5
2F85E
  8
0
 10
4916.6256591832670892
 20
-3.1860459558251319
 30
0.0
 11
4916.6256591832670892
 21
-1.9419514676251319
 31
0.0
  0
LINE
  5
2F85F
  8
0
 10
4918.8146355612670959
 20
-3.351400286525132
 30
0.0
 11
4918.8146355612670959
 21
-1.7765971369251341
 31
0.0
  0
LINE
  5
2F860
  8
0
 10
4918.7910135139673002
 20
-3.2923451684251321
 30
0.0
 11
4918.7910135139673002
 21
-1.8356522550251331
 31
0.0
  0
LINE
  5
2F861
  8
0
 10
4918.7713284746678255
 20
-3.3514002865251311
 30
0.0
 11
4918.7713284746678255
 21
-1.7765971369251341
 31
0.0
  0
LINE
  5
2F862
  8
0
 10
4919.1729032777675457
 20
-4.0994317825251319
 30
0.0
 11
4919.1729032777675457
 21
-1.028565640825132
 31
0.0
  0
LINE
  5
2F863
  8
0
 10
4916.6256591832670892
 20
-1.9419514676251319
 30
0.0
 11
4916.7910135139673002
 21
-1.776597136925133
 31
0.0
  0
LINE
  5
2F864
  8
0
 10
4916.6256591832670892
 20
-3.1860459558251319
 30
0.0
 11
4916.7910135139673002
 21
-3.351400286525132
 31
0.0
  0
LINE
  5
2F865
  8
0
 10
4918.7910135139673002
 20
-3.2923451684251321
 30
0.0
 11
4918.7713284746678255
 21
-3.2923451684251321
 31
0.0
  0
LINE
  5
2F866
  8
0
 10
4918.7910135139673002
 20
-1.8356522550251331
 30
0.0
 11
4918.7713284746678255
 21
-1.8356522550251331
 31
0.0
  0
LINE
  5
2F867
  8
0
 10
4919.5587300494671581
 20
-4.3356522550251331
 30
0.0
 11
4919.4091237502670992
 21
-4.3356522550251331
 31
0.0
  0
LINE
  5
2F868
  8
0
 10
4919.4091237502670992
 20
-4.3356522550251331
 30
0.0
 11
4919.1729032776684107
 21
-4.0994317825251319
 31
0.0
  0
LINE
  5
2F888
  8
0
 10
4919.4091237502670992
 20
-0.7923451684251335
 30
0.0
 11
4919.1729032776684107
 21
-1.028565640925132
 31
0.0
  0
LINE
  5
2F889
  8
0
 10
4916.7910135139673002
 20
-1.776597136925133
 30
0.0
 11
4918.7713284746678255
 21
-1.776597136925133
 31
0.0
  0
LINE
  5
2F88A
  8
0
 10
4918.8146355612670959
 20
-1.776597136925133
 30
0.0
 11
4919.1729032777675457
 21
-1.7765971369251321
 31
0.0
  0
LINE
  5
2F88B
  8
0
 10
4918.7910135139673002
 20
-2.101400286525132
 30
0.0
 11
4918.8146355612670959
 21
-2.101400286525132
 31
0.0
  0
LINE
  5
2F88C
  8
0
 10
4918.7910135139673002
 20
-3.0265971369251319
 30
0.0
 11
4918.8146355612670959
 21
-3.0265971369251319
 31
0.0
  0
LINE
  5
2F8C0
  8
0
 10
4919.1729032777675457
 20
-2.0128176093251322
 30
0.0
 11
4918.8146355612670959
 21
-2.0128176093251322
 31
0.0
  0
LINE
  5
2F8C1
  8
0
 10
4918.7713284746678255
 20
-2.0128176093251322
 30
0.0
 11
4916.7910135139673002
 21
-2.0128176093251322
 31
0.0
  0
LINE
  5
2F8C2
  8
0
 10
4919.1729032777675457
 20
-3.1151798140251321
 30
0.0
 11
4918.8146355612670959
 21
-3.1151798140251321
 31
0.0
  0
LINE
  5
2F8C3
  8
0
 10
4918.7713284746678255
 20
-3.1151798140251321
 30
0.0
 11
4916.7910135139673002
 21
-3.1151798140251321
 31
0.0
  0
LINE
  5
2F8C4
  8
0
 10
4916.7910135139673002
 20
-2.0128176093251322
 30
0.0
 11
4916.6256591832670892
 21
-2.0813096157251318
 31
0.0
  0
LINE
  5
2F8C5
  8
0
 10
4916.7910135139673002
 20
-3.115179814125133
 30
0.0
 11
4916.6256591832670892
 21
-3.0466878077251329
 31
0.0
  0
LINE
  5
2F8C6
  8
0
 10
4919.5587300494671581
 20
-1.028565640825132
 30
0.0
 11
4919.4186444193928764
 21
-1.0285657031023381
 31
0.0
  0
LINE
  5
2F8C7
  8
0
 10
4919.4186444193928764
 20
-1.0285657031023381
 30
0.0
 11
4919.1729032776684107
 21
-1.1301331060567641
 31
0.0
  0
LINE
  5
2F8C8
  8
0
 10
4919.5587300494671581
 20
-4.0994317826251319
 30
0.0
 11
4919.4186444193928764
 21
-4.0994317203479271
 31
0.0
  0
LINE
  5
2F8C9
  8
0
 10
4919.4186444193928764
 20
-4.0994317203479271
 30
0.0
 11
4919.1729032776684107
 21
-3.9978643173934998
 31
0.0
  0
ATTDEF
  5
2F8D2
  8
DEFPOINTS
 10
4919.5587881128540175
 20
-2.5606498641603239
 30
0.0
 40
0.001
  1
P33360-WC
  3

  2
MODELNUMBER
 70
     0
1001
ACDBATTR
1070
     0
1070
     1
  0
ATTDEF
  5
2F8D3
  8
DEFPOINTS
 10
4919.5587881128540175
 20
-2.5623165308269891
 30
0.0
 40
0.001
  1
BEZEL
  3

  2
TRADENAME
 70
     0
1001
ACDBATTR
1070
     0
1070
     1
  0
ATTDEF
  5
2F8D4
  8
DEFPOINTS
 10
4919.5587881128540175
 20
-2.5639831974936542
 30
0.0
 40
0.001
  1
VALVE TRIM
  3

  2
PRODUCT
 70
     0
1001
ACDBATTR
1070
     0
1070
     1
  0
ENDSEC
  0
EOF
