  0
SECTION
  2
HEADER
  9
$ACADVER
  1
AC1009
  9
$INSBASE
 10
4843.504429552853253
 20
221.8517577424493936
 30
0.0
  9
$EXTMIN
 10
4841.2209649859541969
 20
217.9147498684494053
 30
0.0
  9
$EXTMAX
 10
4845.7878941198541725
 20
225.7887656164494103
 30
0.0
  9
$LIMMIN
 10
0.0
 20
0.0
  9
$LIMMAX
 10
11.6929133858000007
 20
8.2677165353999982
  9
$ORTHOMODE
 70
     0
  9
$REGENMODE
 70
     1
  9
$FILLMODE
 70
     1
  9
$QTEXTMODE
 70
     0
  9
$MIRRTEXT
 70
     0
  9
$DRAGMODE
 70
     2
  9
$LTSCALE
 40
0.6431102362
  9
$OSMODE
 70
  4095
  9
$ATTMODE
 70
     1
  9
$TEXTSIZE
 40
0.2
  9
$TRACEWID
 40
0.05
  9
$TEXTSTYLE
  7
STANDARD
  9
$CLAYER
  8
0
  9
$CELTYPE
  6
BYLAYER
  9
$CECOLOR
 62
   256
  9
$DIMSCALE
 40
1.0
  9
$DIMASZ
 40
0.1875
  9
$DIMEXO
 40
0.0625
  9
$DIMDLI
 40
0.4443307087
  9
$DIMRND
 40
0.0
  9
$DIMDLE
 40
0.0
  9
$DIMEXE
 40
0.125
  9
$DIMTP
 40
0.01
  9
$DIMTM
 40
0.01
  9
$DIMTXT
 40
2.0
  9
$DIMCEN
 40
0.1052362205
  9
$DIMTSZ
 40
0.0
  9
$DIMTOL
 70
     1
  9
$DIMLIM
 70
     0
  9
$DIMTIH
 70
     1
  9
$DIMTOH
 70
     1
  9
$DIMSE1
 70
     0
  9
$DIMSE2
 70
     0
  9
$DIMTAD
 70
     0
  9
$DIMZIN
 70
     0
  9
$DIMBLK
  1

  9
$DIMASO
 70
     1
  9
$DIMSHO
 70
     1
  9
$DIMPOST
  1
\X
  9
$DIMAPOST
  1

  9
$DIMALT
 70
     1
  9
$DIMALTD
 70
     2
  9
$DIMALTF
 40
25.3999999999999986
  9
$DIMLFAC
 40
1.0
  9
$DIMTOFL
 70
     0
  9
$DIMTVP
 40
0.0
  9
$DIMTIX
 70
     0
  9
$DIMSOXD
 70
     0
  9
$DIMSAH
 70
     0
  9
$DIMBLK1
  1

  9
$DIMBLK2
  1

  9
$DIMSTYLE
  2
STANDARD
  9
$DIMCLRD
 70
     0
  9
$DIMCLRE
 70
     0
  9
$DIMCLRT
 70
     0
  9
$DIMTFAC
 40
1.0
  9
$DIMGAP
 40
0.09
  9
$LUNITS
 70
     2
  9
$LUPREC
 70
     4
  9
$SKETCHINC
 40
0.1
  9
$FILLETRAD
 40
0.0
  9
$AUNITS
 70
     0
  9
$AUPREC
 70
     0
  9
$MENU
  1
.
  9
$ELEVATION
 40
0.0
  9
$PELEVATION
 40
0.0
  9
$THICKNESS
 40
0.0
  9
$LIMCHECK
 70
     0
  9
$BLIPMODE
 70
     0
  9
$CHAMFERA
 40
0.0
  9
$CHAMFERB
 40
0.0
  9
$SKPOLY
 70
     0
  9
$TDCREATE
 40
2458060.468368056230247
  9
$TDUPDATE
 40
2460593.4144791672006249
  9
$TDINDWG
 40
0.3832015046
  9
$TDUSRTIMER
 40
0.3832015046
  9
$USRTIMER
 70
     1
  9
$ANGBASE
 50
0.0
  9
$ANGDIR
 70
     0
  9
$PDMODE
 70
     0
  9
$PDSIZE
 40
0.3125
  9
$PLINEWID
 40
0.0
  9
$COORDS
 70
     1
  9
$SPLFRAME
 70
     0
  9
$SPLINETYPE
 70
     6
  9
$SPLINESEGS
 70
     8
  9
$ATTDIA
 70
     1
  9
$ATTREQ
 70
     1
  9
$HANDLING
 70
     1
  9
$HANDSEED
  5
DF20
  9
$SURFTAB1
 70
     6
  9
$SURFTAB2
 70
     6
  9
$SURFTYPE
 70
     6
  9
$SURFU
 70
     6
  9
$SURFV
 70
     6
  9
$UCSNAME
  2

  9
$UCSORG
 10
0.0
 20
0.0
 30
0.0
  9
$UCSXDIR
 10
1.0
 20
0.0
 30
0.0
  9
$UCSYDIR
 10
0.0
 20
1.0
 30
0.0
  9
$PUCSNAME
  2

  9
$PUCSORG
 10
0.0
 20
0.0
 30
0.0
  9
$PUCSXDIR
 10
1.0
 20
0.0
 30
0.0
  9
$PUCSYDIR
 10
0.0
 20
1.0
 30
0.0
  9
$USERI1
 70
     0
  9
$USERI2
 70
     0
  9
$USERI3
 70
     0
  9
$USERI4
 70
     0
  9
$USERI5
 70
     0
  9
$USERR1
 40
0.0
  9
$USERR2
 40
0.0
  9
$USERR3
 40
0.0
  9
$USERR4
 40
0.0
  9
$USERR5
 40
0.0
  9
$WORLDVIEW
 70
     1
  9
$SHADEDGE
 70
     3
  9
$SHADEDIF
 70
    70
  9
$TILEMODE
 70
     1
  9
$MAXACTVP
 70
    64
  9
$PLIMCHECK
 70
     0
  9
$PEXTMIN
 10
1.0000000000000000E+20
 20
1.0000000000000000E+20
 30
1.0000000000000000E+20
  9
$PEXTMAX
 10
-1.0000000000000000E+20
 20
-1.0000000000000000E+20
 30
-1.0000000000000000E+20
  9
$PLIMMIN
 10
0.0
 20
0.0
  9
$PLIMMAX
 10
12.0
 20
9.0
  9
$UNITMODE
 70
     0
  9
$VISRETAIN
 70
     1
  9
$PLINEGEN
 70
     0
  9
$PSLTSCALE
 70
     1
  0
ENDSEC
  0
SECTION
  2
TABLES
  0
TABLE
  2
VPORT
 70
     1
  0
VPORT
  2
*ACTIVE
 70
     0
 10
0.0
 20
0.0
 11
1.0
 21
1.0
 12
242.9782965245692026
 22
-16.5160401091131206
 13
0.0
 23
0.0
 14
1.0
 24
1.0
 15
0.0
 25
0.0
 16
0.0
 26
0.0
 36
114.8828007288452966
 17
4600.5888671874990905
 27
238.3677978515625
 37
0.0
 40
7.9393623783694851
 41
2.4792207792207792
 42
50.0
 43
0.0
 44
0.0
 50
0.0
 51
0.0
 71
     0
 72
   100
 73
     1
 74
     1
 75
     0
 76
     0
 77
     0
 78
     0
  0
ENDTAB
  0
TABLE
  2
LTYPE
 70
     2
  0
LTYPE
  2
CONTINUOUS
 70
     0
  3
Solid line
 72
    65
 73
     0
 40
0.0
  0
LTYPE
  2
PHANTOM2
 70
     0
  3
___ _ _ ___ _ _ ___ _ _ ___ _ _
 72
    65
 73
     6
 40
1.25
 49
0.625
 49
-0.125
 49
0.125
 49
-0.125
 49
0.125
 49
-0.125
  0
ENDTAB
  0
TABLE
  2
LAYER
 70
     2
  0
LAYER
  2
0
 70
     0
 62
   255
  6
CONTINUOUS
  0
LAYER
  2
DEFPOINTS
 70
     0
 62
     7
  6
CONTINUOUS
  0
ENDTAB
  0
TABLE
  2
STYLE
 70
     1
  0
STYLE
  2
STANDARD
 70
     0
 40
0.0
 41
0.8
 50
0.0
 71
     0
 42
0.2
  3
txt
  4

  0
ENDTAB
  0
TABLE
  2
VIEW
 70
     0
  0
ENDTAB
  0
TABLE
  2
UCS
 70
     0
  0
ENDTAB
  0
TABLE
  2
APPID
 70
     9
  0
APPID
  2
ACAD
 70
     0
  0
APPID
  2
ACAD_MLEADERVER
 70
     0
  0
APPID
  2
ACAD_EXEMPT_FROM_CAD_STANDARDS
 70
     0
  0
APPID
  2
ACAD_NAV_VCDISPLAY
 70
     0
  0
APPID
  2
ACAECLAYERSTANDARD
 70
     0
  0
APPID
  2
ACCMTRANSPARENCY
 70
     0
  0
APPID
  2
ACAD_DSTYLE_DIMJAG
 70
     0
  0
APPID
  2
ACAD_DSTYLE_DIMTALN
 70
     0
  0
APPID
  2
ACDBATTR
 70
     0
  0
ENDTAB
  0
TABLE
  2
DIMSTYLE
 70
     1
  0
DIMSTYLE
  2
STANDARD
 70
     0
  3

  4

  5

  6

  7

 40
1.0
 41
0.1875
 42
0.0625
 43
0.38
 44
0.125
 45
0.0
 46
0.0
 47
0.01
 48
0.01
140
0.15625
141
0.09
142
0.0
143
25.3999999999999986
144
1.0
145
0.0
146
1.0
147
0.09
 71
     1
 72
     0
 73
     1
 74
     1
 75
     0
 76
     0
 77
     0
 78
     4
170
     0
171
     2
172
     0
173
     0
174
     0
175
     0
176
     0
177
     0
178
     0
  0
ENDTAB
  0
ENDSEC
  0
SECTION
  2
BLOCKS
  0
BLOCK
  8
0
  2
$MODEL_SPACE
 70
     0
 10
0.0
 20
0.0
 30
0.0
  3
$MODEL_SPACE
  1

  0
ENDBLK
  5
21
  8
0
  0
BLOCK
 67
     1
  8
0
  2
$PAPER_SPACE
 70
     0
 10
0.0
 20
0.0
 30
0.0
  3
$PAPER_SPACE
  1

  0
ENDBLK
  5
1D
 67
     1
  8
0
  0
BLOCK
  8
0
  2
_FILLED
 70
     0
 10
0.0
 20
0.0
 30
0.0
  3
_FILLED
  1

  0
SOLID
  5
DD6A
  8
0
  6
BYBLOCK
 62
     0
 10
0.0
 20
0.0
 30
0.0
 11
-1.0
 21
0.1666666667
 31
0.0
 12
-1.0
 22
-0.1666666667
 32
0.0
 13
-1.0
 23
-0.1666666667
 33
0.0
  0
ENDBLK
  5
DD6B
  8
0
  6
BYBLOCK
 62
     0
  0
ENDSEC
  0
SECTION
  2
ENTITIES
  0
ATTDEF
  5
3930
  8
DEFPOINTS
 10
4843.5015033367699289
 20
221.8548579215523944
 30
0.0
 40
0.001
  1
P33363-00
  3

  2
MODELNUMBER
 70
     0
1001
ACDBATTR
1070
     0
1070
     1
  0
ATTDEF
  5
3931
  8
DEFPOINTS
 10
4843.5015033367699289
 20
221.8531912548857008
 30
0.0
 40
0.001
  1
BEZEL
  3

  2
TRADENAME
 70
     0
1001
ACDBATTR
1070
     0
1070
     1
  0
ATTDEF
  5
3932
  8
DEFPOINTS
 10
4843.5015033367699289
 20
221.8515245882190925
 30
0.0
 40
0.001
  1
VALVE TRIM
  3

  2
PRODUCT
 70
     0
1001
ACDBATTR
1070
     0
1070
     1
  0
LINE
  5
DDE5
  8
0
 10
4841.2209649859541969
 20
218.1509703408493976
 30
0.0
 11
4841.2209649859541969
 21
225.5525451440493896
 31
0.0
  0
LINE
  5
DDE6
  8
0
 10
4841.4571854583527966
 20
217.9147498684494053
 30
0.0
 11
4845.5516736473537094
 21
217.9147498684494053
 31
0.0
  0
LINE
  5
DDE7
  8
0
 10
4845.7878941197532185
 20
218.1509703408493976
 30
0.0
 11
4845.7878941197532185
 21
225.5525451440493896
 31
0.0
  0
LINE
  5
DDE8
  8
0
 10
4845.5516736473537094
 20
225.7887656164494103
 30
0.0
 11
4841.4571854583527966
 21
225.7887656164494103
 31
0.0
  0
LINE
  5
DDE9
  8
0
 10
4841.4571854583527966
 20
217.9147498684494053
 30
0.0
 11
4841.2209649859541969
 21
218.1509703408493976
 31
0.0
  0
LINE
  5
DDEA
  8
0
 10
4845.5516736473537094
 20
217.9147498684494053
 30
0.0
 11
4845.7878941197532185
 21
218.1509703408493976
 31
0.0
  0
LINE
  5
DDEB
  8
0
 10
4845.5516736473537094
 20
225.7887656164494103
 30
0.0
 11
4845.7878941197532185
 21
225.5525451440493896
 31
0.0
  0
LINE
  5
DDEC
  8
0
 10
4841.2209649859541969
 20
225.5525451440493896
 30
0.0
 11
4841.4571854583527966
 21
225.7887656164494103
 31
0.0
  0
LINE
  5
DDED
  8
0
 10
4841.3981303402542835
 20
225.479160851549409
 30
0.0
 11
4841.3981303402542835
 21
218.2243546333494066
 31
0.0
  0
LINE
  5
DDEE
  8
0
 10
4845.6107287654531319
 20
225.479160851549409
 30
0.0
 11
4845.6107287654531319
 21
218.2243546333494066
 31
0.0
  0
LINE
  5
DDEF
  8
0
 10
4841.5305697508529192
 20
218.0919152227494067
 30
0.0
 11
4845.4782893548535867
 21
218.0919152227494067
 31
0.0
  0
LINE
  5
DDF0
  8
0
 10
4845.4782893548535867
 20
225.611600262149409
 30
0.0
 11
4841.5305697508529192
 21
225.611600262149409
 31
0.0
  0
LINE
  5
DDF1
  8
0
 10
4845.4782893548535867
 20
225.611600262149409
 30
0.0
 11
4845.6107287654531319
 21
225.479160851549409
 31
0.0
  0
LINE
  5
DDF2
  8
0
 10
4841.3981303402542835
 20
225.479160851549409
 30
0.0
 11
4841.5305697508529192
 21
225.611600262149409
 31
0.0
  0
LINE
  5
DDF3
  8
0
 10
4841.3981303402542835
 20
218.2243546333494066
 30
0.0
 11
4841.5305697508529192
 21
218.0919152227494067
 31
0.0
  0
LINE
  5
DDF4
  8
0
 10
4845.4782893548535867
 20
218.0919152227494067
 30
0.0
 11
4845.6107287654531319
 21
218.2243546333494066
 31
0.0
  0
LINE
  5
DDF5
  8
0
 10
4841.2209649859541969
 20
225.5525451440493896
 30
0.0
 11
4841.3981303401824334
 21
225.4791608514786105
 31
0.0
  0
LINE
  5
DDF6
  8
0
 10
4841.4571854583527966
 20
225.7887656164494103
 30
0.0
 11
4841.5305697509529637
 21
225.611600262149409
 31
0.0
  0
LINE
  5
DDF7
  8
0
 10
4841.2209649859541969
 20
218.1509703408493976
 30
0.0
 11
4841.3981303402542835
 21
218.2243546334493942
 31
0.0
  0
LINE
  5
DDF8
  8
0
 10
4841.4571854583527966
 20
217.9147498684494053
 30
0.0
 11
4841.5305697509238598
 21
218.0919152226786935
 31
0.0
  0
LINE
  5
DDF9
  8
0
 10
4845.7878941198541725
 20
225.5525451440493896
 30
0.0
 11
4845.6107287656241169
 21
225.4791608514786105
 31
0.0
  0
LINE
  5
DDFA
  8
0
 10
4845.5516736474519348
 20
225.7887656164494103
 30
0.0
 11
4845.4782893548535867
 21
225.611600262149409
 31
0.0
  0
LINE
  5
DDFB
  8
0
 10
4845.7878941198541725
 20
218.1509703408493976
 30
0.0
 11
4845.6107287655531763
 21
218.2243546334493942
 31
0.0
  0
LINE
  5
DDFC
  8
0
 10
4845.5516736474519348
 20
217.9147498684494053
 30
0.0
 11
4845.4782893548826905
 21
218.0919152226786935
 31
0.0
  0
LINE
  5
DDFD
  8
0
 10
4842.8823823087532219
 20
224.3029507754494034
 30
0.0
 11
4842.8823823087532219
 21
223.3375725834494006
 31
0.0
  0
LINE
  5
DDFE
  8
0
 10
4844.1264767969541936
 20
224.3029507754494034
 30
0.0
 11
4844.1264767969541936
 21
223.3375725834494006
 31
0.0
  0
LINE
  5
DDFF
  8
0
 10
4843.0217404568529673
 20
223.1982144353493993
 30
0.0
 11
4843.9871186488544481
 21
223.1982144353493993
 31
0.0
  0
LINE
  5
DE00
  8
0
 10
4843.9871186488544481
 20
224.4423089235494047
 30
0.0
 11
4843.0217404568529673
 21
224.4423089235494047
 31
0.0
  0
LINE
  5
DE01
  8
0
 10
4843.9871186488544481
 20
224.4423089235494047
 30
0.0
 11
4844.1264767969541936
 21
224.3029507754494034
 31
0.0
  0
LINE
  5
DE02
  8
0
 10
4842.8823823087532219
 20
224.3029507754494034
 30
0.0
 11
4843.0217404568529673
 21
224.4423089235494047
 31
0.0
  0
LINE
  5
DE03
  8
0
 10
4842.8823823087532219
 20
223.3375725834494006
 30
0.0
 11
4843.0217404568529673
 21
223.1982144353493993
 31
0.0
  0
LINE
  5
DE04
  8
0
 10
4844.1264767969541936
 20
223.3375725834494006
 30
0.0
 11
4843.9871186488544481
 21
223.1982144353493993
 31
0.0
  0
LINE
  5
DE05
  8
0
 10
4844.2918311276525856
 20
224.3714427818493959
 30
0.0
 11
4844.2918311276525856
 21
223.269080577049408
 31
0.0
  0
LINE
  5
DE06
  8
0
 10
4842.7170279780539204
 20
224.3714427818493959
 30
0.0
 11
4842.7170279780539204
 21
223.269080577049408
 31
0.0
  0
LINE
  5
DE07
  8
0
 10
4842.9532484504534295
 20
223.0328601046493873
 30
0.0
 11
4844.0556106552530764
 21
223.0328601046493873
 31
0.0
  0
LINE
  5
DE08
  8
0
 10
4844.0556106552530764
 20
224.6076632542493883
 30
0.0
 11
4842.9532484504534295
 21
224.6076632542493883
 31
0.0
  0
LINE
  5
DE09
  8
0
 10
4844.0556106552530764
 20
224.6076632542493883
 30
0.0
 11
4844.2918311276525856
 21
224.3714427818493959
 31
0.0
  0
LINE
  5
DE0A
  8
0
 10
4842.7170279780539204
 20
224.3714427818493959
 30
0.0
 11
4842.9532484504534295
 21
224.6076632542493883
 31
0.0
  0
LINE
  5
DE0B
  8
0
 10
4842.9532484504534295
 20
223.0328601046493873
 30
0.0
 11
4842.7170279780539204
 21
223.269080577049408
 31
0.0
  0
LINE
  5
DE0C
  8
0
 10
4844.0556106552530764
 20
223.0328601046493873
 30
0.0
 11
4844.2918311276525856
 21
223.269080577049408
 31
0.0
  0
LINE
  5
DE0D
  8
0
 10
4843.9871186488544481
 20
224.4423089235494047
 30
0.0
 11
4844.0556106552530764
 21
224.6076632542493883
 31
0.0
  0
LINE
  5
DE0E
  8
0
 10
4844.1264767969541936
 20
224.3029507754494034
 30
0.0
 11
4844.2918311276525856
 21
224.3714427818493959
 31
0.0
  0
LINE
  5
DE0F
  8
0
 10
4843.9871186488544481
 20
223.1982144353493993
 30
0.0
 11
4844.0556106552530764
 21
223.0328601046493873
 31
0.0
  0
LINE
  5
DE10
  8
0
 10
4844.1264767969541936
 20
223.3375725834494006
 30
0.0
 11
4844.2918311276525856
 21
223.269080577049408
 31
0.0
  0
LINE
  5
DE11
  8
0
 10
4843.0217404569530117
 20
224.4423089235494047
 30
0.0
 11
4842.9532484505525645
 21
224.6076632542493883
 31
0.0
  0
LINE
  5
DE12
  8
0
 10
4842.8823823088541758
 20
224.3029507754494034
 30
0.0
 11
4842.7170279781530553
 21
224.3714427818493959
 31
0.0
  0
LINE
  5
DE13
  8
0
 10
4843.0217404569530117
 20
223.1982144353493993
 30
0.0
 11
4842.9532484505525645
 21
223.0328601046493873
 31
0.0
  0
LINE
  5
DE14
  8
0
 10
4842.8823823088541758
 20
223.3375725834494006
 30
0.0
 11
4842.7170279781530553
 21
223.269080577049408
 31
0.0
  0
LINE
  5
DE15
  8
0
 10
4844.0426804534536132
 20
224.6273482936493906
 30
0.0
 11
4842.9661786522528928
 21
224.6273482936493906
 31
0.0
  0
LINE
  5
DE16
  8
0
 10
4842.6973429386525822
 20
224.358564299853299
 30
0.0
 11
4842.6973429386525822
 21
223.2819590590457892
 31
0.0
  0
LINE
  5
DE17
  8
0
 10
4842.9661786522528928
 20
223.0131750652494134
 30
0.0
 11
4844.0426804534536132
 21
223.0131750652494134
 31
0.0
  0
LINE
  5
DE18
  8
0
 10
4844.3115161670530142
 20
224.3585125800493927
 30
0.0
 11
4844.3115161670530142
 21
223.2820107788124915
 31
0.0
  0
ARC
  5
DE19
  8
0
 10
4842.7760206647271843
 20
224.3585384399528095
 30
0.0
 40
0.0786777303240805
 50
134.9811678953695946
 51
180.018832054169593
  0
ARC
  5
DE1A
  8
0
 10
4844.0426804534536132
 20
223.0919152227494067
 30
0.0
 40
0.0787401575000004
 50
270.0000000022927793
 51
315.0000000000046043
  0
ARC
  5
DE1B
  8
0
 10
4844.2327760097386999
 20
223.2820107788124915
 30
0.0
 40
0.078740157314714
 50
314.9999999236451913
 51
0.0000000268188442
  0
LINE
  5
DE1C
  8
0
 10
4844.2884537089194055
 20
223.2263330796552054
 30
0.0
 11
4844.0983581527852948
 21
223.0362375234410877
 31
0.0
  0
ARC
  5
DE1D
  8
0
 10
4842.9661786522174225
 20
224.5486081363347068
 30
0.0
 40
0.078740157314706
 50
89.9999999754560918
 51
135.0000000763664048
  0
LINE
  5
DE1E
  8
0
 10
4842.9105009530021562
 20
224.604285835537695
 30
0.0
 11
4842.7203688253202927
 21
224.4141537078162969
 31
0.0
  0
ARC
  5
DE1F
  8
0
 10
4844.0426804534899929
 20
224.5486081363347068
 30
0.0
 40
0.0787401573147001
 50
44.9999999236324371
 51
89.9999272611846521
  0
ARC
  5
DE20
  8
0
 10
4844.2327760097386999
 20
224.3585125800863125
 30
0.0
 40
0.0787401573147069
 50
359.9999999731811045
 51
45.0000000763560379
  0
LINE
  5
DE21
  8
0
 10
4844.0983581528053037
 20
224.604285835537695
 30
0.0
 11
4844.2884902804871672
 21
224.4141537078162969
 31
0.0
  0
ARC
  5
DE22
  8
0
 10
4842.7760206647271843
 20
223.2819849189459944
 30
0.0
 40
0.0786777303240805
 50
179.9811679458302933
 51
225.0188321046302917
  0
ARC
  5
DE23
  8
0
 10
4842.9661786522174225
 20
223.0919152225640971
 30
0.0
 40
0.078740157314706
 50
224.9999999236335952
 51
270.0000000245439082
  0
LINE
  5
DE24
  8
0
 10
4842.9105009530021562
 20
223.0362375233609953
 30
0.0
 11
4842.7203688253202927
 21
223.2263696510825071
 31
0.0
  0
ARC
  5
DE25
  8
0
 10
4844.1697838835543735
 20
223.1549073487493899
 30
0.0
 40
0.0295275591000012
 50
235.8688649215359021
 51
34.1311350784539371
  0
LINE
  5
DE26
  8
0
 10
4842.6973429386525822
 20
220.4215047060494044
 30
0.0
 11
4842.6973429386525822
 21
219.3450029048493946
 31
0.0
  0
LINE
  5
DE27
  8
0
 10
4842.7170279780539204
 20
220.4344349078494076
 30
0.0
 11
4842.7170279780539204
 21
219.3320727030493913
 31
0.0
  0
LINE
  5
DE28
  8
0
 10
4842.9661786522528928
 20
219.0761671912493966
 30
0.0
 11
4844.0426804534536132
 21
219.0761671912493966
 31
0.0
  0
LINE
  5
DE29
  8
0
 10
4844.0556106552530764
 20
219.095852230649399
 30
0.0
 11
4842.9532484505525645
 21
219.095852230649399
 31
0.0
  0
ARC
  5
DE2A
  8
0
 10
4842.9661786522528928
 20
220.611600262149409
 30
0.0
 40
0.0787401575000038
 50
90.0000000022928504
 51
135.0000000023835867
  0
ARC
  5
DE2B
  8
0
 10
4842.7760830961533429
 20
220.4215047060494044
 30
0.0
 40
0.0787401575000004
 50
134.9999999994967936
 51
179.9999999990994013
  0
LINE
  5
DE2C
  8
0
 10
4842.9105009529848758
 20
220.6672779614411013
 30
0.0
 11
4842.7204053968453081
 21
220.477182405381086
 31
0.0
  0
ARC
  5
DE2D
  8
0
 10
4844.0426804535536576
 20
220.611600262149409
 30
0.0
 40
0.0787401575000038
 50
44.9999999976164275
 51
89.9999999977071354
  0
ARC
  5
DE2E
  8
0
 10
4844.2327760096532074
 20
220.4215047060494044
 30
0.0
 40
0.0787401575000004
 50
0.0000000009005295
 51
45.0000000005031922
  0
LINE
  5
DE2F
  8
0
 10
4844.0983581528207651
 20
220.6672779614411013
 30
0.0
 11
4844.2884537089612422
 21
220.477182405381086
 31
0.0
  0
ARC
  5
DE30
  8
0
 10
4842.9661786522528928
 20
219.1549073487493899
 30
0.0
 40
0.0787401575000038
 50
224.9999999976164133
 51
269.9999999977072207
  0
ARC
  5
DE31
  8
0
 10
4842.7760830961533429
 20
219.3450029048493946
 30
0.0
 40
0.0787401575000004
 50
180.0000000009005134
 51
225.0000000005032064
  0
LINE
  5
DE32
  8
0
 10
4842.9105009529848758
 20
219.0992296494576124
 30
0.0
 11
4842.7204053968453081
 21
219.2893252055177982
 31
0.0
  0
ARC
  5
DE33
  8
0
 10
4844.0426804535536576
 20
219.1549073487493899
 30
0.0
 40
0.0787401575000038
 50
270.0000000022927793
 51
315.0000000023835014
  0
ARC
  5
DE34
  8
0
 10
4844.2327760096532074
 20
219.3450029048493946
 30
0.0
 40
0.0787401575000004
 50
314.9999999994968221
 51
359.9999999990994866
  0
LINE
  5
DE35
  8
0
 10
4844.0983581528207651
 20
219.0992296494576124
 30
0.0
 11
4844.2884537089612422
 21
219.2893252055177982
 31
0.0
  0
LINE
  5
DE36
  8
0
 10
4844.3115161671521491
 20
219.3450029048493946
 30
0.0
 11
4844.3115161671521491
 21
220.4215047060494044
 31
0.0
  0
LINE
  5
DE37
  8
0
 10
4842.9661786522501643
 20
220.6903404196494023
 30
0.0
 11
4843.3666342772530697
 21
220.6903404196494023
 31
0.0
  0
LINE
  5
DE38
  8
0
 10
4844.0426785365561955
 20
220.6903404196494023
 30
0.0
 11
4843.6422229115541995
 21
220.6903404196494023
 31
0.0
  0
LINE
  5
DE39
  8
0
 10
4842.8823823087532219
 20
219.4005647094494122
 30
0.0
 11
4842.8823823087532219
 21
220.3659429014493867
 31
0.0
  0
LINE
  5
DE3A
  8
0
 10
4843.0217404568529673
 20
219.261206561349411
 30
0.0
 11
4843.9871186488544481
 21
219.261206561349411
 31
0.0
  0
LINE
  5
DE3B
  8
0
 10
4842.8823823087532219
 20
219.4005647094494122
 30
0.0
 11
4843.0217404568529673
 21
219.261206561349411
 31
0.0
  0
LINE
  5
DE3C
  8
0
 10
4843.0217404568529673
 20
220.5053010495493879
 30
0.0
 11
4843.9871186488544481
 21
220.5053010495493879
 31
0.0
  0
LINE
  5
DE3D
  8
0
 10
4842.8823823087532219
 20
220.3659429014493867
 30
0.0
 11
4843.0217404568529673
 21
220.5053010495493879
 31
0.0
  0
LINE
  5
DE3E
  8
0
 10
4842.7170279780893907
 20
220.4344349078347136
 30
0.0
 11
4842.9532484505043612
 21
220.6706553802494
 31
0.0
  0
LINE
  5
DE3F
  8
0
 10
4844.1264767969541936
 20
219.4005647094494122
 30
0.0
 11
4844.1264767969541936
 21
220.3659429014493867
 31
0.0
  0
LINE
  5
DE40
  8
0
 10
4844.1264767969541936
 20
219.4005647094494122
 30
0.0
 11
4843.9871186488544481
 21
219.261206561349411
 31
0.0
  0
LINE
  5
DE41
  8
0
 10
4844.1264767969541936
 20
220.3659429014493867
 30
0.0
 11
4843.9871186488544481
 21
220.5053010495493879
 31
0.0
  0
LINE
  5
DE42
  8
0
 10
4842.9532484505043612
 20
220.6706553802494
 30
0.0
 11
4844.0556106552530764
 21
220.6706553802494
 31
0.0
  0
LINE
  5
DE43
  8
0
 10
4844.126476797054238
 20
220.3659429014493867
 30
0.0
 11
4843.987118648953583
 21
220.5053010495493879
 31
0.0
  0
LINE
  5
DE44
  8
0
 10
4844.2918311277180692
 20
220.4344349078347136
 30
0.0
 11
4844.0556106553030986
 21
220.6706553802494
 31
0.0
  0
LINE
  5
DE45
  8
0
 10
4842.7170279780893907
 20
219.3320727030640001
 30
0.0
 11
4842.9532484505043612
 21
219.095852230649399
 31
0.0
  0
LINE
  5
DE46
  8
0
 10
4844.2918311277180692
 20
220.4344349078762093
 30
0.0
 11
4844.2918311277180692
 21
219.3320727030640001
 31
0.0
  0
LINE
  5
DE47
  8
0
 10
4842.8823823087532219
 20
220.3659429014493867
 30
0.0
 11
4842.7170279780539204
 21
220.4344349078494076
 31
0.0
  0
LINE
  5
DE48
  8
0
 10
4843.0217404568529673
 20
220.5053010495493879
 30
0.0
 11
4842.9532484505525645
 21
220.6706553802494
 31
0.0
  0
LINE
  5
DE49
  8
0
 10
4844.126476797054238
 20
220.3659429014493867
 30
0.0
 11
4844.291831127754449
 21
220.4344349078494076
 31
0.0
  0
LINE
  5
DE4A
  8
0
 10
4843.987118648953583
 20
220.5053010495493879
 30
0.0
 11
4844.0556106552530764
 21
220.6706553802494
 31
0.0
  0
LINE
  5
DE4B
  8
0
 10
4842.8823823087532219
 20
219.4005647094494122
 30
0.0
 11
4842.7170279780539204
 21
219.3320727030493913
 31
0.0
  0
LINE
  5
DE4C
  8
0
 10
4843.0217404568529673
 20
219.261206561349411
 30
0.0
 11
4842.9532484505525645
 21
219.095852230649399
 31
0.0
  0
LINE
  5
DE4D
  8
0
 10
4844.126476797054238
 20
219.4005647094494122
 30
0.0
 11
4844.291831127754449
 21
219.3320727030493913
 31
0.0
  0
LINE
  5
DE4E
  8
0
 10
4843.987118648953583
 20
219.261206561349411
 30
0.0
 11
4844.0556106552530764
 21
219.095852230649399
 31
0.0
  0
LINE
  5
DE4F
  8
0
 10
4844.2918311277180692
 20
219.3320727030640001
 30
0.0
 11
4844.0556106553030986
 21
219.095852230649399
 31
0.0
  0
LINE
  5
DE50
  8
0
 10
4843.3666342772530697
 20
220.6706553802494
 30
0.0
 11
4843.3666342773531142
 21
220.7651435692494033
 31
0.0
  0
LINE
  5
DE51
  8
0
 10
4843.6422248284534362
 20
220.6706553802494
 30
0.0
 11
4843.6422248284534362
 21
220.7651435692494033
 31
0.0
  0
LINE
  5
DE52
  8
0
 10
4843.4060043560530175
 20
220.804513647949392
 30
0.0
 11
4843.6028547497544423
 21
220.804513647949392
 31
0.0
  0
ARC
  5
DE53
  8
0
 10
4843.4060043560530175
 20
220.7651435692494033
 30
0.0
 40
0.0393700786999993
 50
90.0
 51
180.0000000000015916
  0
ARC
  5
DE54
  8
0
 10
4843.6028547497044201
 20
220.7651435692494033
 30
0.0
 40
0.0393700786999993
 50
359.9999999999984084
 51
90.0
  0
LINE
  5
DE55
  8
0
 10
4843.3666342773531142
 20
220.7651435692494033
 30
0.0
 11
4843.642224828403414
 21
220.7651435692494033
 31
0.0
  0
ARC
  5
DE56
  8
0
 10
4844.1697838835543735
 20
220.5486081361493973
 30
0.0
 40
0.0295275590999994
 50
325.868864991396606
 51
124.1314305701145031
  0
ENDSEC
  0
EOF
