  0
SECTION
  2
HEADER
  9
$ACADVER
  1
AC1009
  9
$INSBASE
 10
69.1390813646674758
 20
64.4279491447193209
 30
0.0
  9
$EXTMIN
 10
65.1134276957710938
 20
60.486844243102297
 30
-0.0000000000000058
  9
$EXTMAX
 10
69.1547906064209315
 20
68.3680870632267386
 30
0.0000000000000104
  9
$LIMMIN
 10
0.0
 20
0.0
  9
$LIMMAX
 10
12.0
 20
9.0
  9
$ORTHOMODE
 70
     0
  9
$REGENMODE
 70
     1
  9
$FILLMODE
 70
     1
  9
$QTEXTMODE
 70
     0
  9
$MIRRTEXT
 70
     0
  9
$DRAGMODE
 70
     2
  9
$LTSCALE
 40
1.0
  9
$OSMODE
 70
  4095
  9
$ATTMODE
 70
     1
  9
$TEXTSIZE
 40
0.2
  9
$TRACEWID
 40
0.05
  9
$TEXTSTYLE
  7
STANDARD
  9
$CLAYER
  8
0
  9
$CELTYPE
  6
BYLAYER
  9
$CECOLOR
 62
   256
  9
$DIMSCALE
 40
1.0
  9
$DIMASZ
 40
0.18
  9
$DIMEXO
 40
0.0625
  9
$DIMDLI
 40
0.38
  9
$DIMRND
 40
0.0
  9
$DIMDLE
 40
0.0
  9
$DIMEXE
 40
0.18
  9
$DIMTP
 40
0.0
  9
$DIMTM
 40
0.0
  9
$DIMTXT
 40
0.18
  9
$DIMCEN
 40
0.09
  9
$DIMTSZ
 40
0.0
  9
$DIMTOL
 70
     0
  9
$DIMLIM
 70
     0
  9
$DIMTIH
 70
     1
  9
$DIMTOH
 70
     1
  9
$DIMSE1
 70
     0
  9
$DIMSE2
 70
     0
  9
$DIMTAD
 70
     0
  9
$DIMZIN
 70
     0
  9
$DIMBLK
  1

  9
$DIMASO
 70
     1
  9
$DIMSHO
 70
     1
  9
$DIMPOST
  1

  9
$DIMAPOST
  1

  9
$DIMALT
 70
     0
  9
$DIMALTD
 70
     2
  9
$DIMALTF
 40
25.3999999999999986
  9
$DIMLFAC
 40
1.0
  9
$DIMTOFL
 70
     0
  9
$DIMTVP
 40
0.0
  9
$DIMTIX
 70
     0
  9
$DIMSOXD
 70
     0
  9
$DIMSAH
 70
     0
  9
$DIMBLK1
  1

  9
$DIMBLK2
  1

  9
$DIMSTYLE
  2
STANDARD
  9
$DIMCLRD
 70
     0
  9
$DIMCLRE
 70
     0
  9
$DIMCLRT
 70
     0
  9
$DIMTFAC
 40
1.0
  9
$DIMGAP
 40
0.09
  9
$LUNITS
 70
     2
  9
$LUPREC
 70
     4
  9
$SKETCHINC
 40
0.1
  9
$FILLETRAD
 40
0.0
  9
$AUNITS
 70
     0
  9
$AUPREC
 70
     0
  9
$MENU
  1
.
  9
$ELEVATION
 40
0.0
  9
$PELEVATION
 40
0.0
  9
$THICKNESS
 40
0.0
  9
$LIMCHECK
 70
     0
  9
$BLIPMODE
 70
     0
  9
$CHAMFERA
 40
0.0
  9
$CHAMFERB
 40
0.0
  9
$SKPOLY
 70
     0
  9
$TDCREATE
 40
2460584.413391204085201
  9
$TDUPDATE
 40
2460595.4331828700378537
  9
$TDINDWG
 40
0.0320486111
  9
$TDUSRTIMER
 40
0.0320486111
  9
$USRTIMER
 70
     1
  9
$ANGBASE
 50
0.0
  9
$ANGDIR
 70
     0
  9
$PDMODE
 70
     0
  9
$PDSIZE
 40
0.0
  9
$PLINEWID
 40
0.0
  9
$COORDS
 70
     1
  9
$SPLFRAME
 70
     0
  9
$SPLINETYPE
 70
     6
  9
$SPLINESEGS
 70
     8
  9
$ATTDIA
 70
     1
  9
$ATTREQ
 70
     1
  9
$HANDLING
 70
     1
  9
$HANDSEED
  5
731
  9
$SURFTAB1
 70
     6
  9
$SURFTAB2
 70
     6
  9
$SURFTYPE
 70
     6
  9
$SURFU
 70
     6
  9
$SURFV
 70
     6
  9
$UCSNAME
  2

  9
$UCSORG
 10
0.0
 20
0.0
 30
0.0
  9
$UCSXDIR
 10
1.0
 20
0.0
 30
0.0
  9
$UCSYDIR
 10
0.0
 20
1.0
 30
0.0
  9
$PUCSNAME
  2

  9
$PUCSORG
 10
0.0
 20
0.0
 30
0.0
  9
$PUCSXDIR
 10
1.0
 20
0.0
 30
0.0
  9
$PUCSYDIR
 10
0.0
 20
1.0
 30
0.0
  9
$USERI1
 70
     0
  9
$USERI2
 70
     0
  9
$USERI3
 70
     0
  9
$USERI4
 70
     0
  9
$USERI5
 70
     0
  9
$USERR1
 40
0.0
  9
$USERR2
 40
0.0
  9
$USERR3
 40
0.0
  9
$USERR4
 40
0.0
  9
$USERR5
 40
0.0
  9
$WORLDVIEW
 70
     1
  9
$SHADEDGE
 70
     3
  9
$SHADEDIF
 70
    70
  9
$TILEMODE
 70
     1
  9
$MAXACTVP
 70
    64
  9
$PLIMCHECK
 70
     0
  9
$PEXTMIN
 10
0.0
 20
0.0
 30
0.0
  9
$PEXTMAX
 10
0.0
 20
0.0
 30
0.0
  9
$PLIMMIN
 10
0.0
 20
0.0
  9
$PLIMMAX
 10
12.0
 20
9.0
  9
$UNITMODE
 70
     0
  9
$VISRETAIN
 70
     1
  9
$PLINEGEN
 70
     0
  9
$PSLTSCALE
 70
     1
  0
ENDSEC
  0
SECTION
  2
TABLES
  0
TABLE
  2
VPORT
 70
     1
  0
VPORT
  2
*ACTIVE
 70
     0
 10
0.0
 20
0.0
 11
1.0
 21
1.0
 12
-0.279957163601253
 22
-0.00048425223099
 13
0.0
 23
0.0
 14
0.5
 24
0.5
 15
0.5
 25
0.5
 16
-0.0000000000000142
 26
0.0
 36
53.2455021553330994
 17
67.4140663146972656
 27
64.4279499053954936
 37
0.0
 40
7.9462814680107376
 41
2.558981233243967
 42
50.0
 43
0.0
 44
0.0
 50
0.0
 51
0.0
 71
     0
 72
  1000
 73
     1
 74
     3
 75
     0
 76
     1
 77
     0
 78
     0
  0
ENDTAB
  0
TABLE
  2
LTYPE
 70
     1
  0
LTYPE
  2
CONTINUOUS
 70
     0
  3
Solid line
 72
    65
 73
     0
 40
0.0
  0
ENDTAB
  0
TABLE
  2
LAYER
 70
     2
  0
LAYER
  2
0
 70
     0
 62
     7
  6
CONTINUOUS
  0
LAYER
  2
DEFPOINTS
 70
     0
 62
     7
  6
CONTINUOUS
  0
ENDTAB
  0
TABLE
  2
STYLE
 70
     1
  0
STYLE
  2
STANDARD
 70
     0
 40
0.0
 41
1.0
 50
0.0
 71
     0
 42
0.2
  3
txt
  4

  0
ENDTAB
  0
TABLE
  2
VIEW
 70
     0
  0
ENDTAB
  0
TABLE
  2
UCS
 70
     0
  0
ENDTAB
  0
TABLE
  2
APPID
 70
     8
  0
APPID
  2
ACAD
 70
     0
  0
APPID
  2
ACADANNOPO
 70
     0
  0
APPID
  2
ACADANNOTATIVE
 70
     0
  0
APPID
  2
ACAD_DSTYLE_DIMJAG
 70
     0
  0
APPID
  2
ACAD_DSTYLE_DIMTALN
 70
     0
  0
APPID
  2
ACAD_MLEADERVER
 70
     0
  0
APPID
  2
ACAD_NAV_VCDISPLAY
 70
     0
  0
APPID
  2
ACDBATTR
 70
     0
  0
ENDTAB
  0
TABLE
  2
DIMSTYLE
 70
     1
  0
DIMSTYLE
  2
STANDARD
 70
     0
  3

  4

  5

  6

  7

 40
1.0
 41
0.18
 42
0.0625
 43
0.38
 44
0.18
 45
0.0
 46
0.0
 47
0.0
 48
0.0
140
0.18
141
0.09
142
0.0
143
25.3999999999999986
144
1.0
145
0.0
146
1.0
147
0.09
 71
     0
 72
     0
 73
     1
 74
     1
 75
     0
 76
     0
 77
     0
 78
     0
170
     0
171
     2
172
     0
173
     0
174
     0
175
     0
176
     0
177
     0
178
     0
  0
ENDTAB
  0
ENDSEC
  0
SECTION
  2
BLOCKS
  0
BLOCK
  8
0
  2
$MODEL_SPACE
 70
     0
 10
0.0
 20
0.0
 30
0.0
  3
$MODEL_SPACE
  1

  0
ENDBLK
  5
21
  8
0
  0
BLOCK
 67
     1
  8
0
  2
$PAPER_SPACE
 70
     0
 10
0.0
 20
0.0
 30
0.0
  3
$PAPER_SPACE
  1

  0
ENDBLK
  5
5B
 67
     1
  8
0
  0
BLOCK
  8
0
  2
_FILLED
 70
     0
 10
0.0
 20
0.0
 30
0.0
  3
_FILLED
  1

  0
SOLID
  5
5AC
  8
0
  6
BYBLOCK
 62
     0
 10
0.0
 20
0.0
 30
0.0
 11
-1.0
 21
0.1666666667
 31
0.0
 12
-1.0
 22
-0.1666666667
 32
0.0
 13
-1.0
 23
-0.1666666667
 33
0.0
  0
ENDBLK
  5
5AD
  8
0
  6
BYBLOCK
 62
     0
  0
ENDSEC
  0
SECTION
  2
ENTITIES
  0
ATTDEF
  5
346
  8
DEFPOINTS
 10
69.1393237632398296
 20
64.4282489509628533
 30
0.0
 40
0.001
  1
P33365-00
  3

  2
MODELNUMBER
 70
     0
1001
ACDBATTR
1070
     0
1070
     1
  0
ATTDEF
  5
347
  8
DEFPOINTS
 10
69.1393237632398296
 20
64.4265822842962024
 30
0.0
 40
0.001
  1
BEZEL
  3

  2
TRADENAME
 70
     0
1001
ACDBATTR
1070
     0
1070
     1
  0
ATTDEF
  5
348
  8
DEFPOINTS
 10
69.1393237632398296
 20
64.424915617629523
 30
0.0
 40
0.001
  1
VALVE TRIM
  3

  2
PRODUCT
 70
     0
1001
ACDBATTR
1070
     0
1070
     1
  0
LINE
  5
610
  8
0
 10
65.2808136481674666
 20
67.1838546565193298
 30
0.0
 11
65.2808136481674666
 21
65.6090515069193287
 31
0.0
  0
LINE
  5
611
  8
0
 10
65.1154593174674687
 20
67.0185003258193319
 30
0.0
 11
65.1154593174674687
 21
65.7744058376193266
 31
0.0
  0
LINE
  5
612
  8
0
 10
65.2808136481674666
 20
67.1838546565193298
 30
0.0
 11
65.1154593174674687
 21
67.0185003258193319
 31
0.0
  0
LINE
  5
613
  8
0
 10
65.2808136481674666
 20
66.9476341840193214
 30
0.0
 11
65.1154593174674687
 21
66.8791421777193307
 31
0.0
  0
LINE
  5
614
  8
0
 10
65.2808136481674666
 20
65.6090515069193287
 30
0.0
 11
65.1154593174674687
 21
65.7744058376193266
 31
0.0
  0
LINE
  5
615
  8
0
 10
65.2808136481674666
 20
65.8452719794193229
 30
0.0
 11
65.1154593174674687
 21
65.9137639857193278
 31
0.0
  0
LINE
  5
616
  8
0
 10
65.3910498686674657
 20
63.2468467825193272
 30
0.0
 11
65.3910498686674657
 21
61.6720436329193333
 31
0.0
  0
LINE
  5
617
  8
0
 10
65.2256955379674537
 20
63.0814924518193294
 30
0.0
 11
65.2256955379674537
 21
61.837397963619317
 31
0.0
  0
LINE
  5
618
  8
0
 10
65.3910498686674657
 20
63.2468467825193272
 30
0.0
 11
65.2256955379674537
 21
63.0814924518193294
 31
0.0
  0
LINE
  5
619
  8
0
 10
65.3910498686674657
 20
63.0106263100193331
 30
0.0
 11
65.2256955379674537
 21
62.9421343037193211
 31
0.0
  0
LINE
  5
61A
  8
0
 10
65.3910498686674657
 20
61.6720436329193333
 30
0.0
 11
65.2256955379674537
 21
61.837397963619317
 31
0.0
  0
LINE
  5
61B
  8
0
 10
65.3910498686674657
 20
61.9082641054193274
 30
0.0
 11
65.2256955379674537
 21
61.9767561117193182
 31
0.0
  0
LINE
  5
61C
  8
0
 10
65.2808136481674666
 20
67.1838546565193298
 30
0.0
 11
67.2611286087674785
 21
67.1838546565193298
 31
0.0
  0
LINE
  5
61D
  8
0
 10
67.3044356953674736
 20
67.1838546565193298
 30
0.0
 11
68.7060104985674656
 21
67.1838546565193298
 31
0.0
  0
LINE
  5
61E
  8
0
 10
65.2808136481674666
 20
66.9476341841193232
 30
0.0
 11
67.2611286087674785
 21
66.9476341841193232
 31
0.0
  0
LINE
  5
61F
  8
0
 10
67.3044356953674736
 20
66.9476341841193232
 30
0.0
 11
68.7060104985674656
 21
66.9476341841193232
 31
0.0
  0
LINE
  5
620
  8
0
 10
67.3044356953674736
 20
67.1838546565193298
 30
0.0
 11
67.3044356953674736
 21
65.6090515069193287
 31
0.0
  0
LINE
  5
621
  8
0
 10
67.2611286087674642
 20
67.1838546565193298
 30
0.0
 11
67.2611286087674642
 21
65.6090515069193287
 31
0.0
  0
LINE
  5
622
  8
0
 10
67.2808136481674666
 20
67.1247995384193246
 30
0.0
 11
67.2808136481674666
 21
65.6681066250193339
 31
0.0
  0
LINE
  5
623
  8
0
 10
67.3044356953674736
 20
66.8590515069193287
 30
0.0
 11
67.2808136481674666
 21
66.8590515069193287
 31
0.0
  0
LINE
  5
624
  8
0
 10
67.2808136481674666
 20
65.6681066250193339
 30
0.0
 11
67.2611286087674642
 21
65.6681066250193339
 31
0.0
  0
LINE
  5
625
  8
0
 10
67.3044356953674736
 20
65.9338546565193298
 30
0.0
 11
67.2808136481674666
 21
65.9338546565193298
 31
0.0
  0
LINE
  5
626
  8
0
 10
67.2808136481674666
 20
67.1247995384193246
 30
0.0
 11
67.2611286087674642
 21
67.1247995384193246
 31
0.0
  0
LINE
  5
627
  8
0
 10
65.2808136481674666
 20
65.6090515069193287
 30
0.0
 11
67.2611286087674785
 21
65.6090515069193287
 31
0.0
  0
LINE
  5
628
  8
0
 10
67.3044356953674736
 20
65.6090515069193287
 30
0.0
 11
68.7060104985674656
 21
65.6090515069193287
 31
0.0
  0
LINE
  5
629
  8
0
 10
65.2808136481674666
 20
65.8452719793193211
 30
0.0
 11
67.2611286087674785
 21
65.8452719793193211
 31
0.0
  0
LINE
  5
62A
  8
0
 10
67.3044356953674736
 20
65.8452719793193211
 30
0.0
 11
68.7060104985674656
 21
65.8452719793193211
 31
0.0
  0
LINE
  5
62B
  8
0
 10
68.7060104985674656
 20
60.6681066250193197
 30
0.0
 11
68.7060104985674656
 21
68.187791664419322
 31
0.0
  0
LINE
  5
62C
  8
0
 10
69.1390813646674758
 20
60.4909412707193184
 30
0.0
 11
69.1390813646674758
 21
68.3649570187193234
 31
0.0
  0
LINE
  5
62D
  8
0
 10
68.8831758528674669
 20
60.4909412707193184
 30
0.0
 11
68.8831758528674669
 21
68.3649570187193234
 31
0.0
  0
LINE
  5
62E
  8
0
 10
68.8831758528674669
 20
60.4909412707193184
 30
0.0
 11
69.1390813646674758
 21
60.4909412707193184
 31
0.0
  0
LINE
  5
62F
  8
0
 10
68.7060104985674656
 20
60.6681066250193197
 30
0.0
 11
68.8831758528674669
 21
60.4909412707193184
 31
0.0
  0
LINE
  5
630
  8
0
 10
68.8831758528674669
 20
60.7271617431193178
 30
0.0
 11
69.1390813646674758
 21
60.7271617431193178
 31
0.0
  0
LINE
  5
631
  8
0
 10
68.7060104985674656
 20
60.8005460357193286
 30
0.0
 11
68.8831758528674669
 21
60.7271617431193178
 31
0.0
  0
LINE
  5
632
  8
0
 10
68.8831758528674669
 20
68.3649570187193234
 30
0.0
 11
69.1390813646674758
 21
68.3649570187193234
 31
0.0
  0
LINE
  5
633
  8
0
 10
68.7060104985674656
 20
68.1877916644193363
 30
0.0
 11
68.8831758528674669
 21
68.3649570187193234
 31
0.0
  0
LINE
  5
634
  8
0
 10
68.8831758528674669
 20
68.1287365463193311
 30
0.0
 11
69.1390813646674758
 21
68.1287365463193311
 31
0.0
  0
LINE
  5
635
  8
0
 10
68.7060104985674656
 20
68.0553522537193203
 30
0.0
 11
68.8831758528674669
 21
68.1287365463193311
 31
0.0
  0
LINE
  5
636
  8
0
 10
65.3910498686674657
 20
61.6720436329193333
 30
0.0
 11
65.5997112859674729
 21
61.6720436329193333
 31
0.0
  0
LINE
  5
637
  8
0
 10
65.6193963253674752
 20
61.6720436329193333
 30
0.0
 11
67.3516797898674753
 21
61.6720436329193333
 31
0.0
  0
LINE
  5
638
  8
0
 10
67.4028608922674692
 20
61.6720436329193333
 30
0.0
 11
68.7060104985674656
 21
61.6720436329193333
 31
0.0
  0
LINE
  5
639
  8
0
 10
65.3910498686674657
 20
63.2468467825193272
 30
0.0
 11
65.5997112859674729
 21
63.2468467825193272
 31
0.0
  0
LINE
  5
63A
  8
0
 10
65.6193963253674752
 20
63.2468467825193272
 30
0.0
 11
67.3516797898674753
 21
63.2468467825193272
 31
0.0
  0
LINE
  5
63B
  8
0
 10
67.4028608922674692
 20
63.2468467825193272
 30
0.0
 11
68.7060104985674656
 21
63.2468467825193272
 31
0.0
  0
LINE
  5
63C
  8
0
 10
65.3910498686674657
 20
63.0106263101193278
 30
0.0
 11
65.5997112859674729
 21
63.0106263101193278
 31
0.0
  0
LINE
  5
63D
  8
0
 10
65.6193963253674752
 20
63.0106263101193278
 30
0.0
 11
67.3516797898674753
 21
63.0106263101193278
 31
0.0
  0
LINE
  5
63E
  8
0
 10
67.4028608922674692
 20
63.0106263101193278
 30
0.0
 11
68.7060104985674656
 21
63.0106263101193278
 31
0.0
  0
LINE
  5
640
  8
0
 10
65.5997112859674729
 20
65.8452719793193211
 30
0.0
 11
65.5997112859674729
 21
65.8452719794193229
 31
0.0
  0
LINE
  5
641
  8
0
 10
65.6193963253674752
 20
63.2468467825193272
 30
0.0
 11
65.6193963253674752
 21
61.6720436329193333
 31
0.0
  0
LINE
  5
642
  8
0
 10
65.6036482938674652
 20
61.7015711920193297
 30
0.0
 11
65.6036482938674794
 21
63.2173192235193326
 31
0.0
  0
LINE
  5
643
  8
0
 10
65.6036482938674652
 20
65.8452719793193211
 30
0.0
 11
65.6036482938674652
 21
65.8452719794193229
 31
0.0
  0
LINE
  5
644
  8
0
 10
65.6036482916952508
 20
63.2173192234193309
 30
0.0
 11
65.6154593196396831
 21
63.2173192234193309
 31
0.0
  0
LINE
  5
645
  8
0
 10
65.6154593174674687
 20
61.7015711920193297
 30
0.0
 11
65.6154593174674687
 21
63.2173192235193326
 31
0.0
  0
LINE
  5
646
  8
0
 10
65.6154593174674687
 20
65.8452719793193211
 30
0.0
 11
65.6154593174674687
 21
65.8452719794193229
 31
0.0
  0
ARC
  5
647
  8
0
 10
65.6036482916952366
 20
63.2212562291471016
 30
0.0
 40
0.0039370057277734
 50
179.999999999980389
 51
270.0000000000259774
  0
ARC
  5
648
  8
0
 10
65.6154593196396831
 20
63.213382217691553
 30
0.0
 40
0.0039370057277734
 50
0.0000000000065138
 51
89.9999999999478888
  0
LINE
  5
649
  8
0
 10
65.5997112859674729
 20
61.6720436329193333
 30
0.0
 11
65.5997112859674729
 21
63.2468467825193272
 31
0.0
  0
LINE
  5
64A
  8
0
 10
65.6036482916952508
 20
61.7015711920193297
 30
0.0
 11
65.6154593196396831
 21
61.7015711920193297
 31
0.0
  0
ARC
  5
64B
  8
0
 10
65.6036482916952366
 20
61.6976341862915518
 30
0.0
 40
0.0039370057277734
 50
89.9999999999739515
 51
180.0000000000190994
  0
ARC
  5
64C
  8
0
 10
65.6154593196396831
 20
61.7055081977471005
 30
0.0
 40
0.0039370057277734
 50
270.0000000000512728
 51
359.9999999999935199
  0
LINE
  5
64D
  8
0
 10
65.3910498686674657
 20
61.9082641053193328
 30
0.0
 11
65.5997112859674729
 21
61.9082641053193328
 31
0.0
  0
LINE
  5
64E
  8
0
 10
65.6193963253674752
 20
61.9082641053193328
 30
0.0
 11
67.3516797898674753
 21
61.9082641053193328
 31
0.0
  0
LINE
  5
64F
  8
0
 10
67.4028608922674692
 20
61.9082641053193328
 30
0.0
 11
68.7060104985674656
 21
61.9082641053193328
 31
0.0
  0
LINE
  5
650
  8
0
 10
67.3516797898674753
 20
61.6720436329193333
 30
0.0
 11
67.3516797898674753
 21
63.2468467825193272
 31
0.0
  0
LINE
  5
652
  8
0
 10
67.3516797898674753
 20
63.138579066019318
 30
0.0
 11
67.3910498686674657
 21
63.1385716478193189
 31
0.0
  0
LINE
  5
653
  8
0
 10
67.3516797898674753
 20
61.7803113494193283
 30
0.0
 11
67.3910498686674657
 21
61.7803187676193275
 31
0.0
  0
LINE
  5
654
  8
0
 10
67.3910498686674657
 20
61.7803187676193275
 30
0.0
 11
67.3910498686674799
 21
61.7803187676193275
 31
0.0
  0
ARC
  5
655
  8
0
 10
67.3910498686674799
 20
61.7921297912193168
 30
0.0
 40
0.0118110235999982
 50
270.0
 51
0.0
  0
ARC
  5
656
  8
0
 10
67.3910498686674799
 20
63.1267606242193295
 30
0.0
 40
0.0118110235999982
 50
0.0
 51
90.0
  0
LINE
  5
657
  8
0
 10
67.3910498686674657
 20
61.7803113494193283
 30
0.0
 11
67.3910498686674657
 21
63.138579066019318
 31
0.0
  0
LINE
  5
658
  8
0
 10
67.4028608922674692
 20
61.6720436329193333
 30
0.0
 11
67.4028608922674692
 21
63.2468467825193272
 31
0.0
  0
LINE
  5
659
  8
0
 10
66.1253018371674699
 20
63.2468467825193272
 30
0.0
 11
66.1253018371674699
 21
63.3413349715193235
 31
0.0
  0
ARC
  5
65A
  8
0
 10
66.1646719158674728
 20
63.3413349715193235
 30
0.0
 40
0.0393700787000007
 50
89.9999999999992042
 51
180.0
  0
LINE
  5
65C
  8
0
 10
66.6764829394674763
 20
63.2468467825193272
 30
0.0
 11
66.6764829394674763
 21
63.3413349715193235
 31
0.0
  0
ARC
  5
65D
  8
0
 10
66.6371128607674734
 20
63.3413349715193235
 30
0.0
 40
0.0393700787000007
 50
0.0
 51
90.00000000000081
  0
LINE
  5
65E
  8
0
 10
66.1646719160674763
 20
63.3807050502193192
 30
0.0
 11
66.6371128605674699
 21
63.3807050502193192
 31
0.0
  0
ENDSEC
  0
EOF
