  0
SECTION
  2
HEADER
  9
$ACADVER
  1
AC1009
  9
$INSBASE
 10
7112.9512282668856642
 20
195.5441074031309086
 30
0.0
  9
$EXTMIN
 10
7109.4472912589872067
 20
194.5500129149309032
 30
0.0
  9
$EXTMAX
 10
7112.9627850335482435
 20
196.5185168519309116
 30
0.0
  9
$LIMMIN
 10
0.0
 20
0.0
  9
$LIMMAX
 10
11.6929133858000007
 20
8.2677165353999982
  9
$ORTHOMODE
 70
     0
  9
$REGENMODE
 70
     1
  9
$FILLMODE
 70
     1
  9
$QTEXTMODE
 70
     0
  9
$MIRRTEXT
 70
     0
  9
$DRAGMODE
 70
     2
  9
$LTSCALE
 40
0.6431102362
  9
$OSMODE
 70
  4095
  9
$ATTMODE
 70
     1
  9
$TEXTSIZE
 40
0.2
  9
$TRACEWID
 40
0.05
  9
$TEXTSTYLE
  7
STANDARD
  9
$CLAYER
  8
0
  9
$CELTYPE
  6
BYLAYER
  9
$CECOLOR
 62
   256
  9
$DIMSCALE
 40
1.0
  9
$DIMASZ
 40
0.1875
  9
$DIMEXO
 40
0.0625
  9
$DIMDLI
 40
0.4443307087
  9
$DIMRND
 40
0.0
  9
$DIMDLE
 40
0.0
  9
$DIMEXE
 40
0.125
  9
$DIMTP
 40
0.01
  9
$DIMTM
 40
0.01
  9
$DIMTXT
 40
2.0
  9
$DIMCEN
 40
0.1052362205
  9
$DIMTSZ
 40
0.0
  9
$DIMTOL
 70
     1
  9
$DIMLIM
 70
     0
  9
$DIMTIH
 70
     1
  9
$DIMTOH
 70
     1
  9
$DIMSE1
 70
     0
  9
$DIMSE2
 70
     0
  9
$DIMTAD
 70
     0
  9
$DIMZIN
 70
     0
  9
$DIMBLK
  1

  9
$DIMASO
 70
     1
  9
$DIMSHO
 70
     1
  9
$DIMPOST
  1
\X
  9
$DIMAPOST
  1

  9
$DIMALT
 70
     1
  9
$DIMALTD
 70
     2
  9
$DIMALTF
 40
25.3999999999999986
  9
$DIMLFAC
 40
1.0
  9
$DIMTOFL
 70
     0
  9
$DIMTVP
 40
0.0
  9
$DIMTIX
 70
     0
  9
$DIMSOXD
 70
     0
  9
$DIMSAH
 70
     0
  9
$DIMBLK1
  1

  9
$DIMBLK2
  1

  9
$DIMSTYLE
  2
STANDARD
  9
$DIMCLRD
 70
     0
  9
$DIMCLRE
 70
     0
  9
$DIMCLRT
 70
     0
  9
$DIMTFAC
 40
1.0
  9
$DIMGAP
 40
0.09
  9
$LUNITS
 70
     2
  9
$LUPREC
 70
     4
  9
$SKETCHINC
 40
0.1
  9
$FILLETRAD
 40
0.0197
  9
$AUNITS
 70
     0
  9
$AUPREC
 70
     0
  9
$MENU
  1
.
  9
$ELEVATION
 40
0.0
  9
$PELEVATION
 40
0.0
  9
$THICKNESS
 40
0.0
  9
$LIMCHECK
 70
     0
  9
$BLIPMODE
 70
     0
  9
$CHAMFERA
 40
0.0
  9
$CHAMFERB
 40
0.0
  9
$SKPOLY
 70
     0
  9
$TDCREATE
 40
2458060.468368056230247
  9
$TDUPDATE
 40
2460604.9214004632085562
  9
$TDINDWG
 40
1.0230741898
  9
$TDUSRTIMER
 40
1.0230741898
  9
$USRTIMER
 70
     1
  9
$ANGBASE
 50
0.0
  9
$ANGDIR
 70
     0
  9
$PDMODE
 70
     0
  9
$PDSIZE
 40
0.3125
  9
$PLINEWID
 40
0.0
  9
$COORDS
 70
     2
  9
$SPLFRAME
 70
     0
  9
$SPLINETYPE
 70
     6
  9
$SPLINESEGS
 70
     8
  9
$ATTDIA
 70
     1
  9
$ATTREQ
 70
     1
  9
$HANDLING
 70
     1
  9
$HANDSEED
  5
351FA
  9
$SURFTAB1
 70
     6
  9
$SURFTAB2
 70
     6
  9
$SURFTYPE
 70
     6
  9
$SURFU
 70
     6
  9
$SURFV
 70
     6
  9
$UCSNAME
  2

  9
$UCSORG
 10
0.0
 20
0.0
 30
0.0
  9
$UCSXDIR
 10
1.0
 20
0.0
 30
0.0
  9
$UCSYDIR
 10
0.0
 20
1.0
 30
0.0
  9
$PUCSNAME
  2

  9
$PUCSORG
 10
0.0
 20
0.0
 30
0.0
  9
$PUCSXDIR
 10
1.0
 20
0.0
 30
0.0
  9
$PUCSYDIR
 10
0.0
 20
1.0
 30
0.0
  9
$USERI1
 70
     0
  9
$USERI2
 70
     0
  9
$USERI3
 70
     0
  9
$USERI4
 70
     0
  9
$USERI5
 70
     0
  9
$USERR1
 40
0.0
  9
$USERR2
 40
0.0
  9
$USERR3
 40
0.0
  9
$USERR4
 40
0.0
  9
$USERR5
 40
0.0
  9
$WORLDVIEW
 70
     1
  9
$SHADEDGE
 70
     3
  9
$SHADEDIF
 70
    70
  9
$TILEMODE
 70
     1
  9
$MAXACTVP
 70
    64
  9
$PLIMCHECK
 70
     0
  9
$PEXTMIN
 10
1.0000000000000000E+20
 20
1.0000000000000000E+20
 30
1.0000000000000000E+20
  9
$PEXTMAX
 10
-1.0000000000000000E+20
 20
-1.0000000000000000E+20
 30
-1.0000000000000000E+20
  9
$PLIMMIN
 10
0.0
 20
0.0
  9
$PLIMMAX
 10
12.0
 20
9.0
  9
$UNITMODE
 70
     0
  9
$VISRETAIN
 70
     1
  9
$PLINEGEN
 70
     0
  9
$PSLTSCALE
 70
     1
  0
ENDSEC
  0
SECTION
  2
TABLES
  0
TABLE
  2
VPORT
 70
     1
  0
VPORT
  2
*ACTIVE
 70
     0
 10
0.0
 20
0.0
 11
1.0
 21
1.0
 12
3199.8396817009552251
 22
62.9546597808918733
 13
0.0
 23
0.0
 14
1.0
 24
1.0
 15
0.0
 25
0.0
 16
0.0
 26
0.0
 36
60.4960186965801583
 17
3911.3653564453120453
 27
132.5796051025390057
 37
0.0
 40
1.982126801615919
 41
2.204387990762124
 42
50.0
 43
0.0
 44
0.0
 50
0.0
 51
0.0
 71
     0
 72
   100
 73
     1
 74
     1
 75
     0
 76
     0
 77
     0
 78
     0
  0
ENDTAB
  0
TABLE
  2
LTYPE
 70
     2
  0
LTYPE
  2
CONTINUOUS
 70
     0
  3
Solid line
 72
    65
 73
     0
 40
0.0
  0
LTYPE
  2
PHANTOM2
 70
     0
  3
___ _ _ ___ _ _ ___ _ _ ___ _ _
 72
    65
 73
     6
 40
1.25
 49
0.625
 49
-0.125
 49
0.125
 49
-0.125
 49
0.125
 49
-0.125
  0
ENDTAB
  0
TABLE
  2
LAYER
 70
     2
  0
LAYER
  2
0
 70
     0
 62
   255
  6
CONTINUOUS
  0
LAYER
  2
DEFPOINTS
 70
     0
 62
     7
  6
CONTINUOUS
  0
ENDTAB
  0
TABLE
  2
STYLE
 70
     1
  0
STYLE
  2
STANDARD
 70
     0
 40
0.0
 41
0.8
 50
0.0
 71
     0
 42
0.2
  3
txt
  4

  0
ENDTAB
  0
TABLE
  2
VIEW
 70
     0
  0
ENDTAB
  0
TABLE
  2
UCS
 70
     0
  0
ENDTAB
  0
TABLE
  2
APPID
 70
    11
  0
APPID
  2
ACAD
 70
     0
  0
APPID
  2
ACAD_MLEADERVER
 70
     0
  0
APPID
  2
ACAD_EXEMPT_FROM_CAD_STANDARDS
 70
     0
  0
APPID
  2
ACAD_NAV_VCDISPLAY
 70
     0
  0
APPID
  2
ACAECLAYERSTANDARD
 70
     0
  0
APPID
  2
ACCMTRANSPARENCY
 70
     0
  0
APPID
  2
ACAD_DSTYLE_DIMJAG
 70
     0
  0
APPID
  2
ACAD_DSTYLE_DIMTALN
 70
     0
  0
APPID
  2
ACDBATTR
 70
     0
  0
APPID
  2
ACADANNOTATIVE
 70
     0
  0
APPID
  2
DCO15
 70
     0
  0
ENDTAB
  0
TABLE
  2
DIMSTYLE
 70
     1
  0
DIMSTYLE
  2
STANDARD
 70
     0
  3

  4

  5

  6

  7

 40
1.0
 41
0.1875
 42
0.0625
 43
0.38
 44
0.125
 45
0.0
 46
0.0
 47
0.01
 48
0.01
140
0.15625
141
0.09
142
0.0
143
25.3999999999999986
144
1.0
145
0.0
146
1.0
147
0.09
 71
     1
 72
     0
 73
     1
 74
     1
 75
     0
 76
     0
 77
     0
 78
     4
170
     0
171
     2
172
     0
173
     0
174
     0
175
     0
176
     0
177
     0
178
     0
  0
ENDTAB
  0
ENDSEC
  0
SECTION
  2
BLOCKS
  0
BLOCK
  8
0
  2
$MODEL_SPACE
 70
     0
 10
0.0
 20
0.0
 30
0.0
  3
$MODEL_SPACE
  1

  0
ENDBLK
  5
21
  8
0
  0
BLOCK
 67
     1
  8
0
  2
$PAPER_SPACE
 70
     0
 10
0.0
 20
0.0
 30
0.0
  3
$PAPER_SPACE
  1

  0
ENDBLK
  5
1D
 67
     1
  8
0
  0
BLOCK
  8
0
  2
_FILLED
 70
     0
 10
0.0
 20
0.0
 30
0.0
  3
_FILLED
  1

  0
SOLID
  5
2FD5F
  8
0
  6
BYBLOCK
 62
     0
 10
0.0
 20
0.0
 30
0.0
 11
-1.0
 21
0.1666666667
 31
0.0
 12
-1.0
 22
-0.1666666667
 32
0.0
 13
-1.0
 23
-0.1666666667
 33
0.0
  0
ENDBLK
  5
2FD60
  8
0
  6
BYBLOCK
 62
     0
  0
ENDSEC
  0
SECTION
  2
ENTITIES
  0
ATTDEF
  5
26A5B
  8
DEFPOINTS
 10
7112.9521183668803133
 20
195.5469434309237045
 30
0.0
 40
0.001
  1
P33386-00
  3

  2
MODELNUMBER
 70
     0
1001
ACDBATTR
1070
     0
1070
     1
  0
ATTDEF
  5
26A5C
  8
DEFPOINTS
 10
7112.9519925572221837
 20
195.5452765905446029
 30
0.0
 40
0.001
  1

  3

  2
TRADENAME
 70
     0
1001
ACDBATTR
1070
     0
1070
     1
  0
ATTDEF
  5
26A5D
  8
DEFPOINTS
 10
7112.9521183668803133
 20
195.5436100975904026
 30
0.0
 40
0.001
  1
WALL BRACKET
  3

  2
PRODUCT
 70
     0
1001
ACDBATTR
1070
     0
1070
     1
  0
LINE
  5
34FF7
  8
0
 10
7112.9512282668856642
 20
196.5185168519309116
 30
0.0
 11
7112.9512282668856642
 21
194.5696979543309055
 31
0.0
  0
LINE
  5
34FF8
  8
0
 10
7112.7543778731869679
 20
196.5185168519309116
 30
0.0
 11
7112.7543778731869679
 21
194.5696979543309055
 31
0.0
  0
LINE
  5
34FF9
  8
0
 10
7112.7543778731869679
 20
196.5185168519309116
 30
0.0
 11
7112.9512282668856642
 21
196.5185168519309116
 31
0.0
  0
LINE
  5
34FFA
  8
0
 10
7112.7346928249862685
 20
196.1445011039309065
 30
0.0
 11
7112.7346928249862685
 21
194.9437137023309106
 31
0.0
  0
LINE
  5
34FFB
  8
0
 10
7112.7346928249862685
 20
196.1445011039309065
 30
0.0
 11
7110.5890314514099373
 21
196.1445011039309065
 31
0.0
  0
LINE
  5
34FFC
  8
0
 10
7109.5653145351316198
 20
196.1445011039309065
 30
0.0
 11
7109.4669912589879459
 21
196.1445011039309065
 31
0.0
  0
LINE
  5
34FFD
  8
0
 10
7112.7346928249862685
 20
196.1445011039309065
 30
0.0
 11
7112.7543778731869679
 21
196.124816045379589
 31
0.0
  0
LINE
  5
34FFE
  8
0
 10
7109.4472912589872067
 20
196.1248011039309063
 30
0.0
 11
7109.4472912589872067
 21
194.9634137023309108
 31
0.0
  0
ARC
  5
34FFF
  8
0
 10
7109.4669912589879459
 20
196.1248011039309063
 30
0.0
 40
0.0197
 50
90.0
 51
180.0000000000065086
  0
ARC
  5
35000
  8
0
 10
7115.3230657246076589
 20
202.7002584011048896
 30
0.0
 40
8.7203421867901003
 50
228.793225366818092
 51
229.2998158754321878
  0
ARC
  5
35001
  8
0
 10
7109.5653145351316198
 20
196.1248011039309063
 30
0.0
 40
0.0197
 50
48.7932253668191578
 51
90.0
  0
ARC
  5
35002
  8
0
 10
7111.5682556667616154
 20
198.3349173572171935
 30
0.0
 40
2.9623216067682359
 50
229.2998158754321878
 51
233.1668751895797982
  0
ARC
  5
35003
  8
0
 10
7110.4094862210440624
 20
196.787823808837004
 30
0.0
 40
1.029384702529605
 50
233.1668751895797982
 51
240.7447055706728065
  0
ARC
  5
35004
  8
0
 10
7110.1427070586887567
 20
196.3115585736155992
 30
0.0
 40
0.4834912186451482
 50
240.7447055706728065
 51
253.092414831884696
  0
ARC
  5
35005
  8
0
 10
7110.0766728355856685
 20
196.1028674412985993
 30
0.0
 40
0.2646277658324749
 50
253.6307854222727087
 51
281.3620078344773106
  0
ARC
  5
35006
  8
0
 10
7110.0376610565981537
 20
196.2545776087123954
 30
0.0
 40
0.4211332964662273
 50
282.4993659420500194
 51
299.9726614938157923
  0
ARC
  5
35007
  8
0
 10
7109.6886987962207058
 20
196.8769365007028114
 30
0.0
 40
1.134630047366058
 50
299.5369241076828075
 51
307.8095539913052221
  0
ARC
  5
35008
  8
0
 10
7108.6793442045527627
 20
198.2121092551975039
 30
0.0
 40
2.8083395867889291
 50
307.3796941406067731
 51
310.3814342166884899
  0
ARC
  5
35009
  8
0
 10
7122.8002053786767647
 20
181.9148678365243939
 30
0.0
 40
18.7556273094805483
 50
130.6738089658884974
 51
130.9862992693796002
  0
ARC
  5
3500A
  8
0
 10
7110.5890314514099373
 20
196.1248011039309063
 30
0.0
 40
0.0197
 50
90.0
 51
130.6738089658884974
  0
LINE
  5
3500B
  8
0
 10
7112.7543778731869679
 20
194.5696979543309055
 30
0.0
 11
7112.9512282668856642
 21
194.5696979543309055
 31
0.0
  0
LINE
  5
3500C
  8
0
 10
7112.7346928249862685
 20
194.9437137023309106
 30
0.0
 11
7112.3369498759293492
 21
194.9437137023309106
 31
0.0
  0
LINE
  5
3500D
  8
0
 10
7112.1324074920157727
 20
194.9437137023309106
 30
0.0
 11
7111.720899005929823
 21
194.9437137023309106
 31
0.0
  0
LINE
  5
3500E
  8
0
 10
7110.6382504412449634
 20
194.9437137023309106
 30
0.0
 11
7110.5339106877518134
 21
194.9437137023309106
 31
0.0
  0
LINE
  5
3500F
  8
0
 10
7109.6205323581198172
 20
194.9437137023309106
 30
0.0
 11
7109.4669912589879459
 21
194.9437137023309106
 31
0.0
  0
LINE
  5
35010
  8
0
 10
7112.7346928249862685
 20
194.9437137023309106
 30
0.0
 11
7112.7543778731869679
 21
194.9633987608821997
 31
0.0
  0
ARC
  5
35011
  8
0
 10
7109.4669912589879459
 20
194.9634137023309108
 30
0.0
 40
0.0197
 50
179.9999999999934914
 51
270.0
  0
ARC
  5
35012
  8
0
 10
7111.1465086077032538
 20
193.0296920460382069
 30
0.0
 40
2.4436073211243761
 50
125.5223147779483952
 51
128.2783677092106984
  0
ARC
  5
35013
  8
0
 10
7109.6205323581198172
 20
194.9634137023309108
 30
0.0
 40
0.0197
 50
270.0
 51
308.2783677092116932
  0
ARC
  5
35014
  8
0
 10
7110.5248137766611762
 20
193.9005584216367026
 30
0.0
 40
1.37360138324731
 50
118.9965748587359968
 51
125.5223147779483952
  0
ARC
  5
35015
  8
0
 10
7110.1362313906920463
 20
194.6016784451992123
 30
0.0
 40
0.5719995131603719
 50
105.1915942171610965
 51
118.9965748587359968
  0
ARC
  5
35016
  8
0
 10
7110.0768599527746119
 20
194.8203284160599082
 30
0.0
 40
0.345432133783626
 50
77.6478912243984922
 51
105.1915942171610965
  0
ARC
  5
35017
  8
0
 10
7110.0217967282178506
 20
194.6064276611255934
 30
0.0
 40
0.5662174147673883
 50
59.8820758042959369
 51
76.8351857725435252
  0
ARC
  5
35018
  8
0
 10
7109.6490027909767377
 20
193.9304755119987078
 30
0.0
 40
1.3380777580669161
 50
53.767556522338829
 51
60.5978428431446403
  0
ARC
  5
35019
  8
0
 10
7108.9033038301113265
 20
192.8922849130671011
 30
0.0
 40
2.616291878952397
 50
51.7865191919745271
 51
54.0333214228037093
  0
ARC
  5
3501A
  8
0
 10
7110.5339106877518134
 20
194.9634137023309108
 30
0.0
 40
0.0197
 50
231.7865191919744916
 51
270.0
  0
ARC
  5
3501B
  8
0
 10
7115.9795766083434501
 20
189.2491063583414075
 30
0.0
 40
7.8022609846193021
 50
131.7756668855695921
 51
133.0677592887886931
  0
ARC
  5
3501C
  8
0
 10
7110.6382504412449634
 20
194.9634137023309108
 30
0.0
 40
0.0197
 50
270.0
 51
313.0677592887910237
  0
ARC
  5
3501D
  8
0
 10
7113.1929857762952452
 20
192.3684036898060015
 30
0.0
 40
3.6195460400718731
 50
129.2911597786205107
 51
131.7756668855695921
  0
ARC
  5
3501E
  8
0
 10
7111.8138396747654042
 20
194.0539214826426075
 30
0.0
 40
1.4416998105748959
 50
123.9906737285463976
 51
129.2911597786205107
  0
ARC
  5
3501F
  8
0
 10
7111.2978221871080677
 20
194.8192175464506022
 30
0.0
 40
0.5186872901569599
 50
114.0752631656422977
 51
123.9906737285463976
  0
ARC
  5
35020
  8
0
 10
7111.1896646067943948
 20
195.0612871786449034
 30
0.0
 40
0.2535537973458363
 50
92.2806221619861162
 51
114.0752631656422977
  0
ARC
  5
35021
  8
0
 10
7106.3795728388304269
 20
189.2491063583414075
 30
0.0
 40
7.8022609846193021
 50
46.9322407112112927
 51
48.2243331144303724
  0
ARC
  5
35022
  8
0
 10
7111.720899005929823
 20
194.9634137023309108
 30
0.0
 40
0.0197
 50
226.9322407112090048
 51
270.0
  0
ARC
  5
35023
  8
0
 10
7109.1661636708786318
 20
192.3684036898060015
 30
0.0
 40
3.6195460400718731
 50
48.2243331144303724
 51
50.708840221379532
  0
ARC
  5
35024
  8
0
 10
7110.5453097724075633
 20
194.0539214826426075
 30
0.0
 40
1.4416998105748959
 50
50.708840221379532
 51
56.0093262714535598
  0
ARC
  5
35025
  8
0
 10
7111.0613272600658092
 20
194.8192175464506022
 30
0.0
 40
0.5186872901569599
 50
56.0093262714535598
 51
65.9247368343577023
  0
ARC
  5
35026
  8
0
 10
7111.1694848403803917
 20
195.0612871786449034
 30
0.0
 40
0.2535537973458363
 50
65.9247368343577023
 51
87.7193778380138838
  0
LINE
  5
35027
  8
0
 10
7110.7268188180860307
 20
194.9338711747309105
 30
0.0
 11
7110.7268188180860307
 21
195.0183187889082888
 31
0.0
  0
LINE
  5
35028
  8
0
 10
7110.7366612594059916
 20
194.9240286629309082
 30
0.0
 11
7111.6224881877669759
 21
194.9240286629309082
 31
0.0
  0
LINE
  5
35029
  8
0
 10
7110.7268188180860307
 20
194.9338711747309105
 30
0.0
 11
7111.6323306290860273
 21
194.9338711747309105
 31
0.0
  0
LINE
  5
3502A
  8
0
 10
7110.7268188180860307
 20
194.9338711747309105
 30
0.0
 11
7110.7366612594059916
 21
194.9240286629309082
 31
0.0
  0
LINE
  5
3502B
  8
0
 10
7110.7595747235482122
 20
194.9240286629309082
 30
0.0
 11
7110.7612172503750116
 21
194.8711749683891981
 31
0.0
  0
LINE
  5
3502C
  8
0
 10
7110.7630259866600682
 20
194.8129729387931945
 30
0.0
 11
7110.7634369453890031
 21
194.7997489920956866
 31
0.0
  0
LINE
  5
3502D
  8
0
 10
7110.7652458740476504
 20
194.7415407721935026
 30
0.0
 11
7110.7656567413132507
 21
194.728319768717995
 31
0.0
  0
LINE
  5
3502E
  8
0
 10
7110.7674657517063679
 20
194.6701089187070011
 30
0.0
 11
7110.7678772245881191
 21
194.6568684275366081
 31
0.0
  0
LINE
  5
3502F
  8
0
 10
7110.7696851101063658
 20
194.598693774083614
 30
0.0
 11
7110.7700843928078029
 21
194.5858455419279949
 31
0.0
  0
LINE
  5
35030
  8
0
 10
7111.6323306290860273
 20
194.9338711747309105
 30
0.0
 11
7111.6323306290860273
 21
195.0183187889082888
 31
0.0
  0
LINE
  5
35031
  8
0
 10
7111.6323306290860273
 20
194.9338711747309105
 30
0.0
 11
7111.6224881877669759
 21
194.9240286629309082
 31
0.0
  0
LINE
  5
35032
  8
0
 10
7111.5995747236256648
 20
194.9240286629309082
 30
0.0
 11
7111.5984730028112608
 21
194.8885771777773073
 31
0.0
  0
LINE
  5
35033
  8
0
 10
7111.59780721149491
 20
194.8671531558435959
 30
0.0
 11
7111.5968217300642209
 21
194.8354420545938126
 31
0.0
  0
LINE
  5
35034
  8
0
 10
7111.5950129464163183
 20
194.7772385008711069
 30
0.0
 11
7111.594601758501085
 21
194.7640071794102994
 31
0.0
  0
LINE
  5
35035
  8
0
 10
7111.5927933749935619
 20
194.7058165015324107
 30
0.0
 11
7111.5923820947709828
 21
194.6925822097869059
 31
0.0
  0
LINE
  5
35036
  8
0
 10
7111.5905739872023332
 20
194.6344004111232096
 30
0.0
 11
7111.5901625270589648
 21
194.6211603298393982
 31
0.0
  0
LINE
  5
35037
  8
0
 10
7110.7971548686700771
 20
194.5500129149309032
 30
0.0
 11
7111.548662389132005
 21
194.5500129149309032
 31
0.0
  0
LINE
  5
35038
  8
0
 10
7110.7612172503750116
 20
194.8711749683891981
 30
0.0
 11
7110.8009291092903368
 21
194.8504705284669001
 31
0.0
  0
LINE
  5
35039
  8
0
 10
7110.8009294329422119
 20
194.832736292218101
 30
0.0
 11
7110.7630259866600682
 21
194.8129729387931945
 31
0.0
  0
ARC
  5
3503A
  8
0
 10
7110.7963060453876096
 20
194.8416033259678954
 30
0.0
 40
0.01
 50
297.5381263879839935
 51
62.4639649274720199
  0
LINE
  5
3503B
  8
0
 10
7110.7634369453890031
 20
194.7997489920956866
 30
0.0
 11
7110.8031530946209386
 21
194.7790413404580079
 31
0.0
  0
LINE
  5
3503C
  8
0
 10
7110.8031534347837805
 20
194.7613072912803034
 30
0.0
 11
7110.7652458740476504
 21
194.7415407721935026
 31
0.0
  0
ARC
  5
3503D
  8
0
 10
7110.7985298595822314
 20
194.7701742271854073
 30
0.0
 40
0.01
 50
297.5393389117359106
 51
62.4628591217125617
  0
LINE
  5
3503E
  8
0
 10
7110.7656567413132507
 20
194.728319768717995
 30
0.0
 11
7110.8053740689465485
 21
194.7076107414411013
 31
0.0
  0
LINE
  5
3503F
  8
0
 10
7110.8053744266480862
 20
194.6898768407556872
 30
0.0
 11
7110.7674657517063679
 21
194.6701089187070011
 31
0.0
  0
ARC
  5
35040
  8
0
 10
7110.8007507002876082
 20
194.6987436978390917
 30
0.0
 40
0.01
 50
297.540315661842385
 51
62.4619957074604812
  0
LINE
  5
35041
  8
0
 10
7110.7678772245881191
 20
194.6568684275366081
 30
0.0
 11
7110.8075629712666341
 21
194.6361779850012113
 31
0.0
  0
LINE
  5
35042
  8
0
 10
7110.8075633112230207
 20
194.618443687026911
 30
0.0
 11
7110.7696851101063658
 21
194.598693774083614
 31
0.0
  0
ARC
  5
35043
  8
0
 10
7110.8029399747119896
 20
194.6273107473905952
 30
0.0
 40
0.01
 50
297.5377965697331888
 51
62.4644000838592603
  0
LINE
  5
35044
  8
0
 10
7110.7700843928078029
 20
194.5858455419279949
 30
0.0
 11
7110.8018740720481219
 21
194.5688293268707127
 31
0.0
  0
LINE
  5
35045
  8
0
 10
7111.5964739522041782
 20
194.8873306519475932
 30
0.0
 11
7111.5984730028112608
 21
194.8885771777773073
 31
0.0
  0
ARC
  5
35046
  8
0
 10
7111.601765145385798
 20
194.8788451776113106
 30
0.0
 40
0.01
 50
121.9459699990698027
 51
215.4064126301383908
  0
LINE
  5
35047
  8
0
 10
7111.5968217300642209
 20
194.8354420545938126
 30
0.0
 11
7111.5571091396968768
 21
194.8147371137009998
 31
0.0
  0
LINE
  5
35048
  8
0
 10
7111.5571087104372054
 20
194.7970029544169961
 30
0.0
 11
7111.5950129464163183
 21
194.7772385008711069
 31
0.0
  0
ARC
  5
35049
  8
0
 10
7111.5617322245998366
 20
194.8058699221506913
 30
0.0
 40
0.01
 50
117.5361707646265046
 51
242.4610555123855988
  0
LINE
  5
3504A
  8
0
 10
7111.594601758501085
 20
194.7640071794102994
 30
0.0
 11
7111.5549014265616279
 21
194.7433086446353059
 31
0.0
  0
LINE
  5
3504B
  8
0
 10
7111.5549010478807759
 20
194.7255744562405937
 30
0.0
 11
7111.5927933749935619
 21
194.7058165015324107
 31
0.0
  0
ARC
  5
3504C
  8
0
 10
7111.559524508839786
 20
194.7344414517166058
 30
0.0
 40
0.01
 50
117.5361538057490947
 51
242.4613993033551083
  0
LINE
  5
3504D
  8
0
 10
7111.5923820947709828
 20
194.6925822097869059
 30
0.0
 11
7111.5526913089142909
 21
194.6718880344180889
 31
0.0
  0
LINE
  5
3504E
  8
0
 10
7111.5526909601439911
 20
194.654153943561397
 30
0.0
 11
7111.5905739872023332
 21
194.6344004111232096
 31
0.0
  0
ARC
  5
3504F
  8
0
 10
7111.5573144996797055
 20
194.6630208980637917
 30
0.0
 40
0.01
 50
117.5368548233659993
 51
242.4608915479851987
  0
LINE
  5
35050
  8
0
 10
7111.5901625270589648
 20
194.6211603298393982
 30
0.0
 11
7111.5504727903917228
 21
194.6004658186886047
 31
0.0
  0
LINE
  5
35051
  8
0
 10
7111.550472317519052
 20
194.5827319542642897
 30
0.0
 11
7111.5707750497876987
 21
194.5721445880309091
 31
0.0
  0
ARC
  5
35052
  8
0
 10
7111.55509613623326
 20
194.5915987631886139
 30
0.0
 40
0.01
 50
117.5378568445152041
 51
242.4590875707791895
  0
LINE
  5
35053
  8
0
 10
7111.5707750497876987
 20
194.5721445880309091
 30
0.0
 11
7111.548662389132005
 21
194.5500129149309032
 31
0.0
  0
ARC
  5
35054
  8
0
 10
7110.7971548686700771
 20
194.5600129149308941
 30
0.0
 40
0.01
 50
270.0
 51
61.8409778239507588
  0
LINE
  5
35055
  8
0
 10
7111.5936145158202635
 20
194.8730514536208034
 30
0.0
 11
7111.59780721149491
 21
194.8671531558435959
 31
0.0
  0
LINE
  5
35056
  8
0
 10
7110.7612172503750116
 20
194.8711749683891981
 30
0.0
 11
7111.5984730028112608
 21
194.8885771777773073
 31
0.0
  0
LINE
  5
35057
  8
0
 10
7111.5964739522041782
 20
194.8873306519475932
 30
0.0
 11
7110.8009291092903368
 21
194.8504705284669001
 31
0.0
  0
LINE
  5
35058
  8
0
 10
7110.8009294329422119
 20
194.832736292218101
 30
0.0
 11
7111.5936145158202635
 21
194.8730514536208034
 31
0.0
  0
LINE
  5
35059
  8
0
 10
7111.59780721149491
 20
194.8671531558435959
 30
0.0
 11
7110.7630259866600682
 21
194.8129729387931945
 31
0.0
  0
LINE
  5
3505A
  8
0
 10
7110.7634369453890031
 20
194.7997489920956866
 30
0.0
 11
7111.5968217300642209
 21
194.8354420545938126
 31
0.0
  0
LINE
  5
3505B
  8
0
 10
7110.8031530946209386
 20
194.7790413404580079
 30
0.0
 11
7111.5571091396968768
 21
194.8147371137009998
 31
0.0
  0
LINE
  5
3505C
  8
0
 10
7111.5571087104372054
 20
194.7970029544169961
 30
0.0
 11
7110.8031534347837805
 21
194.7613072912803034
 31
0.0
  0
LINE
  5
3505D
  8
0
 10
7110.7652458740476504
 20
194.7415407721935026
 30
0.0
 11
7111.5950129464163183
 21
194.7772385008711069
 31
0.0
  0
LINE
  5
3505E
  8
0
 10
7111.594601758501085
 20
194.7640071794102994
 30
0.0
 11
7110.7656567413132507
 21
194.728319768717995
 31
0.0
  0
LINE
  5
3505F
  8
0
 10
7110.8053740689465485
 20
194.7076107414411013
 30
0.0
 11
7111.5549014265616279
 21
194.7433086446353059
 31
0.0
  0
LINE
  5
35060
  8
0
 10
7111.5549010478807759
 20
194.7255744562405937
 30
0.0
 11
7110.8053744266480862
 21
194.6898768407556872
 31
0.0
  0
LINE
  5
35061
  8
0
 10
7110.7674657517063679
 20
194.6701089187070011
 30
0.0
 11
7111.5927933749935619
 21
194.7058165015324107
 31
0.0
  0
LINE
  5
35062
  8
0
 10
7111.5923820947709828
 20
194.6925822097869059
 30
0.0
 11
7110.7678772245881191
 21
194.6568684275366081
 31
0.0
  0
LINE
  5
35063
  8
0
 10
7110.8075629712666341
 20
194.6361779850012113
 30
0.0
 11
7111.5526913089142909
 21
194.6718880344180889
 31
0.0
  0
LINE
  5
35064
  8
0
 10
7111.5526909601439911
 20
194.654153943561397
 30
0.0
 11
7110.8075633112230207
 21
194.618443687026911
 31
0.0
  0
LINE
  5
35065
  8
0
 10
7110.7696851101063658
 20
194.598693774083614
 30
0.0
 11
7111.5905739872023332
 21
194.6344004111232096
 31
0.0
  0
LINE
  5
35066
  8
0
 10
7111.5901625270589648
 20
194.6211603298393982
 30
0.0
 11
7110.7700843928078029
 21
194.5858455419279949
 31
0.0
  0
LINE
  5
35067
  8
0
 10
7110.8018740720481219
 20
194.5688293268707127
 30
0.0
 11
7111.5504727903917228
 21
194.6004658186886047
 31
0.0
  0
LINE
  5
35068
  8
0
 10
7110.8202674848225797
 20
194.5500129149309032
 30
0.0
 11
7111.550472317519052
 21
194.5827319542642897
 31
0.0
  0
LINE
  5
35069
  8
0
 10
7111.5707750497876987
 20
194.5721445880309091
 30
0.0
 11
7110.8926173743502659
 21
194.5500129149309032
 31
0.0
  0
ARC
  5
3506B
  8
0
 10
7112.2346786839716515
 20
194.3920084319047135
 30
0.0
 40
0.5611043593844752
 50
79.4981260800256422
 51
100.5018739199744005
  0
ARC
  5
3506C
  8
0
 10
7112.1817978071949256
 20
194.9975663873989902
 30
0.0
 40
0.0679391431368297
 50
230.8514646745036032
 51
241.5922463382696037
  0
LINE
  5
3506D
  8
0
 10
7112.1494762187858214
 20
194.9378081905308875
 30
0.0
 11
7112.3199120579865848
 21
194.9378081905308875
 31
0.0
  0
LINE
  5
3506E
  8
0
 10
7112.3199120579865848
 20
194.9378081905308875
 30
0.0
 11
7112.3063088474582401
 21
194.9457103827438118
 31
0.0
  0
ARC
  5
3506F
  8
0
 10
7112.2940630261919068
 20
194.9704997197414116
 30
0.0
 40
0.0276490753418053
 50
281.1163138251154123
 51
305.5839723616415995
  0
ARC
  5
35070
  8
0
 10
7112.1779963271628731
 20
196.0013279041012879
 30
0.0
 40
1.0649007186689741
 50
272.9182846884319815
 51
276.5458847734203118
  0
LINE
  5
35071
  8
0
 10
7112.1608375570122007
 20
194.9482328381378125
 30
0.0
 11
7112.2448415965491222
 21
194.9530207466787886
 31
0.0
  0
ENDSEC
  0
EOF
