  0
SECTION
  2
HEADER
  9
$ACADVER
  1
AC1009
  9
$INSBASE
 10
6583.9370958257622988
 20
224.7519281207528081
 30
0.0
  9
$EXTMIN
 10
6582.0670170856619734
 20
220.6678334820958867
 30
0.0
  9
$EXTMAX
 10
6585.8071745658626241
 20
224.7566656797934002
 30
0.0
  9
$LIMMIN
 10
0.0
 20
0.0
  9
$LIMMAX
 10
11.6929133858000007
 20
8.2677165353999982
  9
$ORTHOMODE
 70
     0
  9
$REGENMODE
 70
     1
  9
$FILLMODE
 70
     1
  9
$QTEXTMODE
 70
     0
  9
$MIRRTEXT
 70
     0
  9
$DRAGMODE
 70
     2
  9
$LTSCALE
 40
0.6431102362
  9
$OSMODE
 70
  4095
  9
$ATTMODE
 70
     1
  9
$TEXTSIZE
 40
0.2
  9
$TRACEWID
 40
0.05
  9
$TEXTSTYLE
  7
STANDARD
  9
$CLAYER
  8
0
  9
$CELTYPE
  6
BYLAYER
  9
$CECOLOR
 62
   256
  9
$DIMSCALE
 40
1.0
  9
$DIMASZ
 40
0.1875
  9
$DIMEXO
 40
0.0625
  9
$DIMDLI
 40
0.4443307087
  9
$DIMRND
 40
0.0
  9
$DIMDLE
 40
0.0
  9
$DIMEXE
 40
0.125
  9
$DIMTP
 40
0.01
  9
$DIMTM
 40
0.01
  9
$DIMTXT
 40
2.0
  9
$DIMCEN
 40
0.1052362205
  9
$DIMTSZ
 40
0.0
  9
$DIMTOL
 70
     1
  9
$DIMLIM
 70
     0
  9
$DIMTIH
 70
     1
  9
$DIMTOH
 70
     1
  9
$DIMSE1
 70
     0
  9
$DIMSE2
 70
     0
  9
$DIMTAD
 70
     0
  9
$DIMZIN
 70
     0
  9
$DIMBLK
  1

  9
$DIMASO
 70
     1
  9
$DIMSHO
 70
     1
  9
$DIMPOST
  1
\X
  9
$DIMAPOST
  1

  9
$DIMALT
 70
     1
  9
$DIMALTD
 70
     2
  9
$DIMALTF
 40
25.3999999999999986
  9
$DIMLFAC
 40
1.0
  9
$DIMTOFL
 70
     0
  9
$DIMTVP
 40
0.0
  9
$DIMTIX
 70
     0
  9
$DIMSOXD
 70
     0
  9
$DIMSAH
 70
     0
  9
$DIMBLK1
  1

  9
$DIMBLK2
  1

  9
$DIMSTYLE
  2
STANDARD
  9
$DIMCLRD
 70
     0
  9
$DIMCLRE
 70
     0
  9
$DIMCLRT
 70
     0
  9
$DIMTFAC
 40
1.0
  9
$DIMGAP
 40
0.09
  9
$LUNITS
 70
     2
  9
$LUPREC
 70
     4
  9
$SKETCHINC
 40
0.1
  9
$FILLETRAD
 40
0.0
  9
$AUNITS
 70
     0
  9
$AUPREC
 70
     0
  9
$MENU
  1
.
  9
$ELEVATION
 40
0.0
  9
$PELEVATION
 40
0.0
  9
$THICKNESS
 40
0.0
  9
$LIMCHECK
 70
     0
  9
$BLIPMODE
 70
     0
  9
$CHAMFERA
 40
0.0
  9
$CHAMFERB
 40
0.0
  9
$SKPOLY
 70
     0
  9
$TDCREATE
 40
2458060.468368056230247
  9
$TDUPDATE
 40
2460626.6196643519215286
  9
$TDINDWG
 40
0.9740116898
  9
$TDUSRTIMER
 40
0.9740116898
  9
$USRTIMER
 70
     1
  9
$ANGBASE
 50
0.0
  9
$ANGDIR
 70
     0
  9
$PDMODE
 70
     0
  9
$PDSIZE
 40
0.3125
  9
$PLINEWID
 40
0.0
  9
$COORDS
 70
     1
  9
$SPLFRAME
 70
     0
  9
$SPLINETYPE
 70
     6
  9
$SPLINESEGS
 70
     8
  9
$ATTDIA
 70
     1
  9
$ATTREQ
 70
     1
  9
$HANDLING
 70
     1
  9
$HANDSEED
  5
2FEF3
  9
$SURFTAB1
 70
     6
  9
$SURFTAB2
 70
     6
  9
$SURFTYPE
 70
     6
  9
$SURFU
 70
     6
  9
$SURFV
 70
     6
  9
$UCSNAME
  2

  9
$UCSORG
 10
0.0
 20
0.0
 30
0.0
  9
$UCSXDIR
 10
1.0
 20
0.0
 30
0.0
  9
$UCSYDIR
 10
0.0
 20
1.0
 30
0.0
  9
$PUCSNAME
  2

  9
$PUCSORG
 10
0.0
 20
0.0
 30
0.0
  9
$PUCSXDIR
 10
1.0
 20
0.0
 30
0.0
  9
$PUCSYDIR
 10
0.0
 20
1.0
 30
0.0
  9
$USERI1
 70
     0
  9
$USERI2
 70
     0
  9
$USERI3
 70
     0
  9
$USERI4
 70
     0
  9
$USERI5
 70
     0
  9
$USERR1
 40
0.0
  9
$USERR2
 40
0.0
  9
$USERR3
 40
0.0
  9
$USERR4
 40
0.0
  9
$USERR5
 40
0.0
  9
$WORLDVIEW
 70
     1
  9
$SHADEDGE
 70
     3
  9
$SHADEDIF
 70
    70
  9
$TILEMODE
 70
     1
  9
$MAXACTVP
 70
    64
  9
$PLIMCHECK
 70
     0
  9
$PEXTMIN
 10
1.0000000000000000E+20
 20
1.0000000000000000E+20
 30
1.0000000000000000E+20
  9
$PEXTMAX
 10
-1.0000000000000000E+20
 20
-1.0000000000000000E+20
 30
-1.0000000000000000E+20
  9
$PLIMMIN
 10
0.0
 20
0.0
  9
$PLIMMAX
 10
12.0
 20
9.0
  9
$UNITMODE
 70
     0
  9
$VISRETAIN
 70
     1
  9
$PLINEGEN
 70
     0
  9
$PSLTSCALE
 70
     1
  0
ENDSEC
  0
SECTION
  2
TABLES
  0
TABLE
  2
VPORT
 70
     1
  0
VPORT
  2
*ACTIVE
 70
     0
 10
0.0
 20
0.0
 11
1.0
 21
1.0
 12
2672.5717393804497988
 22
90.1326444784055951
 13
0.0
 23
0.0
 14
1.0
 24
1.0
 15
0.0
 25
0.0
 16
0.0
 26
0.0
 36
60.4960186965801583
 17
3911.3653564453120453
 27
132.5796051025390057
 37
0.0
 40
4.1167828571735674
 41
2.1449438202247189
 42
50.0
 43
0.0
 44
0.0
 50
0.0
 51
0.0
 71
     0
 72
   100
 73
     1
 74
     1
 75
     0
 76
     0
 77
     0
 78
     0
  0
ENDTAB
  0
TABLE
  2
LTYPE
 70
     2
  0
LTYPE
  2
CONTINUOUS
 70
     0
  3
Solid line
 72
    65
 73
     0
 40
0.0
  0
LTYPE
  2
PHANTOM2
 70
     0
  3
___ _ _ ___ _ _ ___ _ _ ___ _ _
 72
    65
 73
     6
 40
1.25
 49
0.625
 49
-0.125
 49
0.125
 49
-0.125
 49
0.125
 49
-0.125
  0
ENDTAB
  0
TABLE
  2
LAYER
 70
     2
  0
LAYER
  2
0
 70
     0
 62
   255
  6
CONTINUOUS
  0
LAYER
  2
DEFPOINTS
 70
     0
 62
     7
  6
CONTINUOUS
  0
ENDTAB
  0
TABLE
  2
STYLE
 70
     1
  0
STYLE
  2
STANDARD
 70
     0
 40
0.0
 41
0.8
 50
0.0
 71
     0
 42
0.2
  3
txt
  4

  0
ENDTAB
  0
TABLE
  2
VIEW
 70
     0
  0
ENDTAB
  0
TABLE
  2
UCS
 70
     0
  0
ENDTAB
  0
TABLE
  2
APPID
 70
    13
  0
APPID
  2
ACAD
 70
     0
  0
APPID
  2
ACAD_MLEADERVER
 70
     0
  0
APPID
  2
ACAD_EXEMPT_FROM_CAD_STANDARDS
 70
     0
  0
APPID
  2
ACAD_NAV_VCDISPLAY
 70
     0
  0
APPID
  2
ACAECLAYERSTANDARD
 70
     0
  0
APPID
  2
ACCMTRANSPARENCY
 70
     0
  0
APPID
  2
ACAD_DSTYLE_DIMJAG
 70
     0
  0
APPID
  2
ACAD_DSTYLE_DIMTALN
 70
     0
  0
APPID
  2
ACDBATTR
 70
     0
  0
APPID
  2
ACADANNOTATIVE
 70
     0
  0
APPID
  2
DCO15
 70
     0
  0
APPID
  2
GRADIENTCOLOR1ACI
 70
     0
  0
APPID
  2
GRADIENTCOLOR2ACI
 70
     0
  0
ENDTAB
  0
TABLE
  2
DIMSTYLE
 70
     1
  0
DIMSTYLE
  2
STANDARD
 70
     0
  3

  4

  5

  6

  7

 40
1.0
 41
0.1875
 42
0.0625
 43
0.38
 44
0.125
 45
0.0
 46
0.0
 47
0.01
 48
0.01
140
0.15625
141
0.09
142
0.0
143
25.3999999999999986
144
1.0
145
0.0
146
1.0
147
0.09
 71
     1
 72
     0
 73
     1
 74
     1
 75
     0
 76
     0
 77
     0
 78
     4
170
     0
171
     2
172
     0
173
     0
174
     0
175
     0
176
     0
177
     0
178
     0
  0
ENDTAB
  0
ENDSEC
  0
SECTION
  2
BLOCKS
  0
BLOCK
  8
0
  2
$MODEL_SPACE
 70
     0
 10
0.0
 20
0.0
 30
0.0
  3
$MODEL_SPACE
  1

  0
ENDBLK
  5
21
  8
0
  0
BLOCK
 67
     1
  8
0
  2
$PAPER_SPACE
 70
     0
 10
0.0
 20
0.0
 30
0.0
  3
$PAPER_SPACE
  1

  0
ENDBLK
  5
1D
 67
     1
  8
0
  0
ENDSEC
  0
SECTION
  2
ENTITIES
  0
ATTDEF
  5
26A5B
  8
DEFPOINTS
 10
6583.9334325649751918
 20
224.7556656797933101
 30
0.0
 40
0.001
  1
P33489-LV
  3

  2
MODELNUMBER
 70
     0
1001
ACDBATTR
1070
     0
1070
     1
  0
ATTDEF
  5
26A5C
  8
DEFPOINTS
 10
6583.9333067553179717
 20
224.7539988394142085
 30
0.0
 40
0.001
  1
AILERON
  3

  2
TRADENAME
 70
     0
1001
ACDBATTR
1070
     0
1070
     1
  0
ATTDEF
  5
26A5D
  8
DEFPOINTS
 10
6583.9334325649751918
 20
224.7523323464600082
 30
0.0
 40
0.001
  1
VALVE TRIM
  3

  2
PRODUCT
 70
     0
1001
ACDBATTR
1070
     0
1070
     1
  0
LINE
  5
2FD81
  8
0
 10
6582.0670170856619734
 20
224.3661013490527978
 30
0.0
 11
6582.0670170856619734
 21
224.7519281207528081
 31
0.0
  0
LINE
  5
2FD82
  8
0
 10
6583.1300092115643565
 20
222.0962924202337092
 30
0.0
 11
6583.1399756207310929
 21
222.1062588294014972
 31
0.0
1001
GRADIENTCOLOR1ACI
1070
     5
1001
GRADIENTCOLOR2ACI
1070
     2
1001
ACAD
1010
0.0
1020
0.0
1030
0.0
  0
LINE
  5
2FD83
  8
0
 10
6583.1300092115643565
 20
222.0609370811743872
 30
0.0
 11
6583.1753309597906991
 21
222.1062588294014972
 31
0.0
1001
GRADIENTCOLOR1ACI
1070
     5
1001
GRADIENTCOLOR2ACI
1070
     2
1001
ACAD
1010
0.0
1020
0.0
1030
0.0
  0
LINE
  5
2FD84
  8
0
 10
6583.1300092115643565
 20
222.0255817421150937
 30
0.0
 11
6583.2106862988493958
 21
222.1062588294014972
 31
0.0
1001
GRADIENTCOLOR1ACI
1070
     5
1001
GRADIENTCOLOR2ACI
1070
     2
1001
ACAD
1010
0.0
1020
0.0
1030
0.0
  0
LINE
  5
2FD85
  8
0
 10
6583.1300092115643565
 20
221.9902264030556864
 30
0.0
 11
6583.246041637909002
 21
222.1062588294014972
 31
0.0
1001
GRADIENTCOLOR1ACI
1070
     5
1001
GRADIENTCOLOR2ACI
1070
     2
1001
ACAD
1010
0.0
1020
0.0
1030
0.0
  0
LINE
  5
2FD86
  8
0
 10
6583.1300092115643565
 20
221.9548710639963929
 30
0.0
 11
6583.2813969769686082
 21
222.1062588294014972
 31
0.0
1001
GRADIENTCOLOR1ACI
1070
     5
1001
GRADIENTCOLOR2ACI
1070
     2
1001
ACAD
1010
0.0
1020
0.0
1030
0.0
  0
LINE
  5
2FD87
  8
0
 10
6583.1300092115643565
 20
221.9195157249370993
 30
0.0
 11
6583.3167523160273049
 21
222.1062588294014972
 31
0.0
1001
GRADIENTCOLOR1ACI
1070
     5
1001
GRADIENTCOLOR2ACI
1070
     2
1001
ACAD
1010
0.0
1020
0.0
1030
0.0
  0
LINE
  5
2FD88
  8
0
 10
6583.1300092115643565
 20
221.8841603858776921
 30
0.0
 11
6583.3521076550869111
 21
222.1062588294014972
 31
0.0
1001
GRADIENTCOLOR1ACI
1070
     5
1001
GRADIENTCOLOR2ACI
1070
     2
1001
ACAD
1010
0.0
1020
0.0
1030
0.0
  0
LINE
  5
2FD89
  8
0
 10
6583.1300092115643565
 20
221.8488050468183985
 30
0.0
 11
6583.3874629941456078
 21
222.1062588294014972
 31
0.0
1001
GRADIENTCOLOR1ACI
1070
     5
1001
GRADIENTCOLOR2ACI
1070
     2
1001
ACAD
1010
0.0
1020
0.0
1030
0.0
  0
LINE
  5
2FD8A
  8
0
 10
6583.1300092115643565
 20
221.813449707759105
 30
0.0
 11
6583.4228183332061235
 21
222.1062588294014972
 31
0.0
1001
GRADIENTCOLOR1ACI
1070
     5
1001
GRADIENTCOLOR2ACI
1070
     2
1001
ACAD
1010
0.0
1020
0.0
1030
0.0
  0
LINE
  5
2FD8B
  8
0
 10
6583.1300092115643565
 20
221.7780943686998114
 30
0.0
 11
6583.4581736722657297
 21
222.1062588294014972
 31
0.0
1001
GRADIENTCOLOR1ACI
1070
     5
1001
GRADIENTCOLOR2ACI
1070
     2
1001
ACAD
1010
0.0
1020
0.0
1030
0.0
  0
LINE
  5
2FD8C
  8
0
 10
6583.1300092115643565
 20
221.7427390296404042
 30
0.0
 11
6583.4935290113253359
 21
222.1062588294014972
 31
0.0
1001
GRADIENTCOLOR1ACI
1070
     5
1001
GRADIENTCOLOR2ACI
1070
     2
1001
ACAD
1010
0.0
1020
0.0
1030
0.0
  0
LINE
  5
2FD8D
  8
0
 10
6583.1300092115643565
 20
221.7073836905811106
 30
0.0
 11
6583.5288843503849421
 21
222.1062588294014972
 31
0.0
1001
GRADIENTCOLOR1ACI
1070
     5
1001
GRADIENTCOLOR2ACI
1070
     2
1001
ACAD
1010
0.0
1020
0.0
1030
0.0
  0
LINE
  5
2FD8E
  8
0
 10
6583.1300092115643565
 20
221.6720283515217034
 30
0.0
 11
6583.5642396894427293
 21
222.1062588294014972
 31
0.0
1001
GRADIENTCOLOR1ACI
1070
     5
1001
GRADIENTCOLOR2ACI
1070
     2
1001
ACAD
1010
0.0
1020
0.0
1030
0.0
  0
LINE
  5
2FD8F
  8
0
 10
6583.1300092115643565
 20
221.6366730124624951
 30
0.0
 11
6583.5995950285023355
 21
222.1062588294014972
 31
0.0
1001
GRADIENTCOLOR1ACI
1070
     5
1001
GRADIENTCOLOR2ACI
1070
     2
1001
ACAD
1010
0.0
1020
0.0
1030
0.0
  0
LINE
  5
2FD90
  8
0
 10
6583.1300092115643565
 20
221.6013176734030878
 30
0.0
 11
6583.6349503675619417
 21
222.1062588294014972
 31
0.0
1001
GRADIENTCOLOR1ACI
1070
     5
1001
GRADIENTCOLOR2ACI
1070
     2
1001
ACAD
1010
0.0
1020
0.0
1030
0.0
  0
LINE
  5
2FD91
  8
0
 10
6583.1300092115643565
 20
221.5659623343437943
 30
0.0
 11
6583.6703057066197289
 21
222.1062588294014972
 31
0.0
1001
GRADIENTCOLOR1ACI
1070
     5
1001
GRADIENTCOLOR2ACI
1070
     2
1001
ACAD
1010
0.0
1020
0.0
1030
0.0
  0
LINE
  5
2FD92
  8
0
 10
6583.1300092115643565
 20
221.530606995284387
 30
0.0
 11
6583.7056610456802446
 21
222.1062588294014972
 31
0.0
1001
GRADIENTCOLOR1ACI
1070
     5
1001
GRADIENTCOLOR2ACI
1070
     2
1001
ACAD
1010
0.0
1020
0.0
1030
0.0
  0
LINE
  5
2FD93
  8
0
 10
6583.1300092115643565
 20
221.4952516562250935
 30
0.0
 11
6583.7410163847389413
 21
222.1062588294014972
 31
0.0
1001
GRADIENTCOLOR1ACI
1070
     5
1001
GRADIENTCOLOR2ACI
1070
     2
1001
ACAD
1010
0.0
1020
0.0
1030
0.0
  0
LINE
  5
2FD94
  8
0
 10
6583.1300092115643565
 20
221.4598963171657999
 30
0.0
 11
6583.7763717237985475
 21
222.1062588294014972
 31
0.0
1001
GRADIENTCOLOR1ACI
1070
     5
1001
GRADIENTCOLOR2ACI
1070
     2
1001
ACAD
1010
0.0
1020
0.0
1030
0.0
  0
LINE
  5
2FD95
  8
0
 10
6583.1300092115643565
 20
221.4245409781065064
 30
0.0
 11
6583.8117270628581537
 21
222.1062588294014972
 31
0.0
1001
GRADIENTCOLOR1ACI
1070
     5
1001
GRADIENTCOLOR2ACI
1070
     2
1001
ACAD
1010
0.0
1020
0.0
1030
0.0
  0
LINE
  5
2FD96
  8
0
 10
6583.1300092115643565
 20
221.3891856390472128
 30
0.0
 11
6583.8470824019177599
 21
222.1062588294014972
 31
0.0
1001
GRADIENTCOLOR1ACI
1070
     5
1001
GRADIENTCOLOR2ACI
1070
     2
1001
ACAD
1010
0.0
1020
0.0
1030
0.0
  0
LINE
  5
2FD97
  8
0
 10
6583.1501542764281112
 20
221.3739753648528108
 30
0.0
 11
6583.8824377409782755
 21
222.1062588294014972
 31
0.0
1001
GRADIENTCOLOR1ACI
1070
     5
1001
GRADIENTCOLOR2ACI
1070
     2
1001
ACAD
1010
0.0
1020
0.0
1030
0.0
  0
LINE
  5
2FD98
  8
0
 10
6583.1855096154877174
 20
221.3739753648528108
 30
0.0
 11
6583.9177930800360627
 21
222.1062588294014972
 31
0.0
1001
GRADIENTCOLOR1ACI
1070
     5
1001
GRADIENTCOLOR2ACI
1070
     2
1001
ACAD
1010
0.0
1020
0.0
1030
0.0
  0
LINE
  5
2FD99
  8
0
 10
6583.2208649545473236
 20
221.3739753648528108
 30
0.0
 11
6583.9531484190947594
 21
222.1062588294014972
 31
0.0
1001
GRADIENTCOLOR1ACI
1070
     5
1001
GRADIENTCOLOR2ACI
1070
     2
1001
ACAD
1010
0.0
1020
0.0
1030
0.0
  0
LINE
  5
2FD9A
  8
0
 10
6583.2562202936060203
 20
221.3739753648528108
 30
0.0
 11
6583.9885037581552751
 21
222.1062588294014972
 31
0.0
1001
GRADIENTCOLOR1ACI
1070
     5
1001
GRADIENTCOLOR2ACI
1070
     2
1001
ACAD
1010
0.0
1020
0.0
1030
0.0
  0
LINE
  5
2FD9B
  8
0
 10
6583.291575632664717
 20
221.3739753648528108
 30
0.0
 11
6584.0238590972130623
 21
222.1062588294014972
 31
0.0
1001
GRADIENTCOLOR1ACI
1070
     5
1001
GRADIENTCOLOR2ACI
1070
     2
1001
ACAD
1010
0.0
1020
0.0
1030
0.0
  0
LINE
  5
2FD9C
  8
0
 10
6583.3269309717252327
 20
221.3739753648528108
 30
0.0
 11
6584.0592144362726685
 21
222.1062588294014972
 31
0.0
1001
GRADIENTCOLOR1ACI
1070
     5
1001
GRADIENTCOLOR2ACI
1070
     2
1001
ACAD
1010
0.0
1020
0.0
1030
0.0
  0
LINE
  5
2FD9D
  8
0
 10
6583.3622863107839294
 20
221.3739753648528108
 30
0.0
 11
6584.0945697753331842
 21
222.1062588294014972
 31
0.0
1001
GRADIENTCOLOR1ACI
1070
     5
1001
GRADIENTCOLOR2ACI
1070
     2
1001
ACAD
1010
0.0
1020
0.0
1030
0.0
  0
LINE
  5
2FD9E
  8
0
 10
6583.3976416498426261
 20
221.3739753648528108
 30
0.0
 11
6584.1299251143918809
 21
222.1062588294014972
 31
0.0
1001
GRADIENTCOLOR1ACI
1070
     5
1001
GRADIENTCOLOR2ACI
1070
     2
1001
ACAD
1010
0.0
1020
0.0
1030
0.0
  0
LINE
  5
2FD9F
  8
0
 10
6583.4329969889031418
 20
221.3739753648528108
 30
0.0
 11
6584.1652804534523966
 21
222.1062588294014972
 31
0.0
1001
GRADIENTCOLOR1ACI
1070
     5
1001
GRADIENTCOLOR2ACI
1070
     2
1001
ACAD
1010
0.0
1020
0.0
1030
0.0
  0
LINE
  5
2FDA0
  8
0
 10
6583.4683523279618385
 20
221.3739753648528108
 30
0.0
 11
6584.2006357925120028
 21
222.1062588294014972
 31
0.0
1001
GRADIENTCOLOR1ACI
1070
     5
1001
GRADIENTCOLOR2ACI
1070
     2
1001
ACAD
1010
0.0
1020
0.0
1030
0.0
  0
LINE
  5
2FDA1
  8
0
 10
6583.5037076670223541
 20
221.3739753648528108
 30
0.0
 11
6584.23599113156979
 21
222.1062588294014972
 31
0.0
1001
GRADIENTCOLOR1ACI
1070
     5
1001
GRADIENTCOLOR2ACI
1070
     2
1001
ACAD
1010
0.0
1020
0.0
1030
0.0
  0
LINE
  5
2FDA2
  8
0
 10
6583.5390630060819603
 20
221.3739753648528108
 30
0.0
 11
6584.2713464706293962
 21
222.1062588294014972
 31
0.0
1001
GRADIENTCOLOR1ACI
1070
     5
1001
GRADIENTCOLOR2ACI
1070
     2
1001
ACAD
1010
0.0
1020
0.0
1030
0.0
  0
LINE
  5
2FDA3
  8
0
 10
6583.5744183451397475
 20
221.3739753648528108
 30
0.0
 11
6584.3067018096890024
 21
222.1062588294014972
 31
0.0
1001
GRADIENTCOLOR1ACI
1070
     5
1001
GRADIENTCOLOR2ACI
1070
     2
1001
ACAD
1010
0.0
1020
0.0
1030
0.0
  0
LINE
  5
2FDA4
  8
0
 10
6583.6097736841993537
 20
221.3739753648528108
 30
0.0
 11
6584.3420571487486086
 21
222.1062588294014972
 31
0.0
1001
GRADIENTCOLOR1ACI
1070
     5
1001
GRADIENTCOLOR2ACI
1070
     2
1001
ACAD
1010
0.0
1020
0.0
1030
0.0
  0
LINE
  5
2FDA5
  8
0
 10
6583.6451290232589599
 20
221.3739753648528108
 30
0.0
 11
6584.3774124878082148
 21
222.1062588294014972
 31
0.0
1001
GRADIENTCOLOR1ACI
1070
     5
1001
GRADIENTCOLOR2ACI
1070
     2
1001
ACAD
1010
0.0
1020
0.0
1030
0.0
  0
LINE
  5
2FDA6
  8
0
 10
6583.6804843623176566
 20
221.3739753648528108
 30
0.0
 11
6584.412767826867821
 21
222.1062588294014972
 31
0.0
1001
GRADIENTCOLOR1ACI
1070
     5
1001
GRADIENTCOLOR2ACI
1070
     2
1001
ACAD
1010
0.0
1020
0.0
1030
0.0
  0
LINE
  5
2FDA7
  8
0
 10
6583.7158397013781723
 20
221.3739753648528108
 30
0.0
 11
6584.4481231659274272
 21
222.1062588294014972
 31
0.0
1001
GRADIENTCOLOR1ACI
1070
     5
1001
GRADIENTCOLOR2ACI
1070
     2
1001
ACAD
1010
0.0
1020
0.0
1030
0.0
  0
LINE
  5
2FDA8
  8
0
 10
6583.7511950404377785
 20
221.3739753648528108
 30
0.0
 11
6584.4834785049852144
 21
222.1062588294014972
 31
0.0
1001
GRADIENTCOLOR1ACI
1070
     5
1001
GRADIENTCOLOR2ACI
1070
     2
1001
ACAD
1010
0.0
1020
0.0
1030
0.0
  0
LINE
  5
2FDA9
  8
0
 10
6583.7865503794973847
 20
221.3739753648528108
 30
0.0
 11
6584.5188338440448206
 21
222.1062588294014972
 31
0.0
1001
GRADIENTCOLOR1ACI
1070
     5
1001
GRADIENTCOLOR2ACI
1070
     2
1001
ACAD
1010
0.0
1020
0.0
1030
0.0
  0
LINE
  5
2FDAA
  8
0
 10
6583.8219057185551719
 20
221.3739753648528108
 30
0.0
 11
6584.5541891831053363
 21
222.1062588294014972
 31
0.0
1001
GRADIENTCOLOR1ACI
1070
     5
1001
GRADIENTCOLOR2ACI
1070
     2
1001
ACAD
1010
0.0
1020
0.0
1030
0.0
  0
LINE
  5
2FDAB
  8
0
 10
6583.8572610576147781
 20
221.3739753648528108
 30
0.0
 11
6584.5895445221631235
 21
222.1062588294014972
 31
0.0
1001
GRADIENTCOLOR1ACI
1070
     5
1001
GRADIENTCOLOR2ACI
1070
     2
1001
ACAD
1010
0.0
1020
0.0
1030
0.0
  0
LINE
  5
2FDAC
  8
0
 10
6583.8926163966743843
 20
221.3739753648528108
 30
0.0
 11
6584.6248998612218202
 21
222.1062588294014972
 31
0.0
1001
GRADIENTCOLOR1ACI
1070
     5
1001
GRADIENTCOLOR2ACI
1070
     2
1001
ACAD
1010
0.0
1020
0.0
1030
0.0
  0
LINE
  5
2FDAD
  8
0
 10
6583.9279717357321715
 20
221.3739753648528108
 30
0.0
 11
6584.6602552002823359
 21
222.1062588294014972
 31
0.0
1001
GRADIENTCOLOR1ACI
1070
     5
1001
GRADIENTCOLOR2ACI
1070
     2
1001
ACAD
1010
0.0
1020
0.0
1030
0.0
  0
LINE
  5
2FDAE
  8
0
 10
6583.9633270747917777
 20
221.3739753648528108
 30
0.0
 11
6584.6956105393410326
 21
222.1062588294014972
 31
0.0
1001
GRADIENTCOLOR1ACI
1070
     5
1001
GRADIENTCOLOR2ACI
1070
     2
1001
ACAD
1010
0.0
1020
0.0
1030
0.0
  0
LINE
  5
2FDAF
  8
0
 10
6583.9986824138522934
 20
221.3739753648528108
 30
0.0
 11
6584.7309658784006388
 21
222.1062588294014972
 31
0.0
1001
GRADIENTCOLOR1ACI
1070
     5
1001
GRADIENTCOLOR2ACI
1070
     2
1001
ACAD
1010
0.0
1020
0.0
1030
0.0
  0
LINE
  5
2FDB0
  8
0
 10
6584.0340377529109901
 20
221.3739753648528108
 30
0.0
 11
6584.74418243996206
 21
222.0841200519031986
 31
0.0
1001
GRADIENTCOLOR1ACI
1070
     5
1001
GRADIENTCOLOR2ACI
1070
     2
1001
ACAD
1010
0.0
1020
0.0
1030
0.0
  0
LINE
  5
2FDB1
  8
0
 10
6584.0693930919705963
 20
221.3739753648528108
 30
0.0
 11
6584.74418243996206
 21
222.048764712843905
 31
0.0
1001
GRADIENTCOLOR1ACI
1070
     5
1001
GRADIENTCOLOR2ACI
1070
     2
1001
ACAD
1010
0.0
1020
0.0
1030
0.0
  0
LINE
  5
2FDB2
  8
0
 10
6584.1047484310302025
 20
221.3739753648528108
 30
0.0
 11
6584.74418243996206
 21
222.0134093737844978
 31
0.0
1001
GRADIENTCOLOR1ACI
1070
     5
1001
GRADIENTCOLOR2ACI
1070
     2
1001
ACAD
1010
0.0
1020
0.0
1030
0.0
  0
LINE
  5
2FDB3
  8
0
 10
6584.1401037700898087
 20
221.3739753648528108
 30
0.0
 11
6584.74418243996206
 21
221.9780540347252042
 31
0.0
1001
GRADIENTCOLOR1ACI
1070
     5
1001
GRADIENTCOLOR2ACI
1070
     2
1001
ACAD
1010
0.0
1020
0.0
1030
0.0
  0
LINE
  5
2FDB4
  8
0
 10
6584.1754591091494149
 20
221.3739753648528108
 30
0.0
 11
6584.74418243996206
 21
221.942698695665797
 31
0.0
1001
GRADIENTCOLOR1ACI
1070
     5
1001
GRADIENTCOLOR2ACI
1070
     2
1001
ACAD
1010
0.0
1020
0.0
1030
0.0
  0
LINE
  5
2FDB5
  8
0
 10
6584.2108144482081116
 20
221.3739753648528108
 30
0.0
 11
6584.74418243996206
 21
221.9073433566065887
 31
0.0
1001
GRADIENTCOLOR1ACI
1070
     5
1001
GRADIENTCOLOR2ACI
1070
     2
1001
ACAD
1010
0.0
1020
0.0
1030
0.0
  0
LINE
  5
2FDB6
  8
0
 10
6584.2461697872677178
 20
221.3739753648528108
 30
0.0
 11
6584.74418243996206
 21
221.8719880175472099
 31
0.0
1001
GRADIENTCOLOR1ACI
1070
     5
1001
GRADIENTCOLOR2ACI
1070
     2
1001
ACAD
1010
0.0
1020
0.0
1030
0.0
  0
LINE
  5
2FDB7
  8
0
 10
6584.2815251263264145
 20
221.3739753648528108
 30
0.0
 11
6584.74418243996206
 21
221.8366326784878879
 31
0.0
1001
GRADIENTCOLOR1ACI
1070
     5
1001
GRADIENTCOLOR2ACI
1070
     2
1001
ACAD
1010
0.0
1020
0.0
1030
0.0
  0
LINE
  5
2FDB8
  8
0
 10
6584.3168804653860207
 20
221.3739753648528108
 30
0.0
 11
6584.74418243996206
 21
221.8012773394285944
 31
0.0
1001
GRADIENTCOLOR1ACI
1070
     5
1001
GRADIENTCOLOR2ACI
1070
     2
1001
ACAD
1010
0.0
1020
0.0
1030
0.0
  0
LINE
  5
2FDB9
  8
0
 10
6584.3522358044447174
 20
221.3739753648528108
 30
0.0
 11
6584.74418243996206
 21
221.7659220003691871
 31
0.0
1001
GRADIENTCOLOR1ACI
1070
     5
1001
GRADIENTCOLOR2ACI
1070
     2
1001
ACAD
1010
0.0
1020
0.0
1030
0.0
  0
LINE
  5
2FDBA
  8
0
 10
6584.387591143505233
 20
221.3739753648528108
 30
0.0
 11
6584.74418243996206
 21
221.7305666613098936
 31
0.0
1001
GRADIENTCOLOR1ACI
1070
     5
1001
GRADIENTCOLOR2ACI
1070
     2
1001
ACAD
1010
0.0
1020
0.0
1030
0.0
  0
LINE
  5
2FDBB
  8
0
 10
6584.4229464825648392
 20
221.3739753648528108
 30
0.0
 11
6584.74418243996206
 21
221.6952113222506
 31
0.0
1001
GRADIENTCOLOR1ACI
1070
     5
1001
GRADIENTCOLOR2ACI
1070
     2
1001
ACAD
1010
0.0
1020
0.0
1030
0.0
  0
LINE
  5
2FDBC
  8
0
 10
6584.4583018216244454
 20
221.3739753648528108
 30
0.0
 11
6584.74418243996206
 21
221.6598559831913064
 31
0.0
1001
GRADIENTCOLOR1ACI
1070
     5
1001
GRADIENTCOLOR2ACI
1070
     2
1001
ACAD
1010
0.0
1020
0.0
1030
0.0
  0
LINE
  5
2FDBD
  8
0
 10
6584.4936571606840516
 20
221.3739753648528108
 30
0.0
 11
6584.74418243996206
 21
221.6245006441318992
 31
0.0
1001
GRADIENTCOLOR1ACI
1070
     5
1001
GRADIENTCOLOR2ACI
1070
     2
1001
ACAD
1010
0.0
1020
0.0
1030
0.0
  0
LINE
  5
2FDBE
  8
0
 10
6584.5290124997418388
 20
221.3739753648528108
 30
0.0
 11
6584.74418243996206
 21
221.5891453050726057
 31
0.0
1001
GRADIENTCOLOR1ACI
1070
     5
1001
GRADIENTCOLOR2ACI
1070
     2
1001
ACAD
1010
0.0
1020
0.0
1030
0.0
  0
LINE
  5
2FDBF
  8
0
 10
6584.564367838801445
 20
221.3739753648528108
 30
0.0
 11
6584.74418243996206
 21
221.5537899660131984
 31
0.0
1001
GRADIENTCOLOR1ACI
1070
     5
1001
GRADIENTCOLOR2ACI
1070
     2
1001
ACAD
1010
0.0
1020
0.0
1030
0.0
  0
LINE
  5
2FDC0
  8
0
 10
6584.5997231778610512
 20
221.3739753648528108
 30
0.0
 11
6584.74418243996206
 21
221.5184346269539049
 31
0.0
1001
GRADIENTCOLOR1ACI
1070
     5
1001
GRADIENTCOLOR2ACI
1070
     2
1001
ACAD
1010
0.0
1020
0.0
1030
0.0
  0
LINE
  5
2FDC1
  8
0
 10
6584.6350785169188384
 20
221.3739753648528108
 30
0.0
 11
6584.74418243996206
 21
221.4830792878946113
 31
0.0
1001
GRADIENTCOLOR1ACI
1070
     5
1001
GRADIENTCOLOR2ACI
1070
     2
1001
ACAD
1010
0.0
1020
0.0
1030
0.0
  0
LINE
  5
2FDC2
  8
0
 10
6584.6704338559793541
 20
221.3739753648528108
 30
0.0
 11
6584.74418243996206
 21
221.4477239488352893
 31
0.0
1001
GRADIENTCOLOR1ACI
1070
     5
1001
GRADIENTCOLOR2ACI
1070
     2
1001
ACAD
1010
0.0
1020
0.0
1030
0.0
  0
LINE
  5
2FDC3
  8
0
 10
6584.7057891950380508
 20
221.3739753648528108
 30
0.0
 11
6584.74418243996206
 21
221.4123686097759958
 31
0.0
1001
GRADIENTCOLOR1ACI
1070
     5
1001
GRADIENTCOLOR2ACI
1070
     2
1001
ACAD
1010
0.0
1020
0.0
1030
0.0
  0
LINE
  5
2FDC4
  8
0
 10
6584.741144534097657
 20
221.3739753648528108
 30
0.0
 11
6584.74418243996206
 21
221.3770132707165885
 31
0.0
1001
GRADIENTCOLOR1ACI
1070
     5
1001
GRADIENTCOLOR2ACI
1070
     2
1001
ACAD
1010
0.0
1020
0.0
1030
0.0
  0
LINE
  5
2FDC5
  8
0
 10
6583.1584615163801573
 20
221.3739753648528108
 30
0.0
 11
6583.1300092115643565
 21
221.4024276696696063
 31
0.0
1001
GRADIENTCOLOR1ACI
1070
     5
1001
GRADIENTCOLOR2ACI
1070
     2
1001
ACAD
1010
0.0
1020
0.0
1030
0.0
  0
LINE
  5
2FDC6
  8
0
 10
6583.1938168554397635
 20
221.3739753648528108
 30
0.0
 11
6583.1300092115643565
 21
221.4377830087288999
 31
0.0
1001
GRADIENTCOLOR1ACI
1070
     5
1001
GRADIENTCOLOR2ACI
1070
     2
1001
ACAD
1010
0.0
1020
0.0
1030
0.0
  0
LINE
  5
2FDC7
  8
0
 10
6583.2291721944975507
 20
221.3739753648528108
 30
0.0
 11
6583.1300092115643565
 21
221.4731383477881934
 31
0.0
1001
GRADIENTCOLOR1ACI
1070
     5
1001
GRADIENTCOLOR2ACI
1070
     2
1001
ACAD
1010
0.0
1020
0.0
1030
0.0
  0
LINE
  5
2FDC8
  8
0
 10
6583.2645275335571569
 20
221.3739753648528108
 30
0.0
 11
6583.1300092115643565
 21
221.5084936868476007
 31
0.0
1001
GRADIENTCOLOR1ACI
1070
     5
1001
GRADIENTCOLOR2ACI
1070
     2
1001
ACAD
1010
0.0
1020
0.0
1030
0.0
  0
LINE
  5
2FDC9
  8
0
 10
6583.2998828726167631
 20
221.3739753648528108
 30
0.0
 11
6583.1300092115643565
 21
221.5438490259068942
 31
0.0
1001
GRADIENTCOLOR1ACI
1070
     5
1001
GRADIENTCOLOR2ACI
1070
     2
1001
ACAD
1010
0.0
1020
0.0
1030
0.0
  0
LINE
  5
2FDCA
  8
0
 10
6583.3352382116772787
 20
221.3739753648528108
 30
0.0
 11
6583.1300092115643565
 21
221.5792043649661878
 31
0.0
1001
GRADIENTCOLOR1ACI
1070
     5
1001
GRADIENTCOLOR2ACI
1070
     2
1001
ACAD
1010
0.0
1020
0.0
1030
0.0
  0
LINE
  5
2FDCB
  8
0
 10
6583.3705935507359754
 20
221.3739753648528108
 30
0.0
 11
6583.1300092115643565
 21
221.614559704025595
 31
0.0
1001
GRADIENTCOLOR1ACI
1070
     5
1001
GRADIENTCOLOR2ACI
1070
     2
1001
ACAD
1010
0.0
1020
0.0
1030
0.0
  0
LINE
  5
2FDCC
  8
0
 10
6583.4059488897955816
 20
221.3739753648528108
 30
0.0
 11
6583.1300092115643565
 21
221.6499150430848886
 31
0.0
1001
GRADIENTCOLOR1ACI
1070
     5
1001
GRADIENTCOLOR2ACI
1070
     2
1001
ACAD
1010
0.0
1020
0.0
1030
0.0
  0
LINE
  5
2FDCD
  8
0
 10
6583.4413042288551878
 20
221.3739753648528108
 30
0.0
 11
6583.1300092115643565
 21
221.6852703821442105
 31
0.0
1001
GRADIENTCOLOR1ACI
1070
     5
1001
GRADIENTCOLOR2ACI
1070
     2
1001
ACAD
1010
0.0
1020
0.0
1030
0.0
  0
LINE
  5
2FDCE
  8
0
 10
6583.4766595679138845
 20
221.3739753648528108
 30
0.0
 11
6583.1300092115643565
 21
221.7206257212035041
 31
0.0
1001
GRADIENTCOLOR1ACI
1070
     5
1001
GRADIENTCOLOR2ACI
1070
     2
1001
ACAD
1010
0.0
1020
0.0
1030
0.0
  0
LINE
  5
2FDCF
  8
0
 10
6583.5120149069744002
 20
221.3739753648528108
 30
0.0
 11
6583.1300092115643565
 21
221.7559810602629113
 31
0.0
1001
GRADIENTCOLOR1ACI
1070
     5
1001
GRADIENTCOLOR2ACI
1070
     2
1001
ACAD
1010
0.0
1020
0.0
1030
0.0
  0
LINE
  5
2FDD0
  8
0
 10
6583.5473702460321874
 20
221.3739753648528108
 30
0.0
 11
6583.1300092115643565
 21
221.7913363993222049
 31
0.0
1001
GRADIENTCOLOR1ACI
1070
     5
1001
GRADIENTCOLOR2ACI
1070
     2
1001
ACAD
1010
0.0
1020
0.0
1030
0.0
  0
LINE
  5
2FDD1
  8
0
 10
6583.5827255850917936
 20
221.3739753648528108
 30
0.0
 11
6583.1300092115643565
 21
221.8266917383814985
 31
0.0
1001
GRADIENTCOLOR1ACI
1070
     5
1001
GRADIENTCOLOR2ACI
1070
     2
1001
ACAD
1010
0.0
1020
0.0
1030
0.0
  0
LINE
  5
2FDD2
  8
0
 10
6583.6180809241513998
 20
221.3739753648528108
 30
0.0
 11
6583.1300092115643565
 21
221.862047077440792
 31
0.0
1001
GRADIENTCOLOR1ACI
1070
     5
1001
GRADIENTCOLOR2ACI
1070
     2
1001
ACAD
1010
0.0
1020
0.0
1030
0.0
  0
LINE
  5
2FDD3
  8
0
 10
6583.653436263211006
 20
221.3739753648528108
 30
0.0
 11
6583.1300092115643565
 21
221.8974024165001993
 31
0.0
1001
GRADIENTCOLOR1ACI
1070
     5
1001
GRADIENTCOLOR2ACI
1070
     2
1001
ACAD
1010
0.0
1020
0.0
1030
0.0
  0
LINE
  5
2FDD4
  8
0
 10
6583.6887916022697027
 20
221.3739753648528108
 30
0.0
 11
6583.1300092115643565
 21
221.9327577555594928
 31
0.0
1001
GRADIENTCOLOR1ACI
1070
     5
1001
GRADIENTCOLOR2ACI
1070
     2
1001
ACAD
1010
0.0
1020
0.0
1030
0.0
  0
LINE
  5
2FDD5
  8
0
 10
6583.7241469413302184
 20
221.3739753648528108
 30
0.0
 11
6583.1300092115643565
 21
221.9681130946189
 31
0.0
1001
GRADIENTCOLOR1ACI
1070
     5
1001
GRADIENTCOLOR2ACI
1070
     2
1001
ACAD
1010
0.0
1020
0.0
1030
0.0
  0
LINE
  5
2FDD6
  8
0
 10
6583.7595022803898246
 20
221.3739753648528108
 30
0.0
 11
6583.1300092115643565
 21
222.0034684336781083
 31
0.0
1001
GRADIENTCOLOR1ACI
1070
     5
1001
GRADIENTCOLOR2ACI
1070
     2
1001
ACAD
1010
0.0
1020
0.0
1030
0.0
  0
LINE
  5
2FDD7
  8
0
 10
6583.7948576194476118
 20
221.3739753648528108
 30
0.0
 11
6583.1300092115643565
 21
222.0388237727374872
 31
0.0
1001
GRADIENTCOLOR1ACI
1070
     5
1001
GRADIENTCOLOR2ACI
1070
     2
1001
ACAD
1010
0.0
1020
0.0
1030
0.0
  0
LINE
  5
2FDD8
  8
0
 10
6583.830212958507218
 20
221.3739753648528108
 30
0.0
 11
6583.1300092115643565
 21
222.0741791117968091
 31
0.0
1001
GRADIENTCOLOR1ACI
1070
     5
1001
GRADIENTCOLOR2ACI
1070
     2
1001
ACAD
1010
0.0
1020
0.0
1030
0.0
  0
LINE
  5
2FDD9
  8
0
 10
6583.8655682975668242
 20
221.3739753648528108
 30
0.0
 11
6583.1332848330166598
 21
222.1062588294014972
 31
0.0
1001
GRADIENTCOLOR1ACI
1070
     5
1001
GRADIENTCOLOR2ACI
1070
     2
1001
ACAD
1010
0.0
1020
0.0
1030
0.0
  0
LINE
  5
2FDDA
  8
0
 10
6583.9009236366246114
 20
221.3739753648528108
 30
0.0
 11
6583.1686401720771755
 21
222.1062588294014972
 31
0.0
1001
GRADIENTCOLOR1ACI
1070
     5
1001
GRADIENTCOLOR2ACI
1070
     2
1001
ACAD
1010
0.0
1020
0.0
1030
0.0
  0
LINE
  5
2FDDB
  8
0
 10
6583.9362789756842176
 20
221.3739753648528108
 30
0.0
 11
6583.2039955111367817
 21
222.1062588294014972
 31
0.0
1001
GRADIENTCOLOR1ACI
1070
     5
1001
GRADIENTCOLOR2ACI
1070
     2
1001
ACAD
1010
0.0
1020
0.0
1030
0.0
  0
LINE
  5
2FDDC
  8
0
 10
6583.9716343147438238
 20
221.3739753648528108
 30
0.0
 11
6583.2393508501945689
 21
222.1062588294014972
 31
0.0
1001
GRADIENTCOLOR1ACI
1070
     5
1001
GRADIENTCOLOR2ACI
1070
     2
1001
ACAD
1010
0.0
1020
0.0
1030
0.0
  0
LINE
  5
2FDDD
  8
0
 10
6584.0069896538043395
 20
221.3739753648528108
 30
0.0
 11
6583.2747061892541751
 21
222.1062588294014972
 31
0.0
1001
GRADIENTCOLOR1ACI
1070
     5
1001
GRADIENTCOLOR2ACI
1070
     2
1001
ACAD
1010
0.0
1020
0.0
1030
0.0
  0
LINE
  5
2FDDE
  8
0
 10
6584.0423449928630362
 20
221.3739753648528108
 30
0.0
 11
6583.3100615283137813
 21
222.1062588294014972
 31
0.0
1001
GRADIENTCOLOR1ACI
1070
     5
1001
GRADIENTCOLOR2ACI
1070
     2
1001
ACAD
1010
0.0
1020
0.0
1030
0.0
  0
LINE
  5
2FDDF
  8
0
 10
6584.0777003319226424
 20
221.3739753648528108
 30
0.0
 11
6583.3454168673733875
 21
222.1062588294014972
 31
0.0
1001
GRADIENTCOLOR1ACI
1070
     5
1001
GRADIENTCOLOR2ACI
1070
     2
1001
ACAD
1010
0.0
1020
0.0
1030
0.0
  0
LINE
  5
2FDE0
  8
0
 10
6584.1130556709822486
 20
221.3739753648528108
 30
0.0
 11
6583.3807722064329937
 21
222.1062588294014972
 31
0.0
1001
GRADIENTCOLOR1ACI
1070
     5
1001
GRADIENTCOLOR2ACI
1070
     2
1001
ACAD
1010
0.0
1020
0.0
1030
0.0
  0
LINE
  5
2FDE1
  8
0
 10
6584.1484110100409453
 20
221.3739753648528108
 30
0.0
 11
6583.4161275454925999
 21
222.1062588294014972
 31
0.0
1001
GRADIENTCOLOR1ACI
1070
     5
1001
GRADIENTCOLOR2ACI
1070
     2
1001
ACAD
1010
0.0
1020
0.0
1030
0.0
  0
LINE
  5
2FDE2
  8
0
 10
6584.183766349099642
 20
221.3739753648528108
 30
0.0
 11
6583.4514828845522061
 21
222.1062588294014972
 31
0.0
1001
GRADIENTCOLOR1ACI
1070
     5
1001
GRADIENTCOLOR2ACI
1070
     2
1001
ACAD
1010
0.0
1020
0.0
1030
0.0
  0
LINE
  5
2FDE3
  8
0
 10
6584.2191216881601576
 20
221.3739753648528108
 30
0.0
 11
6583.4868382236109028
 21
222.1062588294014972
 31
0.0
1001
GRADIENTCOLOR1ACI
1070
     5
1001
GRADIENTCOLOR2ACI
1070
     2
1001
ACAD
1010
0.0
1020
0.0
1030
0.0
  0
LINE
  5
2FDE4
  8
0
 10
6584.2544770272188543
 20
221.3739753648528108
 30
0.0
 11
6583.5221935626714185
 21
222.1062588294014972
 31
0.0
1001
GRADIENTCOLOR1ACI
1070
     5
1001
GRADIENTCOLOR2ACI
1070
     2
1001
ACAD
1010
0.0
1020
0.0
1030
0.0
  0
LINE
  5
2FDE5
  8
0
 10
6584.289832366277551
 20
221.3739753648528108
 30
0.0
 11
6583.5575489017301152
 21
222.1062588294014972
 31
0.0
1001
GRADIENTCOLOR1ACI
1070
     5
1001
GRADIENTCOLOR2ACI
1070
     2
1001
ACAD
1010
0.0
1020
0.0
1030
0.0
  0
LINE
  5
2FDE6
  8
0
 10
6584.3251877053380667
 20
221.3739753648528108
 30
0.0
 11
6583.5929042407879024
 21
222.1062588294014972
 31
0.0
1001
GRADIENTCOLOR1ACI
1070
     5
1001
GRADIENTCOLOR2ACI
1070
     2
1001
ACAD
1010
0.0
1020
0.0
1030
0.0
  0
LINE
  5
2FDE7
  8
0
 10
6584.3605430443967634
 20
221.3739753648528108
 30
0.0
 11
6583.6282595798484181
 21
222.1062588294014972
 31
0.0
1001
GRADIENTCOLOR1ACI
1070
     5
1001
GRADIENTCOLOR2ACI
1070
     2
1001
ACAD
1010
0.0
1020
0.0
1030
0.0
  0
LINE
  5
2FDE8
  8
0
 10
6584.3958983834572791
 20
221.3739753648528108
 30
0.0
 11
6583.6636149189080243
 21
222.1062588294014972
 31
0.0
1001
GRADIENTCOLOR1ACI
1070
     5
1001
GRADIENTCOLOR2ACI
1070
     2
1001
ACAD
1010
0.0
1020
0.0
1030
0.0
  0
LINE
  5
2FDE9
  8
0
 10
6584.4312537225168853
 20
221.3739753648528108
 30
0.0
 11
6583.698970257966721
 21
222.1062588294014972
 31
0.0
1001
GRADIENTCOLOR1ACI
1070
     5
1001
GRADIENTCOLOR2ACI
1070
     2
1001
ACAD
1010
0.0
1020
0.0
1030
0.0
  0
LINE
  5
2FDEA
  8
0
 10
6584.466609061575582
 20
221.3739753648528108
 30
0.0
 11
6583.7343255970272367
 21
222.1062588294014972
 31
0.0
1001
GRADIENTCOLOR1ACI
1070
     5
1001
GRADIENTCOLOR2ACI
1070
     2
1001
ACAD
1010
0.0
1020
0.0
1030
0.0
  0
LINE
  5
2FDEB
  8
0
 10
6584.5019644006342787
 20
221.3739753648528108
 30
0.0
 11
6583.7696809360859334
 21
222.1062588294014972
 31
0.0
1001
GRADIENTCOLOR1ACI
1070
     5
1001
GRADIENTCOLOR2ACI
1070
     2
1001
ACAD
1010
0.0
1020
0.0
1030
0.0
  0
LINE
  5
2FDEC
  8
0
 10
6584.5373197396938849
 20
221.3739753648528108
 30
0.0
 11
6583.805036275146449
 21
222.1062588294014972
 31
0.0
1001
GRADIENTCOLOR1ACI
1070
     5
1001
GRADIENTCOLOR2ACI
1070
     2
1001
ACAD
1010
0.0
1020
0.0
1030
0.0
  0
LINE
  5
2FDED
  8
0
 10
6584.5726750787525816
 20
221.3739753648528108
 30
0.0
 11
6583.8403916142042362
 21
222.1062588294014972
 31
0.0
1001
GRADIENTCOLOR1ACI
1070
     5
1001
GRADIENTCOLOR2ACI
1070
     2
1001
ACAD
1010
0.0
1020
0.0
1030
0.0
  0
LINE
  5
2FDEE
  8
0
 10
6584.6080304178112783
 20
221.3739753648528108
 30
0.0
 11
6583.8757469532638424
 21
222.1062588294014972
 31
0.0
1001
GRADIENTCOLOR1ACI
1070
     5
1001
GRADIENTCOLOR2ACI
1070
     2
1001
ACAD
1010
0.0
1020
0.0
1030
0.0
  0
LINE
  5
2FDEF
  8
0
 10
6584.6433857568708845
 20
221.3739753648528108
 30
0.0
 11
6583.9111022923234486
 21
222.1062588294014972
 31
0.0
1001
GRADIENTCOLOR1ACI
1070
     5
1001
GRADIENTCOLOR2ACI
1070
     2
1001
ACAD
1010
0.0
1020
0.0
1030
0.0
  0
LINE
  5
2FDF0
  8
0
 10
6584.6787410959314002
 20
221.3739753648528108
 30
0.0
 11
6583.9464576313812358
 21
222.1062588294014972
 31
0.0
1001
GRADIENTCOLOR1ACI
1070
     5
1001
GRADIENTCOLOR2ACI
1070
     2
1001
ACAD
1010
0.0
1020
0.0
1030
0.0
  0
LINE
  5
2FDF1
  8
0
 10
6584.7140964349900969
 20
221.3739753648528108
 30
0.0
 11
6583.981812970440842
 21
222.1062588294014972
 31
0.0
1001
GRADIENTCOLOR1ACI
1070
     5
1001
GRADIENTCOLOR2ACI
1070
     2
1001
ACAD
1010
0.0
1020
0.0
1030
0.0
  0
LINE
  5
2FDF2
  8
0
 10
6584.74418243996206
 20
221.3792446989407949
 30
0.0
 11
6584.0171683095004482
 21
222.1062588294014972
 31
0.0
1001
GRADIENTCOLOR1ACI
1070
     5
1001
GRADIENTCOLOR2ACI
1070
     2
1001
ACAD
1010
0.0
1020
0.0
1030
0.0
  0
LINE
  5
2FDF3
  8
0
 10
6584.74418243996206
 20
221.4146000380000885
 30
0.0
 11
6584.0525236485600544
 21
222.1062588294014972
 31
0.0
1001
GRADIENTCOLOR1ACI
1070
     5
1001
GRADIENTCOLOR2ACI
1070
     2
1001
ACAD
1010
0.0
1020
0.0
1030
0.0
  0
LINE
  5
2FDF4
  8
0
 10
6584.74418243996206
 20
221.4499553770594105
 30
0.0
 11
6584.0878789876196606
 21
222.1062588294014972
 31
0.0
1001
GRADIENTCOLOR1ACI
1070
     5
1001
GRADIENTCOLOR2ACI
1070
     2
1001
ACAD
1010
0.0
1020
0.0
1030
0.0
  0
LINE
  5
2FDF5
  8
0
 10
6584.74418243996206
 20
221.4853107161187893
 30
0.0
 11
6584.1232343266792668
 21
222.1062588294014972
 31
0.0
1001
GRADIENTCOLOR1ACI
1070
     5
1001
GRADIENTCOLOR2ACI
1070
     2
1001
ACAD
1010
0.0
1020
0.0
1030
0.0
  0
LINE
  5
2FDF6
  8
0
 10
6584.74418243996206
 20
221.5206660551781113
 30
0.0
 11
6584.158589665737054
 21
222.1062588294014972
 31
0.0
1001
GRADIENTCOLOR1ACI
1070
     5
1001
GRADIENTCOLOR2ACI
1070
     2
1001
ACAD
1010
0.0
1020
0.0
1030
0.0
  0
LINE
  5
2FDF7
  8
0
 10
6584.74418243996206
 20
221.5560213942374048
 30
0.0
 11
6584.1939450047966602
 21
222.1062588294014972
 31
0.0
1001
GRADIENTCOLOR1ACI
1070
     5
1001
GRADIENTCOLOR2ACI
1070
     2
1001
ACAD
1010
0.0
1020
0.0
1030
0.0
  0
LINE
  5
2FDF8
  8
0
 10
6584.74418243996206
 20
221.5913767332966984
 30
0.0
 11
6584.2293003438571759
 21
222.1062588294014972
 31
0.0
1001
GRADIENTCOLOR1ACI
1070
     5
1001
GRADIENTCOLOR2ACI
1070
     2
1001
ACAD
1010
0.0
1020
0.0
1030
0.0
  0
LINE
  5
2FDF9
  8
0
 10
6584.74418243996206
 20
221.6267320723561056
 30
0.0
 11
6584.2646556829158726
 21
222.1062588294014972
 31
0.0
1001
GRADIENTCOLOR1ACI
1070
     5
1001
GRADIENTCOLOR2ACI
1070
     2
1001
ACAD
1010
0.0
1020
0.0
1030
0.0
  0
LINE
  5
2FDFA
  8
0
 10
6584.74418243996206
 20
221.6620874114153992
 30
0.0
 11
6584.3000110219763883
 21
222.1062588294014972
 31
0.0
1001
GRADIENTCOLOR1ACI
1070
     5
1001
GRADIENTCOLOR2ACI
1070
     2
1001
ACAD
1010
0.0
1020
0.0
1030
0.0
  0
LINE
  5
2FDFB
  8
0
 10
6584.74418243996206
 20
221.6974427504746927
 30
0.0
 11
6584.3353663610359945
 21
222.1062588294014972
 31
0.0
1001
GRADIENTCOLOR1ACI
1070
     5
1001
GRADIENTCOLOR2ACI
1070
     2
1001
ACAD
1010
0.0
1020
0.0
1030
0.0
  0
LINE
  5
2FDFC
  8
0
 10
6584.74418243996206
 20
221.7327980895339863
 30
0.0
 11
6584.3707217000946912
 21
222.1062588294014972
 31
0.0
1001
GRADIENTCOLOR1ACI
1070
     5
1001
GRADIENTCOLOR2ACI
1070
     2
1001
ACAD
1010
0.0
1020
0.0
1030
0.0
  0
LINE
  5
2FDFD
  8
0
 10
6584.74418243996206
 20
221.7681534285933935
 30
0.0
 11
6584.4060770391542974
 21
222.1062588294014972
 31
0.0
1001
GRADIENTCOLOR1ACI
1070
     5
1001
GRADIENTCOLOR2ACI
1070
     2
1001
ACAD
1010
0.0
1020
0.0
1030
0.0
  0
LINE
  5
2FDFE
  8
0
 10
6584.74418243996206
 20
221.8035087676526871
 30
0.0
 11
6584.4414323782129941
 21
222.1062588294014972
 31
0.0
1001
GRADIENTCOLOR1ACI
1070
     5
1001
GRADIENTCOLOR2ACI
1070
     2
1001
ACAD
1010
0.0
1020
0.0
1030
0.0
  0
LINE
  5
2FDFF
  8
0
 10
6584.74418243996206
 20
221.8388641067120091
 30
0.0
 11
6584.4767877172726003
 21
222.1062588294014972
 31
0.0
1001
GRADIENTCOLOR1ACI
1070
     5
1001
GRADIENTCOLOR2ACI
1070
     2
1001
ACAD
1010
0.0
1020
0.0
1030
0.0
  0
LINE
  5
2FE00
  8
0
 10
6584.74418243996206
 20
221.8742194457713879
 30
0.0
 11
6584.512143056331297
 21
222.1062588294014972
 31
0.0
1001
GRADIENTCOLOR1ACI
1070
     5
1001
GRADIENTCOLOR2ACI
1070
     2
1001
ACAD
1010
0.0
1020
0.0
1030
0.0
  0
LINE
  5
2FE01
  8
0
 10
6584.74418243996206
 20
221.9095747848307099
 30
0.0
 11
6584.5474983953909032
 21
222.1062588294014972
 31
0.0
1001
GRADIENTCOLOR1ACI
1070
     5
1001
GRADIENTCOLOR2ACI
1070
     2
1001
ACAD
1010
0.0
1020
0.0
1030
0.0
  0
LINE
  5
2FE02
  8
0
 10
6584.74418243996206
 20
221.9449301238900034
 30
0.0
 11
6584.5828537344495999
 21
222.1062588294014972
 31
0.0
1001
GRADIENTCOLOR1ACI
1070
     5
1001
GRADIENTCOLOR2ACI
1070
     2
1001
ACAD
1010
0.0
1020
0.0
1030
0.0
  0
LINE
  5
2FE03
  8
0
 10
6584.74418243996206
 20
221.980285462949297
 30
0.0
 11
6584.6182090735101156
 21
222.1062588294014972
 31
0.0
1001
GRADIENTCOLOR1ACI
1070
     5
1001
GRADIENTCOLOR2ACI
1070
     2
1001
ACAD
1010
0.0
1020
0.0
1030
0.0
  0
LINE
  5
2FE04
  8
0
 10
6584.74418243996206
 20
222.0156408020087042
 30
0.0
 11
6584.6535644125688123
 21
222.1062588294014972
 31
0.0
1001
GRADIENTCOLOR1ACI
1070
     5
1001
GRADIENTCOLOR2ACI
1070
     2
1001
ACAD
1010
0.0
1020
0.0
1030
0.0
  0
LINE
  5
2FE05
  8
0
 10
6584.74418243996206
 20
222.0509961410679978
 30
0.0
 11
6584.6889197516293279
 21
222.1062588294014972
 31
0.0
1001
GRADIENTCOLOR1ACI
1070
     5
1001
GRADIENTCOLOR2ACI
1070
     2
1001
ACAD
1010
0.0
1020
0.0
1030
0.0
  0
LINE
  5
2FE06
  8
0
 10
6584.74418243996206
 20
222.086351480127405
 30
0.0
 11
6584.7242750906889341
 21
222.1062588294014972
 31
0.0
1001
GRADIENTCOLOR1ACI
1070
     5
1001
GRADIENTCOLOR2ACI
1070
     2
1001
ACAD
1010
0.0
1020
0.0
1030
0.0
  0
LINE
  5
2FE07
  8
0
 10
6583.1300092115643565
 20
221.3739753648528108
 30
0.0
 11
6583.1300092115643565
 21
223.0983848136528138
 31
0.0
  0
LINE
  5
2FE08
  8
0
 10
6583.1300092115643565
 20
223.1457548923528122
 30
0.0
 11
6583.1300092115643565
 21
224.3582273333528008
 31
0.0
  0
LINE
  5
2FE09
  8
0
 10
6583.3859147233615658
 20
220.820266681845311
 30
0.0
 11
6583.3859147233615658
 21
221.3739753648528108
 31
0.0
  0
LINE
  5
2FE0A
  8
0
 10
6583.1380092115632578
 20
223.1377548923528877
 30
0.0
 11
6584.7361824399613397
 21
223.1377548923528877
 31
0.0
  0
LINE
  5
2FE0B
  8
0
 10
6583.1300092115643565
 20
223.0983848136528138
 30
0.0
 11
6584.74418243996206
 21
223.0983848136528138
 31
0.0
  0
LINE
  5
2FE0C
  8
0
 10
6583.3071745659626686
 20
223.1259548923528087
 30
0.0
 11
6583.3071745659626686
 21
223.1062588293528961
 31
0.0
  0
ARC
  5
2FE0D
  8
0
 10
6583.3189745659619803
 20
223.1259548923528087
 30
0.0
 40
0.0118
 50
90.0
 51
179.9999999999917861
  0
ARC
  5
2FE0E
  8
0
 10
6583.1380092115632578
 20
223.1457548923528122
 30
0.0
 40
0.008
 50
180.0
 51
270.0
  0
LINE
  5
2FE0F
  8
0
 10
6583.1300092115643565
 20
222.1062588294014972
 30
0.0
 11
6584.74418243996206
 21
222.1062588294014972
 31
0.0
  0
LINE
  5
2FE10
  8
0
 10
6583.1300092115643565
 20
221.3739753648528108
 30
0.0
 11
6584.74418243996206
 21
221.3739753648528108
 31
0.0
  0
ARC
  5
2FE11
  8
0
 10
6583.4559103807978317
 20
220.8293386236904041
 30
0.0
 40
0.0705811036233271
 50
187.3847798042129114
 51
223.6809545668764088
  0
ARC
  5
2FE12
  8
0
 10
6583.5195781174315925
 20
220.8901403569543902
 30
0.0
 40
0.1586176384027265
 50
223.6809545668764088
 51
241.7654719096439919
  0
ARC
  5
2FE13
  8
0
 10
6583.6587789422446804
 20
221.1570666556073093
 30
0.0
 40
0.4596524331080671
 50
242.219136581069705
 51
255.5787761330518038
  0
ARC
  5
2FE14
  8
0
 10
6583.8162715748321716
 20
221.7235014377413904
 30
0.0
 40
1.04752542805904
 50
254.9519236213270119
 51
261.400766515373391
  0
ARC
  5
2FE15
  8
0
 10
6583.9062821634815919
 20
222.2933228166039896
 30
0.0
 40
1.6244041056255489
 50
261.2668099525138814
 51
265.8160778889633207
  0
ARC
  5
2FE16
  8
0
 10
6583.927151137331748
 20
222.5236253070407884
 30
0.0
 40
1.8556197378034791
 50
265.6922345295211016
 51
269.109101216641875
  0
ARC
  5
2FE17
  8
0
 10
6583.9381681855811621
 20
222.6715411539358911
 30
0.0
 40
2.003707958796817
 50
268.8598718338806748
 51
269.969336003078979
  0
LINE
  5
2FE18
  8
0
 10
6582.0670170856619734
 20
224.7519281207528081
 30
0.0
 11
6585.8071745658626241
 21
224.7519281207528081
 31
0.0
  0
LINE
  5
2FE19
  8
0
 10
6582.0748911012497047
 20
224.3582273333528008
 30
0.0
 11
6585.7993005502748929
 21
224.3582273333528008
 31
0.0
  0
LINE
  5
2FE1A
  8
0
 10
6585.8071745658626241
 20
224.3661013490527978
 30
0.0
 11
6585.8071745658626241
 21
224.7519281207528081
 31
0.0
  0
LINE
  5
2FE1B
  8
0
 10
6584.74418243996206
 20
221.3739753648528108
 30
0.0
 11
6584.74418243996206
 21
223.0983848136528138
 31
0.0
  0
LINE
  5
2FE1C
  8
0
 10
6584.74418243996206
 20
223.1457548923528122
 30
0.0
 11
6584.74418243996206
 21
224.3582273333528008
 31
0.0
  0
LINE
  5
2FE1D
  8
0
 10
6584.4882769281621222
 20
220.820266681845311
 30
0.0
 11
6584.4882769281621222
 21
221.3739753648528108
 31
0.0
  0
LINE
  5
2FE1E
  8
0
 10
6584.5670170855628385
 20
223.1259548923528087
 30
0.0
 11
6584.5670170855628385
 21
223.1062588293528961
 31
0.0
  0
ARC
  5
2FE1F
  8
0
 10
6584.5552170855617078
 20
223.1259548923528087
 30
0.0
 40
0.0118
 50
0.0000000000081422
 51
90.0
  0
ARC
  5
2FE20
  8
0
 10
6584.7361824399613397
 20
223.1457548923528122
 30
0.0
 40
0.008
 50
270.0
 51
0.0
  0
ARC
  5
2FE21
  8
0
 10
6584.4182812707267658
 20
220.8293386236904041
 30
0.0
 40
0.0705811036233271
 50
316.3190454331224259
 51
352.6152201957871171
  0
ARC
  5
2FE22
  8
0
 10
6584.354613534093005
 20
220.8901403569543902
 30
0.0
 40
0.1586176384027265
 50
298.2345280903559228
 51
316.3190454331224259
  0
ARC
  5
2FE23
  8
0
 10
6584.2154127092799172
 20
221.1570666556073093
 30
0.0
 40
0.4596524331080671
 50
284.4212238669480826
 51
297.7808634189303234
  0
ARC
  5
2FE24
  8
0
 10
6584.0579200766924259
 20
221.7235014377413904
 30
0.0
 40
1.04752542805904
 50
278.599233484626609
 51
285.0480763786729881
  0
ARC
  5
2FE25
  8
0
 10
6583.9679094880420962
 20
222.2933228166039896
 30
0.0
 40
1.6244041056255489
 50
274.1839221110366793
 51
278.7331900474861186
  0
ARC
  5
2FE26
  8
0
 10
6583.9470405141928495
 20
222.5236253070407884
 30
0.0
 40
1.8556197378034791
 50
270.890898783358125
 51
274.3077654704788984
  0
ARC
  5
2FE27
  8
0
 10
6583.9360234659443449
 20
222.6715411539358911
 30
0.0
 40
2.003707958796817
 50
270.030663996921021
 51
271.1401281661192115
  0
LINE
  5
2FE29
  8
0
 10
6585.8071745658626241
 20
224.3661013490527978
 30
0.0
 11
6582.0670170856619734
 21
224.3661013490527978
 31
0.0
  0
LINE
  5
2FE2A
  8
0
 10
6585.7993005502748929
 20
224.3582273333528008
 30
0.0
 11
6585.8071745658626241
 21
224.3661013490527978
 31
0.0
  0
LINE
  5
2FE2B
  8
0
 10
6582.0748911012497047
 20
224.3582273333528008
 30
0.0
 11
6582.0670170856619734
 21
224.3661013490527978
 31
0.0
  0
ARC
  5
2FE2C
  8
0
 10
6584.5788281091627141
 20
223.1062588294527984
 30
0.0
 40
0.0118110236000018
 50
180.0
 51
221.9159614159997886
  0
ARC
  5
2FE2D
  8
0
 10
6583.295363542261839
 20
223.1062588294527984
 30
0.0
 40
0.0118110235999858
 50
318.0840385839820783
 51
0.0000000000179129
  0
ENDSEC
  0
EOF
