  0
SECTION
  2
HEADER
  9
$ACADVER
  1
AC1009
  9
$INSBASE
 10
6945.6276232262080157
 20
312.029294723522014
 30
0.0
  9
$EXTMIN
 10
6943.7575444861076903
 20
308.5692226919082941
 30
0.0
  9
$EXTMAX
 10
6947.4977019663092506
 20
313.8993734636720205
 30
0.0
  9
$LIMMIN
 10
0.0
 20
0.0
  9
$LIMMAX
 10
11.6929133858000007
 20
8.2677165353999982
  9
$ORTHOMODE
 70
     0
  9
$REGENMODE
 70
     1
  9
$FILLMODE
 70
     1
  9
$QTEXTMODE
 70
     0
  9
$MIRRTEXT
 70
     0
  9
$DRAGMODE
 70
     2
  9
$LTSCALE
 40
0.6431102362
  9
$OSMODE
 70
  4095
  9
$ATTMODE
 70
     1
  9
$TEXTSIZE
 40
0.2
  9
$TRACEWID
 40
0.05
  9
$TEXTSTYLE
  7
STANDARD
  9
$CLAYER
  8
0
  9
$CELTYPE
  6
BYLAYER
  9
$CECOLOR
 62
   256
  9
$DIMSCALE
 40
1.0
  9
$DIMASZ
 40
0.1875
  9
$DIMEXO
 40
0.0625
  9
$DIMDLI
 40
0.4443307087
  9
$DIMRND
 40
0.0
  9
$DIMDLE
 40
0.0
  9
$DIMEXE
 40
0.125
  9
$DIMTP
 40
0.01
  9
$DIMTM
 40
0.01
  9
$DIMTXT
 40
2.0
  9
$DIMCEN
 40
0.1052362205
  9
$DIMTSZ
 40
0.0
  9
$DIMTOL
 70
     1
  9
$DIMLIM
 70
     0
  9
$DIMTIH
 70
     1
  9
$DIMTOH
 70
     1
  9
$DIMSE1
 70
     0
  9
$DIMSE2
 70
     0
  9
$DIMTAD
 70
     0
  9
$DIMZIN
 70
     0
  9
$DIMBLK
  1

  9
$DIMASO
 70
     1
  9
$DIMSHO
 70
     1
  9
$DIMPOST
  1
\X
  9
$DIMAPOST
  1

  9
$DIMALT
 70
     1
  9
$DIMALTD
 70
     2
  9
$DIMALTF
 40
25.3999999999999986
  9
$DIMLFAC
 40
1.0
  9
$DIMTOFL
 70
     0
  9
$DIMTVP
 40
0.0
  9
$DIMTIX
 70
     0
  9
$DIMSOXD
 70
     0
  9
$DIMSAH
 70
     0
  9
$DIMBLK1
  1

  9
$DIMBLK2
  1

  9
$DIMSTYLE
  2
STANDARD
  9
$DIMCLRD
 70
     0
  9
$DIMCLRE
 70
     0
  9
$DIMCLRT
 70
     0
  9
$DIMTFAC
 40
1.0
  9
$DIMGAP
 40
0.09
  9
$LUNITS
 70
     2
  9
$LUPREC
 70
     4
  9
$SKETCHINC
 40
0.1
  9
$FILLETRAD
 40
0.0
  9
$AUNITS
 70
     0
  9
$AUPREC
 70
     0
  9
$MENU
  1
.
  9
$ELEVATION
 40
0.0
  9
$PELEVATION
 40
0.0
  9
$THICKNESS
 40
0.0
  9
$LIMCHECK
 70
     0
  9
$BLIPMODE
 70
     0
  9
$CHAMFERA
 40
0.0
  9
$CHAMFERB
 40
0.0
  9
$SKPOLY
 70
     0
  9
$TDCREATE
 40
2458060.468368056230247
  9
$TDUPDATE
 40
2460626.5858101858757436
  9
$TDINDWG
 40
0.9428195602
  9
$TDUSRTIMER
 40
0.9428195602
  9
$USRTIMER
 70
     1
  9
$ANGBASE
 50
0.0
  9
$ANGDIR
 70
     0
  9
$PDMODE
 70
     0
  9
$PDSIZE
 40
0.3125
  9
$PLINEWID
 40
0.0
  9
$COORDS
 70
     2
  9
$SPLFRAME
 70
     0
  9
$SPLINETYPE
 70
     6
  9
$SPLINESEGS
 70
     8
  9
$ATTDIA
 70
     1
  9
$ATTREQ
 70
     1
  9
$HANDLING
 70
     1
  9
$HANDSEED
  5
354CD
  9
$SURFTAB1
 70
     6
  9
$SURFTAB2
 70
     6
  9
$SURFTYPE
 70
     6
  9
$SURFU
 70
     6
  9
$SURFV
 70
     6
  9
$UCSNAME
  2

  9
$UCSORG
 10
0.0
 20
0.0
 30
0.0
  9
$UCSXDIR
 10
1.0
 20
0.0
 30
0.0
  9
$UCSYDIR
 10
0.0
 20
1.0
 30
0.0
  9
$PUCSNAME
  2

  9
$PUCSORG
 10
0.0
 20
0.0
 30
0.0
  9
$PUCSXDIR
 10
1.0
 20
0.0
 30
0.0
  9
$PUCSYDIR
 10
0.0
 20
1.0
 30
0.0
  9
$USERI1
 70
     0
  9
$USERI2
 70
     0
  9
$USERI3
 70
     0
  9
$USERI4
 70
     0
  9
$USERI5
 70
     0
  9
$USERR1
 40
0.0
  9
$USERR2
 40
0.0
  9
$USERR3
 40
0.0
  9
$USERR4
 40
0.0
  9
$USERR5
 40
0.0
  9
$WORLDVIEW
 70
     1
  9
$SHADEDGE
 70
     3
  9
$SHADEDIF
 70
    70
  9
$TILEMODE
 70
     1
  9
$MAXACTVP
 70
    64
  9
$PLIMCHECK
 70
     0
  9
$PEXTMIN
 10
1.0000000000000000E+20
 20
1.0000000000000000E+20
 30
1.0000000000000000E+20
  9
$PEXTMAX
 10
-1.0000000000000000E+20
 20
-1.0000000000000000E+20
 30
-1.0000000000000000E+20
  9
$PLIMMIN
 10
0.0
 20
0.0
  9
$PLIMMAX
 10
12.0
 20
9.0
  9
$UNITMODE
 70
     0
  9
$VISRETAIN
 70
     1
  9
$PLINEGEN
 70
     0
  9
$PSLTSCALE
 70
     1
  0
ENDSEC
  0
SECTION
  2
TABLES
  0
TABLE
  2
VPORT
 70
     1
  0
VPORT
  2
*ACTIVE
 70
     0
 10
0.0
 20
0.0
 11
1.0
 21
1.0
 12
3034.2622667808959704
 22
178.6546929752510096
 13
0.0
 23
0.0
 14
1.0
 24
1.0
 15
0.0
 25
0.0
 16
0.0
 26
0.0
 36
60.4960186965801583
 17
3911.3653564453120453
 27
132.5796051025390057
 37
0.0
 40
5.3679532595066908
 41
2.21775147928994
 42
50.0
 43
0.0
 44
0.0
 50
0.0
 51
0.0
 71
     0
 72
   100
 73
     1
 74
     1
 75
     0
 76
     0
 77
     0
 78
     0
  0
ENDTAB
  0
TABLE
  2
LTYPE
 70
     2
  0
LTYPE
  2
CONTINUOUS
 70
     0
  3
Solid line
 72
    65
 73
     0
 40
0.0
  0
LTYPE
  2
PHANTOM2
 70
     0
  3
___ _ _ ___ _ _ ___ _ _ ___ _ _
 72
    65
 73
     6
 40
1.25
 49
0.625
 49
-0.125
 49
0.125
 49
-0.125
 49
0.125
 49
-0.125
  0
ENDTAB
  0
TABLE
  2
LAYER
 70
     2
  0
LAYER
  2
0
 70
     0
 62
   255
  6
CONTINUOUS
  0
LAYER
  2
DEFPOINTS
 70
     0
 62
     7
  6
CONTINUOUS
  0
ENDTAB
  0
TABLE
  2
STYLE
 70
     1
  0
STYLE
  2
STANDARD
 70
     0
 40
0.0
 41
0.8
 50
0.0
 71
     0
 42
0.2
  3
txt
  4

  0
ENDTAB
  0
TABLE
  2
VIEW
 70
     0
  0
ENDTAB
  0
TABLE
  2
UCS
 70
     0
  0
ENDTAB
  0
TABLE
  2
APPID
 70
    11
  0
APPID
  2
ACAD
 70
     0
  0
APPID
  2
ACAD_MLEADERVER
 70
     0
  0
APPID
  2
ACAD_EXEMPT_FROM_CAD_STANDARDS
 70
     0
  0
APPID
  2
ACAD_NAV_VCDISPLAY
 70
     0
  0
APPID
  2
ACAECLAYERSTANDARD
 70
     0
  0
APPID
  2
ACCMTRANSPARENCY
 70
     0
  0
APPID
  2
ACAD_DSTYLE_DIMJAG
 70
     0
  0
APPID
  2
ACAD_DSTYLE_DIMTALN
 70
     0
  0
APPID
  2
ACDBATTR
 70
     0
  0
APPID
  2
ACADANNOTATIVE
 70
     0
  0
APPID
  2
DCO15
 70
     0
  0
ENDTAB
  0
TABLE
  2
DIMSTYLE
 70
     1
  0
DIMSTYLE
  2
STANDARD
 70
     0
  3

  4

  5

  6

  7

 40
1.0
 41
0.1875
 42
0.0625
 43
0.38
 44
0.125
 45
0.0
 46
0.0
 47
0.01
 48
0.01
140
0.15625
141
0.09
142
0.0
143
25.3999999999999986
144
1.0
145
0.0
146
1.0
147
0.09
 71
     1
 72
     0
 73
     1
 74
     1
 75
     0
 76
     0
 77
     0
 78
     4
170
     0
171
     2
172
     0
173
     0
174
     0
175
     0
176
     0
177
     0
178
     0
  0
ENDTAB
  0
ENDSEC
  0
SECTION
  2
BLOCKS
  0
BLOCK
  8
0
  2
$MODEL_SPACE
 70
     0
 10
0.0
 20
0.0
 30
0.0
  3
$MODEL_SPACE
  1

  0
ENDBLK
  5
21
  8
0
  0
BLOCK
 67
     1
  8
0
  2
$PAPER_SPACE
 70
     0
 10
0.0
 20
0.0
 30
0.0
  3
$PAPER_SPACE
  1

  0
ENDBLK
  5
1D
 67
     1
  8
0
  0
BLOCK
  8
0
  2
_FILLED
 70
     0
 10
0.0
 20
0.0
 30
0.0
  3
_FILLED
  1

  0
SOLID
  5
2853B
  8
0
  6
BYBLOCK
 62
     0
 10
0.0
 20
0.0
 30
0.0
 11
-1.0
 21
0.1666666667
 31
0.0
 12
-1.0
 22
-0.1666666667
 32
0.0
 13
-1.0
 23
-0.1666666667
 33
0.0
  0
ENDBLK
  5
2853C
  8
0
  6
BYBLOCK
 62
     0
  0
ENDSEC
  0
SECTION
  2
ENTITIES
  0
ATTDEF
  5
2842F
  8
DEFPOINTS
 10
6945.6280587224346164
 20
312.0272241277999115
 30
0.0
 40
0.001
  1
P33490-LV
  3

  2
MODELNUMBER
 70
     0
1001
ACDBATTR
1070
     0
1070
     1
  0
ATTDEF
  5
28430
  8
DEFPOINTS
 10
6945.6279329127783058
 20
312.0255572874207814
 30
0.0
 40
0.001
  1
AILERON
  3

  2
TRADENAME
 70
     0
1001
ACDBATTR
1070
     0
1070
     1
  0
ATTDEF
  5
28431
  8
DEFPOINTS
 10
6945.6280587224346164
 20
312.0238907944665812
 30
0.0
 40
0.001
  1
VALVE TRIM
  3

  2
PRODUCT
 70
     0
1001
ACDBATTR
1070
     0
1070
     1
  0
LINE
  5
351E3
  8
0
 10
6947.1040019663087151
 20
313.8993734636720205
 30
0.0
 11
6944.1512444861091353
 21
313.8993734636720205
 31
0.0
  0
LINE
  5
351E4
  8
0
 10
6943.7575444861076903
 20
313.5056734636718829
 30
0.0
 11
6943.7575444861076903
 21
310.5529159833719746
 31
0.0
  0
ARC
  5
351E5
  8
0
 10
6945.6276232262080157
 20
312.0292947235719794
 30
0.0
 40
0.5511811024000002
 50
359.9999999948020104
 51
180.0000000051979896
  0
ARC
  5
351E6
  8
0
 10
6945.6276232262080157
 20
312.0292947235719794
 30
0.0
 40
0.8070866141992691
 50
313.0727813486988111
 51
226.9272186513011889
  0
LINE
  5
351E7
  8
0
 10
6947.1040019663087151
 20
310.1592159833720075
 30
0.0
 11
6946.1788043286069296
 21
310.1592159833720075
 31
0.0
  0
LINE
  5
351E8
  8
0
 10
6945.0764421238081923
 20
310.1592159833720075
 30
0.0
 11
6944.1512444861091353
 21
310.1592159833720075
 31
0.0
  0
LINE
  5
351E9
  8
0
 10
6945.0764421238081923
 20
312.029294723522014
 30
0.0
 11
6945.0764421238081923
 21
309.1204037943082881
 31
0.0
  0
ARC
  5
351EA
  8
0
 10
6944.1512444861091353
 20
313.5056734636718829
 30
0.0
 40
0.3937
 50
90.0
 51
180.0
  0
ARC
  5
351EB
  8
0
 10
6944.1512444861091353
 20
310.5529159833719746
 30
0.0
 40
0.3937
 50
180.0
 51
270.0
  0
ARC
  5
351EC
  8
0
 10
6945.6276232262080157
 20
309.1204037943082881
 30
0.0
 40
0.551181102400001
 50
180.0
 51
0.0
  0
LINE
  5
351ED
  8
0
 10
6946.1788043286069296
 20
312.029294723522014
 30
0.0
 11
6946.1788043286069296
 21
309.1204037943082881
 31
0.0
  0
ARC
  5
351EE
  8
0
 10
6945.6276232262080157
 20
309.1616811468792889
 30
0.0
 40
0.5511811024000002
 50
180.0
 51
0.0
  0
LINE
  5
351EF
  8
0
 10
6947.4977019663092506
 20
313.5056734636718829
 30
0.0
 11
6947.4977019663092506
 21
310.5529159833719746
 31
0.0
  0
ARC
  5
351F0
  8
0
 10
6947.1040019663087151
 20
313.5056734636718829
 30
0.0
 40
0.3937
 50
0.0
 51
90.0
  0
ARC
  5
351F1
  8
0
 10
6947.1040019663087151
 20
310.5529159833719746
 30
0.0
 40
0.3937
 50
270.0
 51
0.0
  0
LINE
  5
351F2
  8
0
 10
6946.1788043286069296
 20
311.2041494209959183
 30
0.0
 11
6945.0764421238081923
 21
311.2041494209959183
 31
0.0
  0
LINE
  5
351F3
  8
0
 10
6946.1788043286069296
 20
311.3337142349776059
 30
0.0
 11
6945.0764421238081923
 21
311.3337142349776059
 31
0.0
  0
CIRCLE
  5
351F4
  8
0
 10
6945.6276232262080157
 20
312.029294723522014
 30
0.0
 40
0.1496062992500002
  0
CIRCLE
  5
351F5
  8
0
 10
6945.6276232262080157
 20
312.029294723522014
 30
0.0
 40
0.1771653543499996
  0
LINE
  5
351F6
  8
0
 10
6945.5705366120091639
 20
312.0622536956719841
 30
0.0
 11
6945.5705366120091639
 21
311.996335751371987
 31
0.0
  0
LINE
  5
351F7
  8
0
 10
6945.5705366120091639
 20
312.0622536956719841
 30
0.0
 11
6945.6276232262080157
 21
312.0952126676720013
 31
0.0
  0
LINE
  5
351F8
  8
0
 10
6945.5705366120091639
 20
311.996335751371987
 30
0.0
 11
6945.6276232262080157
 21
311.9633767793720267
 31
0.0
  0
LINE
  5
351F9
  8
0
 10
6945.6847098404077769
 20
312.0622536956719841
 30
0.0
 11
6945.6847098404077769
 21
311.996335751371987
 31
0.0
  0
LINE
  5
351FA
  8
0
 10
6945.6847098404077769
 20
312.0622536956719841
 30
0.0
 11
6945.6276232262080157
 21
312.0952126676720013
 31
0.0
  0
LINE
  5
351FB
  8
0
 10
6945.6847098404077769
 20
311.996335751371987
 30
0.0
 11
6945.6276232262080157
 21
311.9633767793720267
 31
0.0
  0
ENDSEC
  0
EOF
