  0
SECTION
  2
HEADER
  9
$ACADVER
  1
AC1009
  9
$INSBASE
 10
6589.6228480667314216
 20
224.6418178120233904
 30
0.0
  9
$EXTMIN
 10
6587.2606433423316048
 20
220.7821326222664879
 30
0.0
  9
$EXTMAX
 10
6591.9850528329707231
 20
224.6463919179620063
 30
0.0
  9
$LIMMIN
 10
0.0
 20
0.0
  9
$LIMMAX
 10
11.6929133858000007
 20
8.2677165353999982
  9
$ORTHOMODE
 70
     0
  9
$REGENMODE
 70
     1
  9
$FILLMODE
 70
     1
  9
$QTEXTMODE
 70
     0
  9
$MIRRTEXT
 70
     0
  9
$DRAGMODE
 70
     2
  9
$LTSCALE
 40
0.6431102362
  9
$OSMODE
 70
  4095
  9
$ATTMODE
 70
     1
  9
$TEXTSIZE
 40
0.2
  9
$TRACEWID
 40
0.05
  9
$TEXTSTYLE
  7
STANDARD
  9
$CLAYER
  8
0
  9
$CELTYPE
  6
BYLAYER
  9
$CECOLOR
 62
   256
  9
$DIMSCALE
 40
1.0
  9
$DIMASZ
 40
0.1875
  9
$DIMEXO
 40
0.0625
  9
$DIMDLI
 40
0.4443307087
  9
$DIMRND
 40
0.0
  9
$DIMDLE
 40
0.0
  9
$DIMEXE
 40
0.125
  9
$DIMTP
 40
0.01
  9
$DIMTM
 40
0.01
  9
$DIMTXT
 40
2.0
  9
$DIMCEN
 40
0.1052362205
  9
$DIMTSZ
 40
0.0
  9
$DIMTOL
 70
     1
  9
$DIMLIM
 70
     0
  9
$DIMTIH
 70
     1
  9
$DIMTOH
 70
     1
  9
$DIMSE1
 70
     0
  9
$DIMSE2
 70
     0
  9
$DIMTAD
 70
     0
  9
$DIMZIN
 70
     0
  9
$DIMBLK
  1

  9
$DIMASO
 70
     1
  9
$DIMSHO
 70
     1
  9
$DIMPOST
  1
\X
  9
$DIMAPOST
  1

  9
$DIMALT
 70
     1
  9
$DIMALTD
 70
     2
  9
$DIMALTF
 40
25.3999999999999986
  9
$DIMLFAC
 40
1.0
  9
$DIMTOFL
 70
     0
  9
$DIMTVP
 40
0.0
  9
$DIMTIX
 70
     0
  9
$DIMSOXD
 70
     0
  9
$DIMSAH
 70
     0
  9
$DIMBLK1
  1

  9
$DIMBLK2
  1

  9
$DIMSTYLE
  2
STANDARD
  9
$DIMCLRD
 70
     0
  9
$DIMCLRE
 70
     0
  9
$DIMCLRT
 70
     0
  9
$DIMTFAC
 40
1.0
  9
$DIMGAP
 40
0.09
  9
$LUNITS
 70
     2
  9
$LUPREC
 70
     4
  9
$SKETCHINC
 40
0.1
  9
$FILLETRAD
 40
0.0
  9
$AUNITS
 70
     0
  9
$AUPREC
 70
     0
  9
$MENU
  1
.
  9
$ELEVATION
 40
0.0
  9
$PELEVATION
 40
0.0
  9
$THICKNESS
 40
0.0
  9
$LIMCHECK
 70
     0
  9
$BLIPMODE
 70
     0
  9
$CHAMFERA
 40
0.0
  9
$CHAMFERB
 40
0.0
  9
$SKPOLY
 70
     0
  9
$TDCREATE
 40
2458060.468368056230247
  9
$TDUPDATE
 40
2460626.6795023148879409
  9
$TDINDWG
 40
0.9753890046
  9
$TDUSRTIMER
 40
0.9753890046
  9
$USRTIMER
 70
     1
  9
$ANGBASE
 50
0.0
  9
$ANGDIR
 70
     0
  9
$PDMODE
 70
     0
  9
$PDSIZE
 40
0.3125
  9
$PLINEWID
 40
0.0
  9
$COORDS
 70
     1
  9
$SPLFRAME
 70
     0
  9
$SPLINETYPE
 70
     6
  9
$SPLINESEGS
 70
     8
  9
$ATTDIA
 70
     1
  9
$ATTREQ
 70
     1
  9
$HANDLING
 70
     1
  9
$HANDSEED
  5
300AA
  9
$SURFTAB1
 70
     6
  9
$SURFTAB2
 70
     6
  9
$SURFTYPE
 70
     6
  9
$SURFU
 70
     6
  9
$SURFV
 70
     6
  9
$UCSNAME
  2

  9
$UCSORG
 10
0.0
 20
0.0
 30
0.0
  9
$UCSXDIR
 10
1.0
 20
0.0
 30
0.0
  9
$UCSYDIR
 10
0.0
 20
1.0
 30
0.0
  9
$PUCSNAME
  2

  9
$PUCSORG
 10
0.0
 20
0.0
 30
0.0
  9
$PUCSXDIR
 10
1.0
 20
0.0
 30
0.0
  9
$PUCSYDIR
 10
0.0
 20
1.0
 30
0.0
  9
$USERI1
 70
     0
  9
$USERI2
 70
     0
  9
$USERI3
 70
     0
  9
$USERI4
 70
     0
  9
$USERI5
 70
     0
  9
$USERR1
 40
0.0
  9
$USERR2
 40
0.0
  9
$USERR3
 40
0.0
  9
$USERR4
 40
0.0
  9
$USERR5
 40
0.0
  9
$WORLDVIEW
 70
     1
  9
$SHADEDGE
 70
     3
  9
$SHADEDIF
 70
    70
  9
$TILEMODE
 70
     1
  9
$MAXACTVP
 70
    64
  9
$PLIMCHECK
 70
     0
  9
$PEXTMIN
 10
1.0000000000000000E+20
 20
1.0000000000000000E+20
 30
1.0000000000000000E+20
  9
$PEXTMAX
 10
-1.0000000000000000E+20
 20
-1.0000000000000000E+20
 30
-1.0000000000000000E+20
  9
$PLIMMIN
 10
0.0
 20
0.0
  9
$PLIMMAX
 10
12.0
 20
9.0
  9
$UNITMODE
 70
     0
  9
$VISRETAIN
 70
     1
  9
$PLINEGEN
 70
     0
  9
$PSLTSCALE
 70
     1
  0
ENDSEC
  0
SECTION
  2
TABLES
  0
TABLE
  2
VPORT
 70
     1
  0
VPORT
  2
*ACTIVE
 70
     0
 10
0.0
 20
0.0
 11
1.0
 21
1.0
 12
2678.2574916423400282
 22
90.1346571675751989
 13
0.0
 23
0.0
 14
1.0
 24
1.0
 15
0.0
 25
0.0
 16
0.0
 26
0.0
 36
60.4960186965801583
 17
3911.3653564453120453
 27
132.5796051025390057
 37
0.0
 40
3.8906748076263109
 41
2.1449438202247189
 42
50.0
 43
0.0
 44
0.0
 50
0.0
 51
0.0
 71
     0
 72
   100
 73
     1
 74
     1
 75
     0
 76
     0
 77
     0
 78
     0
  0
ENDTAB
  0
TABLE
  2
LTYPE
 70
     2
  0
LTYPE
  2
CONTINUOUS
 70
     0
  3
Solid line
 72
    65
 73
     0
 40
0.0
  0
LTYPE
  2
PHANTOM2
 70
     0
  3
___ _ _ ___ _ _ ___ _ _ ___ _ _
 72
    65
 73
     6
 40
1.25
 49
0.625
 49
-0.125
 49
0.125
 49
-0.125
 49
0.125
 49
-0.125
  0
ENDTAB
  0
TABLE
  2
LAYER
 70
     2
  0
LAYER
  2
0
 70
     0
 62
   255
  6
CONTINUOUS
  0
LAYER
  2
DEFPOINTS
 70
     0
 62
     7
  6
CONTINUOUS
  0
ENDTAB
  0
TABLE
  2
STYLE
 70
     1
  0
STYLE
  2
STANDARD
 70
     0
 40
0.0
 41
0.8
 50
0.0
 71
     0
 42
0.2
  3
txt
  4

  0
ENDTAB
  0
TABLE
  2
VIEW
 70
     0
  0
ENDTAB
  0
TABLE
  2
UCS
 70
     0
  0
ENDTAB
  0
TABLE
  2
APPID
 70
    13
  0
APPID
  2
ACAD
 70
     0
  0
APPID
  2
ACAD_MLEADERVER
 70
     0
  0
APPID
  2
ACAD_EXEMPT_FROM_CAD_STANDARDS
 70
     0
  0
APPID
  2
ACAD_NAV_VCDISPLAY
 70
     0
  0
APPID
  2
ACAECLAYERSTANDARD
 70
     0
  0
APPID
  2
ACCMTRANSPARENCY
 70
     0
  0
APPID
  2
ACAD_DSTYLE_DIMJAG
 70
     0
  0
APPID
  2
ACAD_DSTYLE_DIMTALN
 70
     0
  0
APPID
  2
ACDBATTR
 70
     0
  0
APPID
  2
ACADANNOTATIVE
 70
     0
  0
APPID
  2
DCO15
 70
     0
  0
APPID
  2
GRADIENTCOLOR1ACI
 70
     0
  0
APPID
  2
GRADIENTCOLOR2ACI
 70
     0
  0
ENDTAB
  0
TABLE
  2
DIMSTYLE
 70
     1
  0
DIMSTYLE
  2
STANDARD
 70
     0
  3

  4

  5

  6

  7

 40
1.0
 41
0.1875
 42
0.0625
 43
0.38
 44
0.125
 45
0.0
 46
0.0
 47
0.01
 48
0.01
140
0.15625
141
0.09
142
0.0
143
25.3999999999999986
144
1.0
145
0.0
146
1.0
147
0.09
 71
     1
 72
     0
 73
     1
 74
     1
 75
     0
 76
     0
 77
     0
 78
     4
170
     0
171
     2
172
     0
173
     0
174
     0
175
     0
176
     0
177
     0
178
     0
  0
ENDTAB
  0
ENDSEC
  0
SECTION
  2
BLOCKS
  0
BLOCK
  8
0
  2
$MODEL_SPACE
 70
     0
 10
0.0
 20
0.0
 30
0.0
  3
$MODEL_SPACE
  1

  0
ENDBLK
  5
21
  8
0
  0
BLOCK
 67
     1
  8
0
  2
$PAPER_SPACE
 70
     0
 10
0.0
 20
0.0
 30
0.0
  3
$PAPER_SPACE
  1

  0
ENDBLK
  5
1D
 67
     1
  8
0
  0
BLOCK
  8
0
  2
_FILLED
 70
     0
 10
0.0
 20
0.0
 30
0.0
  3
_FILLED
  1

  0
SOLID
  5
26C2A
  8
0
  6
BYBLOCK
 62
     0
 10
0.0
 20
0.0
 30
0.0
 11
-1.0
 21
0.1666666667
 31
0.0
 12
-1.0
 22
-0.1666666667
 32
0.0
 13
-1.0
 23
-0.1666666667
 33
0.0
  0
ENDBLK
  5
26C2B
  8
0
  6
BYBLOCK
 62
     0
  0
ENDSEC
  0
SECTION
  2
ENTITIES
  0
ATTDEF
  5
26A5B
  8
DEFPOINTS
 10
6589.6194679023137724
 20
224.6453919179618879
 30
0.0
 40
0.001
  1
P33491-LV
  3

  2
MODELNUMBER
 70
     0
1001
ACDBATTR
1070
     0
1070
     1
  0
ATTDEF
  5
26A5C
  8
DEFPOINTS
 10
6589.6193420926565523
 20
224.6437250775827863
 30
0.0
 40
0.001
  1
AILERON
  3

  2
TRADENAME
 70
     0
1001
ACDBATTR
1070
     0
1070
     1
  0
ATTDEF
  5
26A5D
  8
DEFPOINTS
 10
6589.6194679023137724
 20
224.642058584628586
 30
0.0
 40
0.001
  1
VALVE TRIM
  3

  2
PRODUCT
 70
     0
1001
ACDBATTR
1070
     0
1070
     1
  0
LINE
  5
2FF6D
  8
0
 10
6587.2606433423316048
 20
224.2678020639453109
 30
0.0
 11
6587.2606433423316048
 21
224.6418178120233904
 31
0.0
  0
LINE
  5
2FF6E
  8
0
 10
6588.8157614525343888
 20
222.2184655761043075
 30
0.0
 11
6588.8257278617020347
 21
222.2284319852720955
 31
0.0
1001
GRADIENTCOLOR1ACI
1070
     5
1001
GRADIENTCOLOR2ACI
1070
     2
1001
ACAD
1010
0.0
1020
0.0
1030
0.0
  0
LINE
  5
2FF6F
  8
0
 10
6588.8157614525343888
 20
222.1831102370450139
 30
0.0
 11
6588.8610832007607314
 21
222.2284319852720955
 31
0.0
1001
GRADIENTCOLOR1ACI
1070
     5
1001
GRADIENTCOLOR2ACI
1070
     2
1001
ACAD
1010
0.0
1020
0.0
1030
0.0
  0
LINE
  5
2FF70
  8
0
 10
6588.8157614525343888
 20
222.1477548979856067
 30
0.0
 11
6588.8964385398194281
 21
222.2284319852720955
 31
0.0
1001
GRADIENTCOLOR1ACI
1070
     5
1001
GRADIENTCOLOR2ACI
1070
     2
1001
ACAD
1010
0.0
1020
0.0
1030
0.0
  0
LINE
  5
2FF71
  8
0
 10
6588.8157614525343888
 20
222.1123995589263131
 30
0.0
 11
6588.9317938788790343
 21
222.2284319852720955
 31
0.0
1001
GRADIENTCOLOR1ACI
1070
     5
1001
GRADIENTCOLOR2ACI
1070
     2
1001
ACAD
1010
0.0
1020
0.0
1030
0.0
  0
LINE
  5
2FF72
  8
0
 10
6588.8157614525343888
 20
222.0770442198669912
 30
0.0
 11
6588.9671492179386405
 21
222.2284319852720955
 31
0.0
1001
GRADIENTCOLOR1ACI
1070
     5
1001
GRADIENTCOLOR2ACI
1070
     2
1001
ACAD
1010
0.0
1020
0.0
1030
0.0
  0
LINE
  5
2FF73
  8
0
 10
6588.8157614525343888
 20
222.0416888808076976
 30
0.0
 11
6589.0025045569982467
 21
222.2284319852720955
 31
0.0
1001
GRADIENTCOLOR1ACI
1070
     5
1001
GRADIENTCOLOR2ACI
1070
     2
1001
ACAD
1010
0.0
1020
0.0
1030
0.0
  0
LINE
  5
2FF74
  8
0
 10
6588.8157614525343888
 20
222.0063335417482904
 30
0.0
 11
6589.0378598960560339
 21
222.2284319852720955
 31
0.0
1001
GRADIENTCOLOR1ACI
1070
     5
1001
GRADIENTCOLOR2ACI
1070
     2
1001
ACAD
1010
0.0
1020
0.0
1030
0.0
  0
LINE
  5
2FF75
  8
0
 10
6588.8157614525343888
 20
221.9709782026889968
 30
0.0
 11
6589.0732152351156401
 21
222.2284319852720955
 31
0.0
1001
GRADIENTCOLOR1ACI
1070
     5
1001
GRADIENTCOLOR2ACI
1070
     2
1001
ACAD
1010
0.0
1020
0.0
1030
0.0
  0
LINE
  5
2FF76
  8
0
 10
6588.8157614525343888
 20
221.9356228636297033
 30
0.0
 11
6589.1085705741752463
 21
222.2284319852720955
 31
0.0
1001
GRADIENTCOLOR1ACI
1070
     5
1001
GRADIENTCOLOR2ACI
1070
     2
1001
ACAD
1010
0.0
1020
0.0
1030
0.0
  0
LINE
  5
2FF77
  8
0
 10
6588.8157614525343888
 20
221.900267524570296
 30
0.0
 11
6589.1439259132348525
 21
222.2284319852720955
 31
0.0
1001
GRADIENTCOLOR1ACI
1070
     5
1001
GRADIENTCOLOR2ACI
1070
     2
1001
ACAD
1010
0.0
1020
0.0
1030
0.0
  0
LINE
  5
2FF78
  8
0
 10
6588.8157614525343888
 20
221.8649121855110025
 30
0.0
 11
6589.1792812522953682
 21
222.2284319852720955
 31
0.0
1001
GRADIENTCOLOR1ACI
1070
     5
1001
GRADIENTCOLOR2ACI
1070
     2
1001
ACAD
1010
0.0
1020
0.0
1030
0.0
  0
LINE
  5
2FF79
  8
0
 10
6588.8157614525343888
 20
221.8295568464517089
 30
0.0
 11
6589.2146365913540649
 21
222.2284319852720955
 31
0.0
1001
GRADIENTCOLOR1ACI
1070
     5
1001
GRADIENTCOLOR2ACI
1070
     2
1001
ACAD
1010
0.0
1020
0.0
1030
0.0
  0
LINE
  5
2FF7A
  8
0
 10
6588.8157614525343888
 20
221.7942015073923869
 30
0.0
 11
6589.2499919304127616
 21
222.2284319852720955
 31
0.0
1001
GRADIENTCOLOR1ACI
1070
     5
1001
GRADIENTCOLOR2ACI
1070
     2
1001
ACAD
1010
0.0
1020
0.0
1030
0.0
  0
LINE
  5
2FF7B
  8
0
 10
6588.8157614525343888
 20
221.7588461683330081
 30
0.0
 11
6589.2853472694732773
 21
222.2284319852720955
 31
0.0
1001
GRADIENTCOLOR1ACI
1070
     5
1001
GRADIENTCOLOR2ACI
1070
     2
1001
ACAD
1010
0.0
1020
0.0
1030
0.0
  0
LINE
  5
2FF7C
  8
0
 10
6588.8157614525343888
 20
221.7234908292736861
 30
0.0
 11
6589.320702608531974
 21
222.2284319852720955
 31
0.0
1001
GRADIENTCOLOR1ACI
1070
     5
1001
GRADIENTCOLOR2ACI
1070
     2
1001
ACAD
1010
0.0
1020
0.0
1030
0.0
  0
LINE
  5
2FF7D
  8
0
 10
6588.8157614525343888
 20
221.6881354902143926
 30
0.0
 11
6589.3560579475897612
 21
222.2284319852720955
 31
0.0
1001
GRADIENTCOLOR1ACI
1070
     5
1001
GRADIENTCOLOR2ACI
1070
     2
1001
ACAD
1010
0.0
1020
0.0
1030
0.0
  0
LINE
  5
2FF7E
  8
0
 10
6588.8157614525343888
 20
221.652780151155099
 30
0.0
 11
6589.3914132866502769
 21
222.2284319852720955
 31
0.0
1001
GRADIENTCOLOR1ACI
1070
     5
1001
GRADIENTCOLOR2ACI
1070
     2
1001
ACAD
1010
0.0
1020
0.0
1030
0.0
  0
LINE
  5
2FF7F
  8
0
 10
6588.8157614525343888
 20
221.6174248120956918
 30
0.0
 11
6589.4267686257098831
 21
222.2284319852720955
 31
0.0
1001
GRADIENTCOLOR1ACI
1070
     5
1001
GRADIENTCOLOR2ACI
1070
     2
1001
ACAD
1010
0.0
1020
0.0
1030
0.0
  0
LINE
  5
2FF80
  8
0
 10
6588.8157614525343888
 20
221.5820694730363982
 30
0.0
 11
6589.4621239647685798
 21
222.2284319852720955
 31
0.0
1001
GRADIENTCOLOR1ACI
1070
     5
1001
GRADIENTCOLOR2ACI
1070
     2
1001
ACAD
1010
0.0
1020
0.0
1030
0.0
  0
LINE
  5
2FF81
  8
0
 10
6588.8157614525343888
 20
221.5467141339771047
 30
0.0
 11
6589.4789805173950299
 21
222.2099331988382005
 31
0.0
1001
GRADIENTCOLOR1ACI
1070
     5
1001
GRADIENTCOLOR2ACI
1070
     2
1001
ACAD
1010
0.0
1020
0.0
1030
0.0
  0
LINE
  5
2FF82
  8
0
 10
6588.8157614525343888
 20
221.5113587949176974
 30
0.0
 11
6589.4789805173950299
 21
222.1745778597789069
 31
0.0
1001
GRADIENTCOLOR1ACI
1070
     5
1001
GRADIENTCOLOR2ACI
1070
     2
1001
ACAD
1010
0.0
1020
0.0
1030
0.0
  0
LINE
  5
2FF83
  8
0
 10
6588.8280325016994539
 20
221.4882745050234121
 30
0.0
 11
6589.4789805173950299
 21
222.1392225207196134
 31
0.0
1001
GRADIENTCOLOR1ACI
1070
     5
1001
GRADIENTCOLOR2ACI
1070
     2
1001
ACAD
1010
0.0
1020
0.0
1030
0.0
  0
LINE
  5
2FF84
  8
0
 10
6588.8633878407590601
 20
221.4882745050234121
 30
0.0
 11
6589.4826762306201999
 21
222.107562894884893
 31
0.0
1001
GRADIENTCOLOR1ACI
1070
     5
1001
GRADIENTCOLOR2ACI
1070
     2
1001
ACAD
1010
0.0
1020
0.0
1030
0.0
  0
LINE
  5
2FF85
  8
0
 10
6588.8987431798168473
 20
221.4882745050234121
 30
0.0
 11
6589.4915816920120051
 21
222.0811130172172909
 31
0.0
1001
GRADIENTCOLOR1ACI
1070
     5
1001
GRADIENTCOLOR2ACI
1070
     2
1001
ACAD
1010
0.0
1020
0.0
1030
0.0
  0
LINE
  5
2FF86
  8
0
 10
6588.9340985188764535
 20
221.4882745050234121
 30
0.0
 11
6589.5043069219136669
 21
222.0584829080613929
 31
0.0
1001
GRADIENTCOLOR1ACI
1070
     5
1001
GRADIENTCOLOR2ACI
1070
     2
1001
ACAD
1010
0.0
1020
0.0
1030
0.0
  0
LINE
  5
2FF87
  8
0
 10
6588.9694538579360596
 20
221.4882745050234121
 30
0.0
 11
6589.5202925679468535
 21
222.0391132150342912
 31
0.0
1001
GRADIENTCOLOR1ACI
1070
     5
1001
GRADIENTCOLOR2ACI
1070
     2
1001
ACAD
1010
0.0
1020
0.0
1030
0.0
  0
LINE
  5
2FF88
  8
0
 10
6589.0048091969938469
 20
221.4882745050234121
 30
0.0
 11
6589.5393735470051979
 21
222.0228388550339105
 31
0.0
1001
GRADIENTCOLOR1ACI
1070
     5
1001
GRADIENTCOLOR2ACI
1070
     2
1001
ACAD
1010
0.0
1020
0.0
1030
0.0
  0
LINE
  5
2FF89
  8
0
 10
6589.0401645360543625
 20
221.4882745050234121
 30
0.0
 11
6589.5616859274232411
 21
222.0097958963920917
 31
0.0
1001
GRADIENTCOLOR1ACI
1070
     5
1001
GRADIENTCOLOR2ACI
1070
     2
1001
ACAD
1010
0.0
1020
0.0
1030
0.0
  0
LINE
  5
2FF8A
  8
0
 10
6589.7667189717340079
 20
222.2148289407018069
 30
0.0
 11
6589.780322016302307
 21
222.2284319852720955
 31
0.0
1001
GRADIENTCOLOR1ACI
1070
     5
1001
GRADIENTCOLOR2ACI
1070
     2
1001
ACAD
1010
0.0
1020
0.0
1030
0.0
  0
LINE
  5
2FF8B
  8
0
 10
6589.0755198751130592
 20
221.4882745050234121
 30
0.0
 11
6589.5877427335553875
 21
222.0004973634646888
 31
0.0
1001
GRADIENTCOLOR1ACI
1070
     5
1001
GRADIENTCOLOR2ACI
1070
     2
1001
ACAD
1010
0.0
1020
0.0
1030
0.0
  0
LINE
  5
2FF8C
  8
0
 10
6589.7667189717340079
 20
222.1794736016423997
 30
0.0
 11
6589.8156773553619132
 21
222.2284319852720955
 31
0.0
1001
GRADIENTCOLOR1ACI
1070
     5
1001
GRADIENTCOLOR2ACI
1070
     2
1001
ACAD
1010
0.0
1020
0.0
1030
0.0
  0
LINE
  5
2FF8D
  8
0
 10
6589.1108752141726654
 20
221.4882745050234121
 30
0.0
 11
6589.6188062527544389
 21
221.9962055436047024
 31
0.0
1001
GRADIENTCOLOR1ACI
1070
     5
1001
GRADIENTCOLOR2ACI
1070
     2
1001
ACAD
1010
0.0
1020
0.0
1030
0.0
  0
LINE
  5
2FF8E
  8
0
 10
6589.7667189717340079
 20
222.1441182625831061
 30
0.0
 11
6589.8510326944224289
 21
222.2284319852720955
 31
0.0
1001
GRADIENTCOLOR1ACI
1070
     5
1001
GRADIENTCOLOR2ACI
1070
     2
1001
ACAD
1010
0.0
1020
0.0
1030
0.0
  0
LINE
  5
2FF8F
  8
0
 10
6589.1462305532322716
 20
221.4882745050234121
 30
0.0
 11
6589.6586226368372081
 21
222.0006665886284054
 31
0.0
1001
GRADIENTCOLOR1ACI
1070
     5
1001
GRADIENTCOLOR2ACI
1070
     2
1001
ACAD
1010
0.0
1020
0.0
1030
0.0
  0
LINE
  5
2FF90
  8
0
 10
6589.7622172097162547
 20
222.1042611615073952
 30
0.0
 11
6589.8863880334811256
 21
222.2284319852720955
 31
0.0
1001
GRADIENTCOLOR1ACI
1070
     5
1001
GRADIENTCOLOR2ACI
1070
     2
1001
ACAD
1010
0.0
1020
0.0
1030
0.0
  0
LINE
  5
2FF91
  8
0
 10
6589.1815858922918778
 20
221.4882745050234121
 30
0.0
 11
6589.9217433725407318
 21
222.2284319852720955
 31
0.0
1001
GRADIENTCOLOR1ACI
1070
     5
1001
GRADIENTCOLOR2ACI
1070
     2
1001
ACAD
1010
0.0
1020
0.0
1030
0.0
  0
LINE
  5
2FF92
  8
0
 10
6589.2169412313505745
 20
221.4882745050234121
 30
0.0
 11
6589.9570987115994285
 21
222.2284319852720955
 31
0.0
1001
GRADIENTCOLOR1ACI
1070
     5
1001
GRADIENTCOLOR2ACI
1070
     2
1001
ACAD
1010
0.0
1020
0.0
1030
0.0
  0
LINE
  5
2FF93
  8
0
 10
6589.2522965704110902
 20
221.4882745050234121
 30
0.0
 11
6589.9924540506581252
 21
222.2284319852720955
 31
0.0
1001
GRADIENTCOLOR1ACI
1070
     5
1001
GRADIENTCOLOR2ACI
1070
     2
1001
ACAD
1010
0.0
1020
0.0
1030
0.0
  0
LINE
  5
2FF94
  8
0
 10
6589.2876519094697869
 20
221.4882745050234121
 30
0.0
 11
6590.0278093897177314
 21
222.2284319852720955
 31
0.0
1001
GRADIENTCOLOR1ACI
1070
     5
1001
GRADIENTCOLOR2ACI
1070
     2
1001
ACAD
1010
0.0
1020
0.0
1030
0.0
  0
LINE
  5
2FF95
  8
0
 10
6589.3230072485303026
 20
221.4882745050234121
 30
0.0
 11
6590.0631647287782471
 21
222.2284319852720955
 31
0.0
1001
GRADIENTCOLOR1ACI
1070
     5
1001
GRADIENTCOLOR2ACI
1070
     2
1001
ACAD
1010
0.0
1020
0.0
1030
0.0
  0
LINE
  5
2FF96
  8
0
 10
6589.3583625875880898
 20
221.4882745050234121
 30
0.0
 11
6590.0985200678369438
 21
222.2284319852720955
 31
0.0
1001
GRADIENTCOLOR1ACI
1070
     5
1001
GRADIENTCOLOR2ACI
1070
     2
1001
ACAD
1010
0.0
1020
0.0
1030
0.0
  0
LINE
  5
2FF97
  8
0
 10
6589.3937179266467865
 20
221.4882745050234121
 30
0.0
 11
6590.13387540689655
 21
222.2284319852720955
 31
0.0
1001
GRADIENTCOLOR1ACI
1070
     5
1001
GRADIENTCOLOR2ACI
1070
     2
1001
ACAD
1010
0.0
1020
0.0
1030
0.0
  0
LINE
  5
2FF98
  8
0
 10
6589.4290732657073022
 20
221.4882745050234121
 30
0.0
 11
6590.1692307459561562
 21
222.2284319852720955
 31
0.0
1001
GRADIENTCOLOR1ACI
1070
     5
1001
GRADIENTCOLOR2ACI
1070
     2
1001
ACAD
1010
0.0
1020
0.0
1030
0.0
  0
LINE
  5
2FF99
  8
0
 10
6589.4644286047669084
 20
221.4882745050234121
 30
0.0
 11
6590.2045860850148529
 21
222.2284319852720955
 31
0.0
1001
GRADIENTCOLOR1ACI
1070
     5
1001
GRADIENTCOLOR2ACI
1070
     2
1001
ACAD
1010
0.0
1020
0.0
1030
0.0
  0
LINE
  5
2FF9A
  8
0
 10
6589.4997839438256051
 20
221.4882745050234121
 30
0.0
 11
6590.2399414240753686
 21
222.2284319852720955
 31
0.0
1001
GRADIENTCOLOR1ACI
1070
     5
1001
GRADIENTCOLOR2ACI
1070
     2
1001
ACAD
1010
0.0
1020
0.0
1030
0.0
  0
LINE
  5
2FF9B
  8
0
 10
6589.5351392828861208
 20
221.4882745050234121
 30
0.0
 11
6590.2752967631349748
 21
222.2284319852720955
 31
0.0
1001
GRADIENTCOLOR1ACI
1070
     5
1001
GRADIENTCOLOR2ACI
1070
     2
1001
ACAD
1010
0.0
1020
0.0
1030
0.0
  0
LINE
  5
2FF9C
  8
0
 10
6589.570494621943908
 20
221.4882745050234121
 30
0.0
 11
6590.310652102192762
 21
222.2284319852720955
 31
0.0
1001
GRADIENTCOLOR1ACI
1070
     5
1001
GRADIENTCOLOR2ACI
1070
     2
1001
ACAD
1010
0.0
1020
0.0
1030
0.0
  0
LINE
  5
2FF9D
  8
0
 10
6589.6058499610026047
 20
221.4882745050234121
 30
0.0
 11
6590.3460074412523682
 21
222.2284319852720955
 31
0.0
1001
GRADIENTCOLOR1ACI
1070
     5
1001
GRADIENTCOLOR2ACI
1070
     2
1001
ACAD
1010
0.0
1020
0.0
1030
0.0
  0
LINE
  5
2FF9E
  8
0
 10
6589.6412053000631204
 20
221.4882745050234121
 30
0.0
 11
6590.3813627803119743
 21
222.2284319852720955
 31
0.0
1001
GRADIENTCOLOR1ACI
1070
     5
1001
GRADIENTCOLOR2ACI
1070
     2
1001
ACAD
1010
0.0
1020
0.0
1030
0.0
  0
LINE
  5
2FF9F
  8
0
 10
6589.6765606391209076
 20
221.4882745050234121
 30
0.0
 11
6590.416718119370671
 21
222.2284319852720955
 31
0.0
1001
GRADIENTCOLOR1ACI
1070
     5
1001
GRADIENTCOLOR2ACI
1070
     2
1001
ACAD
1010
0.0
1020
0.0
1030
0.0
  0
LINE
  5
2FFA0
  8
0
 10
6589.7119159781814233
 20
221.4882745050234121
 30
0.0
 11
6590.4299346809320923
 21
222.2062932077737969
 31
0.0
1001
GRADIENTCOLOR1ACI
1070
     5
1001
GRADIENTCOLOR2ACI
1070
     2
1001
ACAD
1010
0.0
1020
0.0
1030
0.0
  0
LINE
  5
2FFA1
  8
0
 10
6589.74727131724012
 20
221.4882745050234121
 30
0.0
 11
6590.4299346809320923
 21
222.1709378687143897
 31
0.0
1001
GRADIENTCOLOR1ACI
1070
     5
1001
GRADIENTCOLOR2ACI
1070
     2
1001
ACAD
1010
0.0
1020
0.0
1030
0.0
  0
LINE
  5
2FFA2
  8
0
 10
6589.7826266562997262
 20
221.4882745050234121
 30
0.0
 11
6590.4299346809320923
 21
222.1355825296550961
 31
0.0
1001
GRADIENTCOLOR1ACI
1070
     5
1001
GRADIENTCOLOR2ACI
1070
     2
1001
ACAD
1010
0.0
1020
0.0
1030
0.0
  0
LINE
  5
2FFA3
  8
0
 10
6589.8179819953593324
 20
221.4882745050234121
 30
0.0
 11
6590.4299346809320923
 21
222.1002271905958025
 31
0.0
1001
GRADIENTCOLOR1ACI
1070
     5
1001
GRADIENTCOLOR2ACI
1070
     2
1001
ACAD
1010
0.0
1020
0.0
1030
0.0
  0
LINE
  5
2FFA4
  8
0
 10
6589.8533373344189386
 20
221.4882745050234121
 30
0.0
 11
6590.4299346809320923
 21
222.064871851536509
 31
0.0
1001
GRADIENTCOLOR1ACI
1070
     5
1001
GRADIENTCOLOR2ACI
1070
     2
1001
ACAD
1010
0.0
1020
0.0
1030
0.0
  0
LINE
  5
2FFA5
  8
0
 10
6589.8886926734794542
 20
221.4882745050234121
 30
0.0
 11
6590.4299346809320923
 21
222.0295165124771017
 31
0.0
1001
GRADIENTCOLOR1ACI
1070
     5
1001
GRADIENTCOLOR2ACI
1070
     2
1001
ACAD
1010
0.0
1020
0.0
1030
0.0
  0
LINE
  5
2FFA6
  8
0
 10
6589.9240480125372414
 20
221.4882745050234121
 30
0.0
 11
6590.4299346809320923
 21
221.9941611734178082
 31
0.0
1001
GRADIENTCOLOR1ACI
1070
     5
1001
GRADIENTCOLOR2ACI
1070
     2
1001
ACAD
1010
0.0
1020
0.0
1030
0.0
  0
LINE
  5
2FFA7
  8
0
 10
6589.9594033515959381
 20
221.4882745050234121
 30
0.0
 11
6590.4299346809320923
 21
221.9588058343584862
 31
0.0
1001
GRADIENTCOLOR1ACI
1070
     5
1001
GRADIENTCOLOR2ACI
1070
     2
1001
ACAD
1010
0.0
1020
0.0
1030
0.0
  0
LINE
  5
2FFA8
  8
0
 10
6589.9947586906564538
 20
221.4882745050234121
 30
0.0
 11
6590.4299346809320923
 21
221.9234504952991927
 31
0.0
1001
GRADIENTCOLOR1ACI
1070
     5
1001
GRADIENTCOLOR2ACI
1070
     2
1001
ACAD
1010
0.0
1020
0.0
1030
0.0
  0
LINE
  5
2FFA9
  8
0
 10
6590.0301140297151505
 20
221.4882745050234121
 30
0.0
 11
6590.4299346809320923
 21
221.8880951562398138
 31
0.0
1001
GRADIENTCOLOR1ACI
1070
     5
1001
GRADIENTCOLOR2ACI
1070
     2
1001
ACAD
1010
0.0
1020
0.0
1030
0.0
  0
LINE
  5
2FFAA
  8
0
 10
6590.0654693687747567
 20
221.4882745050234121
 30
0.0
 11
6590.4299346809320923
 21
221.8527398171804919
 31
0.0
1001
GRADIENTCOLOR1ACI
1070
     5
1001
GRADIENTCOLOR2ACI
1070
     2
1001
ACAD
1010
0.0
1020
0.0
1030
0.0
  0
LINE
  5
2FFAB
  8
0
 10
6590.1008247078352724
 20
221.4882745050234121
 30
0.0
 11
6590.4299346809320923
 21
221.8173844781211983
 31
0.0
1001
GRADIENTCOLOR1ACI
1070
     5
1001
GRADIENTCOLOR2ACI
1070
     2
1001
ACAD
1010
0.0
1020
0.0
1030
0.0
  0
LINE
  5
2FFAC
  8
0
 10
6590.1361800468939691
 20
221.4882745050234121
 30
0.0
 11
6590.4299346809320923
 21
221.7820291390617911
 31
0.0
1001
GRADIENTCOLOR1ACI
1070
     5
1001
GRADIENTCOLOR2ACI
1070
     2
1001
ACAD
1010
0.0
1020
0.0
1030
0.0
  0
LINE
  5
2FFAD
  8
0
 10
6590.1715353859526658
 20
221.4882745050234121
 30
0.0
 11
6590.4299346809320923
 21
221.7466738000024975
 31
0.0
1001
GRADIENTCOLOR1ACI
1070
     5
1001
GRADIENTCOLOR2ACI
1070
     2
1001
ACAD
1010
0.0
1020
0.0
1030
0.0
  0
LINE
  5
2FFAE
  8
0
 10
6590.2068907250131815
 20
221.4882745050234121
 30
0.0
 11
6590.4299346809320923
 21
221.7113184609432039
 31
0.0
1001
GRADIENTCOLOR1ACI
1070
     5
1001
GRADIENTCOLOR2ACI
1070
     2
1001
ACAD
1010
0.0
1020
0.0
1030
0.0
  0
LINE
  5
2FFAF
  8
0
 10
6590.2422460640718782
 20
221.4882745050234121
 30
0.0
 11
6590.4299346809320923
 21
221.6759631218839104
 31
0.0
1001
GRADIENTCOLOR1ACI
1070
     5
1001
GRADIENTCOLOR2ACI
1070
     2
1001
ACAD
1010
0.0
1020
0.0
1030
0.0
  0
LINE
  5
2FFB0
  8
0
 10
6590.2776014031296654
 20
221.4882745050234121
 30
0.0
 11
6590.4299346809320923
 21
221.6406077828245031
 31
0.0
1001
GRADIENTCOLOR1ACI
1070
     5
1001
GRADIENTCOLOR2ACI
1070
     2
1001
ACAD
1010
0.0
1020
0.0
1030
0.0
  0
LINE
  5
2FFB1
  8
0
 10
6590.3129567421901811
 20
221.4882745050234121
 30
0.0
 11
6590.4299346809320923
 21
221.6052524437652096
 31
0.0
1001
GRADIENTCOLOR1ACI
1070
     5
1001
GRADIENTCOLOR2ACI
1070
     2
1001
ACAD
1010
0.0
1020
0.0
1030
0.0
  0
LINE
  5
2FFB2
  8
0
 10
6590.3483120812497873
 20
221.4882745050234121
 30
0.0
 11
6590.4299346809320923
 21
221.5698971047058876
 31
0.0
1001
GRADIENTCOLOR1ACI
1070
     5
1001
GRADIENTCOLOR2ACI
1070
     2
1001
ACAD
1010
0.0
1020
0.0
1030
0.0
  0
LINE
  5
2FFB3
  8
0
 10
6590.3836674203093935
 20
221.4882745050234121
 30
0.0
 11
6590.4299346809320923
 21
221.5345417656465088
 31
0.0
1001
GRADIENTCOLOR1ACI
1070
     5
1001
GRADIENTCOLOR2ACI
1070
     2
1001
ACAD
1010
0.0
1020
0.0
1030
0.0
  0
LINE
  5
2FFB4
  8
0
 10
6590.4190227593689997
 20
221.4882745050234121
 30
0.0
 11
6590.4299346809320923
 21
221.4991864265871868
 31
0.0
1001
GRADIENTCOLOR1ACI
1070
     5
1001
GRADIENTCOLOR2ACI
1070
     2
1001
ACAD
1010
0.0
1020
0.0
1030
0.0
  0
LINE
  5
2FFB5
  8
0
 10
6588.8520877730497887
 20
221.4882745050234121
 30
0.0
 11
6588.8157614525343888
 21
221.5246008255402046
 31
0.0
1001
GRADIENTCOLOR1ACI
1070
     5
1001
GRADIENTCOLOR2ACI
1070
     2
1001
ACAD
1010
0.0
1020
0.0
1030
0.0
  0
LINE
  5
2FFB6
  8
0
 10
6588.8874431121103044
 20
221.4882745050234121
 30
0.0
 11
6588.8157614525343888
 21
221.5599561645994982
 31
0.0
1001
GRADIENTCOLOR1ACI
1070
     5
1001
GRADIENTCOLOR2ACI
1070
     2
1001
ACAD
1010
0.0
1020
0.0
1030
0.0
  0
LINE
  5
2FFB7
  8
0
 10
6588.9227984511690011
 20
221.4882745050234121
 30
0.0
 11
6588.8157614525343888
 21
221.5953115036587917
 31
0.0
1001
GRADIENTCOLOR1ACI
1070
     5
1001
GRADIENTCOLOR2ACI
1070
     2
1001
ACAD
1010
0.0
1020
0.0
1030
0.0
  0
LINE
  5
2FFB8
  8
0
 10
6588.9581537902267883
 20
221.4882745050234121
 30
0.0
 11
6588.8157614525343888
 21
221.630666842718199
 31
0.0
1001
GRADIENTCOLOR1ACI
1070
     5
1001
GRADIENTCOLOR2ACI
1070
     2
1001
ACAD
1010
0.0
1020
0.0
1030
0.0
  0
LINE
  5
2FFB9
  8
0
 10
6588.9935091292873039
 20
221.4882745050234121
 30
0.0
 11
6588.8157614525343888
 21
221.6660221817774925
 31
0.0
1001
GRADIENTCOLOR1ACI
1070
     5
1001
GRADIENTCOLOR2ACI
1070
     2
1001
ACAD
1010
0.0
1020
0.0
1030
0.0
  0
LINE
  5
2FFBA
  8
0
 10
6589.0288644683460006
 20
221.4882745050234121
 30
0.0
 11
6588.8157614525343888
 21
221.7013775208367861
 31
0.0
1001
GRADIENTCOLOR1ACI
1070
     5
1001
GRADIENTCOLOR2ACI
1070
     2
1001
ACAD
1010
0.0
1020
0.0
1030
0.0
  0
LINE
  5
2FFBB
  8
0
 10
6589.0642198074056068
 20
221.4882745050234121
 30
0.0
 11
6588.8157614525343888
 21
221.7367328598961933
 31
0.0
1001
GRADIENTCOLOR1ACI
1070
     5
1001
GRADIENTCOLOR2ACI
1070
     2
1001
ACAD
1010
0.0
1020
0.0
1030
0.0
  0
LINE
  5
2FFBC
  8
0
 10
6589.0995751464661225
 20
221.4882745050234121
 30
0.0
 11
6588.8157614525343888
 21
221.7720881989554869
 31
0.0
1001
GRADIENTCOLOR1ACI
1070
     5
1001
GRADIENTCOLOR2ACI
1070
     2
1001
ACAD
1010
0.0
1020
0.0
1030
0.0
  0
LINE
  5
2FFBD
  8
0
 10
6589.1349304855248192
 20
221.4882745050234121
 30
0.0
 11
6588.8157614525343888
 21
221.8074435380148088
 31
0.0
1001
GRADIENTCOLOR1ACI
1070
     5
1001
GRADIENTCOLOR2ACI
1070
     2
1001
ACAD
1010
0.0
1020
0.0
1030
0.0
  0
LINE
  5
2FFBE
  8
0
 10
6589.1702858245853349
 20
221.4882745050234121
 30
0.0
 11
6588.8157614525343888
 21
221.8427988770741024
 31
0.0
1001
GRADIENTCOLOR1ACI
1070
     5
1001
GRADIENTCOLOR2ACI
1070
     2
1001
ACAD
1010
0.0
1020
0.0
1030
0.0
  0
LINE
  5
2FFBF
  8
0
 10
6589.2056411636431221
 20
221.4882745050234121
 30
0.0
 11
6588.8157614525343888
 21
221.8781542161333959
 31
0.0
1001
GRADIENTCOLOR1ACI
1070
     5
1001
GRADIENTCOLOR2ACI
1070
     2
1001
ACAD
1010
0.0
1020
0.0
1030
0.0
  0
LINE
  5
2FFC0
  8
0
 10
6589.2409965027018188
 20
221.4882745050234121
 30
0.0
 11
6588.8157614525343888
 21
221.9135095551928032
 31
0.0
1001
GRADIENTCOLOR1ACI
1070
     5
1001
GRADIENTCOLOR2ACI
1070
     2
1001
ACAD
1010
0.0
1020
0.0
1030
0.0
  0
LINE
  5
2FFC1
  8
0
 10
6589.2763518417623345
 20
221.4882745050234121
 30
0.0
 11
6588.8157614525343888
 21
221.9488648942520967
 31
0.0
1001
GRADIENTCOLOR1ACI
1070
     5
1001
GRADIENTCOLOR2ACI
1070
     2
1001
ACAD
1010
0.0
1020
0.0
1030
0.0
  0
LINE
  5
2FFC2
  8
0
 10
6589.3117071808201217
 20
221.4882745050234121
 30
0.0
 11
6588.8157614525343888
 21
221.984220233311504
 31
0.0
1001
GRADIENTCOLOR1ACI
1070
     5
1001
GRADIENTCOLOR2ACI
1070
     2
1001
ACAD
1010
0.0
1020
0.0
1030
0.0
  0
LINE
  5
2FFC3
  8
0
 10
6589.3470625198797279
 20
221.4882745050234121
 30
0.0
 11
6588.8157614525343888
 21
222.0195755723707123
 31
0.0
1001
GRADIENTCOLOR1ACI
1070
     5
1001
GRADIENTCOLOR2ACI
1070
     2
1001
ACAD
1010
0.0
1020
0.0
1030
0.0
  0
LINE
  5
2FFC4
  8
0
 10
6589.3824178589393341
 20
221.4882745050234121
 30
0.0
 11
6588.8157614525343888
 21
222.0549309114300911
 31
0.0
1001
GRADIENTCOLOR1ACI
1070
     5
1001
GRADIENTCOLOR2ACI
1070
     2
1001
ACAD
1010
0.0
1020
0.0
1030
0.0
  0
LINE
  5
2FFC5
  8
0
 10
6589.4177731979989403
 20
221.4882745050234121
 30
0.0
 11
6588.8157614525343888
 21
222.0902862504894131
 31
0.0
1001
GRADIENTCOLOR1ACI
1070
     5
1001
GRADIENTCOLOR2ACI
1070
     2
1001
ACAD
1010
0.0
1020
0.0
1030
0.0
  0
LINE
  5
2FFC6
  8
0
 10
6589.4531285370585465
 20
221.4882745050234121
 30
0.0
 11
6588.8157614525343888
 21
222.1256415895487919
 31
0.0
1001
GRADIENTCOLOR1ACI
1070
     5
1001
GRADIENTCOLOR2ACI
1070
     2
1001
ACAD
1010
0.0
1020
0.0
1030
0.0
  0
LINE
  5
2FFC7
  8
0
 10
6589.4884838761181527
 20
221.4882745050234121
 30
0.0
 11
6588.8157614525343888
 21
222.1609969286081139
 31
0.0
1001
GRADIENTCOLOR1ACI
1070
     5
1001
GRADIENTCOLOR2ACI
1070
     2
1001
ACAD
1010
0.0
1020
0.0
1030
0.0
  0
LINE
  5
2FFC8
  8
0
 10
6589.5238392151777589
 20
221.4882745050234121
 30
0.0
 11
6588.8157614525343888
 21
222.1963522676674074
 31
0.0
1001
GRADIENTCOLOR1ACI
1070
     5
1001
GRADIENTCOLOR2ACI
1070
     2
1001
ACAD
1010
0.0
1020
0.0
1030
0.0
  0
LINE
  5
2FFC9
  8
0
 10
6589.5591945542373651
 20
221.4882745050234121
 30
0.0
 11
6588.8190370739876016
 21
222.2284319852720955
 31
0.0
1001
GRADIENTCOLOR1ACI
1070
     5
1001
GRADIENTCOLOR2ACI
1070
     2
1001
ACAD
1010
0.0
1020
0.0
1030
0.0
  0
LINE
  5
2FFCA
  8
0
 10
6589.5945498932960618
 20
221.4882745050234121
 30
0.0
 11
6588.8543924130472078
 21
222.2284319852720955
 31
0.0
1001
GRADIENTCOLOR1ACI
1070
     5
1001
GRADIENTCOLOR2ACI
1070
     2
1001
ACAD
1010
0.0
1020
0.0
1030
0.0
  0
LINE
  5
2FFCB
  8
0
 10
6589.629905232355668
 20
221.4882745050234121
 30
0.0
 11
6588.889747752106814
 21
222.2284319852720955
 31
0.0
1001
GRADIENTCOLOR1ACI
1070
     5
1001
GRADIENTCOLOR2ACI
1070
     2
1001
ACAD
1010
0.0
1020
0.0
1030
0.0
  0
LINE
  5
2FFCC
  8
0
 10
6589.6652605714143647
 20
221.4882745050234121
 30
0.0
 11
6588.9251030911673297
 21
222.2284319852720955
 31
0.0
1001
GRADIENTCOLOR1ACI
1070
     5
1001
GRADIENTCOLOR2ACI
1070
     2
1001
ACAD
1010
0.0
1020
0.0
1030
0.0
  0
LINE
  5
2FFCD
  8
0
 10
6589.7006159104730614
 20
221.4882745050234121
 30
0.0
 11
6588.9604584302251169
 21
222.2284319852720955
 31
0.0
1001
GRADIENTCOLOR1ACI
1070
     5
1001
GRADIENTCOLOR2ACI
1070
     2
1001
ACAD
1010
0.0
1020
0.0
1030
0.0
  0
LINE
  5
2FFCE
  8
0
 10
6589.7359712495326676
 20
221.4882745050234121
 30
0.0
 11
6588.9958137692838136
 21
222.2284319852720955
 31
0.0
1001
GRADIENTCOLOR1ACI
1070
     5
1001
GRADIENTCOLOR2ACI
1070
     2
1001
ACAD
1010
0.0
1020
0.0
1030
0.0
  0
LINE
  5
2FFCF
  8
0
 10
6589.7713265885931833
 20
221.4882745050234121
 30
0.0
 11
6589.0311691083443293
 21
222.2284319852720955
 31
0.0
1001
GRADIENTCOLOR1ACI
1070
     5
1001
GRADIENTCOLOR2ACI
1070
     2
1001
ACAD
1010
0.0
1020
0.0
1030
0.0
  0
LINE
  5
2FFD0
  8
0
 10
6589.80668192765188
 20
221.4882745050234121
 30
0.0
 11
6589.066524447403026
 21
222.2284319852720955
 31
0.0
1001
GRADIENTCOLOR1ACI
1070
     5
1001
GRADIENTCOLOR2ACI
1070
     2
1001
ACAD
1010
0.0
1020
0.0
1030
0.0
  0
LINE
  5
2FFD1
  8
0
 10
6589.8420372667123956
 20
221.4882745050234121
 30
0.0
 11
6589.1018797864626322
 21
222.2284319852720955
 31
0.0
1001
GRADIENTCOLOR1ACI
1070
     5
1001
GRADIENTCOLOR2ACI
1070
     2
1001
ACAD
1010
0.0
1020
0.0
1030
0.0
  0
LINE
  5
2FFD2
  8
0
 10
6589.8773926057710923
 20
221.4882745050234121
 30
0.0
 11
6589.1372351255231479
 21
222.2284319852720955
 31
0.0
1001
GRADIENTCOLOR1ACI
1070
     5
1001
GRADIENTCOLOR2ACI
1070
     2
1001
ACAD
1010
0.0
1020
0.0
1030
0.0
  0
LINE
  5
2FFD3
  8
0
 10
6589.9127479448288796
 20
221.4882745050234121
 30
0.0
 11
6589.1725904645809351
 21
222.2284319852720955
 31
0.0
1001
GRADIENTCOLOR1ACI
1070
     5
1001
GRADIENTCOLOR2ACI
1070
     2
1001
ACAD
1010
0.0
1020
0.0
1030
0.0
  0
LINE
  5
2FFD4
  8
0
 10
6589.9481032838893952
 20
221.4882745050234121
 30
0.0
 11
6589.2079458036396318
 21
222.2284319852720955
 31
0.0
1001
GRADIENTCOLOR1ACI
1070
     5
1001
GRADIENTCOLOR2ACI
1070
     2
1001
ACAD
1010
0.0
1020
0.0
1030
0.0
  0
LINE
  5
2FFD5
  8
0
 10
6589.9834586229490014
 20
221.4882745050234121
 30
0.0
 11
6589.2433011427001475
 21
222.2284319852720955
 31
0.0
1001
GRADIENTCOLOR1ACI
1070
     5
1001
GRADIENTCOLOR2ACI
1070
     2
1001
ACAD
1010
0.0
1020
0.0
1030
0.0
  0
LINE
  5
2FFD6
  8
0
 10
6590.0188139620076981
 20
221.4882745050234121
 30
0.0
 11
6589.2786564817579347
 21
222.2284319852720955
 31
0.0
1001
GRADIENTCOLOR1ACI
1070
     5
1001
GRADIENTCOLOR2ACI
1070
     2
1001
ACAD
1010
0.0
1020
0.0
1030
0.0
  0
LINE
  5
2FFD7
  8
0
 10
6590.0541693010682138
 20
221.4882745050234121
 30
0.0
 11
6589.3140118208166314
 21
222.2284319852720955
 31
0.0
1001
GRADIENTCOLOR1ACI
1070
     5
1001
GRADIENTCOLOR2ACI
1070
     2
1001
ACAD
1010
0.0
1020
0.0
1030
0.0
  0
LINE
  5
2FFD8
  8
0
 10
6590.0895246401269105
 20
221.4882745050234121
 30
0.0
 11
6589.5725852238620064
 21
222.0052139212874067
 31
0.0
1001
GRADIENTCOLOR1ACI
1070
     5
1001
GRADIENTCOLOR2ACI
1070
     2
1001
ACAD
1010
0.0
1020
0.0
1030
0.0
  0
LINE
  5
2FFD9
  8
0
 10
6589.4880296120463754
 20
222.0897695331042883
 30
0.0
 11
6589.3493671598771471
 21
222.2284319852720955
 31
0.0
1001
GRADIENTCOLOR1ACI
1070
     5
1001
GRADIENTCOLOR2ACI
1070
     2
1001
ACAD
1010
0.0
1020
0.0
1030
0.0
  0
LINE
  5
2FFDA
  8
0
 10
6590.1248799791846977
 20
221.4882745050234121
 30
0.0
 11
6589.6168819539343531
 21
221.9962725302756041
 31
0.0
1001
GRADIENTCOLOR1ACI
1070
     5
1001
GRADIENTCOLOR2ACI
1070
     2
1001
ACAD
1010
0.0
1020
0.0
1030
0.0
  0
LINE
  5
2FFDB
  8
0
 10
6589.4790882210336349
 20
222.1340662631754981
 30
0.0
 11
6589.3847224989367533
 21
222.2284319852720955
 31
0.0
1001
GRADIENTCOLOR1ACI
1070
     5
1001
GRADIENTCOLOR2ACI
1070
     2
1001
ACAD
1010
0.0
1020
0.0
1030
0.0
  0
LINE
  5
2FFDC
  8
0
 10
6590.1602353182452134
 20
221.4882745050234121
 30
0.0
 11
6589.6498122878556387
 21
221.99869753541401
 31
0.0
1001
GRADIENTCOLOR1ACI
1070
     5
1001
GRADIENTCOLOR2ACI
1070
     2
1001
ACAD
1010
0.0
1020
0.0
1030
0.0
  0
LINE
  5
2FFDD
  8
0
 10
6589.4789805173950299
 20
222.1695293058741072
 30
0.0
 11
6589.4200778379963594
 21
222.2284319852720955
 31
0.0
1001
GRADIENTCOLOR1ACI
1070
     5
1001
GRADIENTCOLOR2ACI
1070
     2
1001
ACAD
1010
0.0
1020
0.0
1030
0.0
  0
LINE
  5
2FFDE
  8
0
 10
6590.1955906573048196
 20
221.4882745050234121
 30
0.0
 11
6589.6770981402250982
 21
222.0067670221021956
 31
0.0
1001
GRADIENTCOLOR1ACI
1070
     5
1001
GRADIENTCOLOR2ACI
1070
     2
1001
ACAD
1010
0.0
1020
0.0
1030
0.0
  0
LINE
  5
2FFDF
  8
0
 10
6589.4789805173950299
 20
222.204884644933486
 30
0.0
 11
6589.4554331770559656
 21
222.2284319852720955
 31
0.0
1001
GRADIENTCOLOR1ACI
1070
     5
1001
GRADIENTCOLOR2ACI
1070
     2
1001
ACAD
1010
0.0
1020
0.0
1030
0.0
  0
LINE
  5
2FFE0
  8
0
 10
6590.2309459963626068
 20
221.4882745050234121
 30
0.0
 11
6589.7003904977200364
 21
222.018830003667091
 31
0.0
1001
GRADIENTCOLOR1ACI
1070
     5
1001
GRADIENTCOLOR2ACI
1070
     2
1001
ACAD
1010
0.0
1020
0.0
1030
0.0
  0
LINE
  5
2FFE1
  8
0
 10
6590.2663013354231225
 20
221.4882745050234121
 30
0.0
 11
6589.7203532274197642
 21
222.0342226130258041
 31
0.0
1001
GRADIENTCOLOR1ACI
1070
     5
1001
GRADIENTCOLOR2ACI
1070
     2
1001
ACAD
1010
0.0
1020
0.0
1030
0.0
  0
LINE
  5
2FFE2
  8
0
 10
6590.3016566744818192
 20
221.4882745050234121
 30
0.0
 11
6589.7372129357127051
 21
222.0527182437922136
 31
0.0
1001
GRADIENTCOLOR1ACI
1070
     5
1001
GRADIENTCOLOR2ACI
1070
     2
1001
ACAD
1010
0.0
1020
0.0
1030
0.0
  0
LINE
  5
2FFE3
  8
0
 10
6590.3370120135423349
 20
221.4882745050234121
 30
0.0
 11
6589.7508910252099668
 21
222.074395493355496
 31
0.0
1001
GRADIENTCOLOR1ACI
1070
     5
1001
GRADIENTCOLOR2ACI
1070
     2
1001
ACAD
1010
0.0
1020
0.0
1030
0.0
  0
LINE
  5
2FFE4
  8
0
 10
6590.3723673526019411
 20
221.4882745050234121
 30
0.0
 11
6589.760960694185087
 21
222.099681163438504
 31
0.0
1001
GRADIENTCOLOR1ACI
1070
     5
1001
GRADIENTCOLOR2ACI
1070
     2
1001
ACAD
1010
0.0
1020
0.0
1030
0.0
  0
LINE
  5
2FFE5
  8
0
 10
6590.4077226916606378
 20
221.4882745050234121
 30
0.0
 11
6589.7663590322426899
 21
222.1296381644415874
 31
0.0
1001
GRADIENTCOLOR1ACI
1070
     5
1001
GRADIENTCOLOR2ACI
1070
     2
1001
ACAD
1010
0.0
1020
0.0
1030
0.0
  0
LINE
  5
2FFE6
  8
0
 10
6590.4299346809320923
 20
221.5014178548113932
 30
0.0
 11
6589.7667189717340079
 21
222.164633564010586
 31
0.0
1001
GRADIENTCOLOR1ACI
1070
     5
1001
GRADIENTCOLOR2ACI
1070
     2
1001
ACAD
1010
0.0
1020
0.0
1030
0.0
  0
LINE
  5
2FFE7
  8
0
 10
6590.4299346809320923
 20
221.5367731938706868
 30
0.0
 11
6589.7667189717340079
 21
222.1999889030699933
 31
0.0
1001
GRADIENTCOLOR1ACI
1070
     5
1001
GRADIENTCOLOR2ACI
1070
     2
1001
ACAD
1010
0.0
1020
0.0
1030
0.0
  0
LINE
  5
2FFE8
  8
0
 10
6590.4299346809320923
 20
221.5721285329300088
 30
0.0
 11
6589.7736312285896929
 21
222.2284319852720955
 31
0.0
1001
GRADIENTCOLOR1ACI
1070
     5
1001
GRADIENTCOLOR2ACI
1070
     2
1001
ACAD
1010
0.0
1020
0.0
1030
0.0
  0
LINE
  5
2FFE9
  8
0
 10
6590.4299346809320923
 20
221.6074838719893876
 30
0.0
 11
6589.8089865676502086
 21
222.2284319852720955
 31
0.0
1001
GRADIENTCOLOR1ACI
1070
     5
1001
GRADIENTCOLOR2ACI
1070
     2
1001
ACAD
1010
0.0
1020
0.0
1030
0.0
  0
LINE
  5
2FFEA
  8
0
 10
6590.4299346809320923
 20
221.6428392110487096
 30
0.0
 11
6589.8443419067089053
 21
222.2284319852720955
 31
0.0
1001
GRADIENTCOLOR1ACI
1070
     5
1001
GRADIENTCOLOR2ACI
1070
     2
1001
ACAD
1010
0.0
1020
0.0
1030
0.0
  0
LINE
  5
2FFEB
  8
0
 10
6590.4299346809320923
 20
221.6781945501080031
 30
0.0
 11
6589.8796972457666925
 21
222.2284319852720955
 31
0.0
1001
GRADIENTCOLOR1ACI
1070
     5
1001
GRADIENTCOLOR2ACI
1070
     2
1001
ACAD
1010
0.0
1020
0.0
1030
0.0
  0
LINE
  5
2FFEC
  8
0
 10
6590.4299346809320923
 20
221.7135498891674104
 30
0.0
 11
6589.9150525848272082
 21
222.2284319852720955
 31
0.0
1001
GRADIENTCOLOR1ACI
1070
     5
1001
GRADIENTCOLOR2ACI
1070
     2
1001
ACAD
1010
0.0
1020
0.0
1030
0.0
  0
LINE
  5
2FFED
  8
0
 10
6590.4299346809320923
 20
221.7489052282267039
 30
0.0
 11
6589.9504079238859049
 21
222.2284319852720955
 31
0.0
1001
GRADIENTCOLOR1ACI
1070
     5
1001
GRADIENTCOLOR2ACI
1070
     2
1001
ACAD
1010
0.0
1020
0.0
1030
0.0
  0
LINE
  5
2FFEE
  8
0
 10
6590.4299346809320923
 20
221.7842605672859975
 30
0.0
 11
6589.9857632629464206
 21
222.2284319852720955
 31
0.0
1001
GRADIENTCOLOR1ACI
1070
     5
1001
GRADIENTCOLOR2ACI
1070
     2
1001
ACAD
1010
0.0
1020
0.0
1030
0.0
  0
LINE
  5
2FFEF
  8
0
 10
6590.4299346809320923
 20
221.819615906345291
 30
0.0
 11
6590.0211186020060268
 21
222.2284319852720955
 31
0.0
1001
GRADIENTCOLOR1ACI
1070
     5
1001
GRADIENTCOLOR2ACI
1070
     2
1001
ACAD
1010
0.0
1020
0.0
1030
0.0
  0
LINE
  5
2FFF0
  8
0
 10
6590.4299346809320923
 20
221.8549712454046983
 30
0.0
 11
6590.0564739410647235
 21
222.2284319852720955
 31
0.0
1001
GRADIENTCOLOR1ACI
1070
     5
1001
GRADIENTCOLOR2ACI
1070
     2
1001
ACAD
1010
0.0
1020
0.0
1030
0.0
  0
LINE
  5
2FFF1
  8
0
 10
6590.4299346809320923
 20
221.8903265844639918
 30
0.0
 11
6590.0918292801234202
 21
222.2284319852720955
 31
0.0
1001
GRADIENTCOLOR1ACI
1070
     5
1001
GRADIENTCOLOR2ACI
1070
     2
1001
ACAD
1010
0.0
1020
0.0
1030
0.0
  0
LINE
  5
2FFF2
  8
0
 10
6590.4299346809320923
 20
221.9256819235233138
 30
0.0
 11
6590.1271846191830264
 21
222.2284319852720955
 31
0.0
1001
GRADIENTCOLOR1ACI
1070
     5
1001
GRADIENTCOLOR2ACI
1070
     2
1001
ACAD
1010
0.0
1020
0.0
1030
0.0
  0
LINE
  5
2FFF3
  8
0
 10
6590.4299346809320923
 20
221.9610372625826074
 30
0.0
 11
6590.1625399582417231
 21
222.2284319852720955
 31
0.0
1001
GRADIENTCOLOR1ACI
1070
     5
1001
GRADIENTCOLOR2ACI
1070
     2
1001
ACAD
1010
0.0
1020
0.0
1030
0.0
  0
LINE
  5
2FFF4
  8
0
 10
6590.4299346809320923
 20
221.9963926016419009
 30
0.0
 11
6590.1978952973013293
 21
222.2284319852720955
 31
0.0
1001
GRADIENTCOLOR1ACI
1070
     5
1001
GRADIENTCOLOR2ACI
1070
     2
1001
ACAD
1010
0.0
1020
0.0
1030
0.0
  0
LINE
  5
2FFF5
  8
0
 10
6590.4299346809320923
 20
222.0317479407013082
 30
0.0
 11
6590.2332506363609355
 21
222.2284319852720955
 31
0.0
1001
GRADIENTCOLOR1ACI
1070
     5
1001
GRADIENTCOLOR2ACI
1070
     2
1001
ACAD
1010
0.0
1020
0.0
1030
0.0
  0
LINE
  5
2FFF6
  8
0
 10
6590.4299346809320923
 20
222.0671032797606017
 30
0.0
 11
6590.2686059754196322
 21
222.2284319852720955
 31
0.0
1001
GRADIENTCOLOR1ACI
1070
     5
1001
GRADIENTCOLOR2ACI
1070
     2
1001
ACAD
1010
0.0
1020
0.0
1030
0.0
  0
LINE
  5
2FFF7
  8
0
 10
6590.4299346809320923
 20
222.102458618820009
 30
0.0
 11
6590.3039613144801478
 21
222.2284319852720955
 31
0.0
1001
GRADIENTCOLOR1ACI
1070
     5
1001
GRADIENTCOLOR2ACI
1070
     2
1001
ACAD
1010
0.0
1020
0.0
1030
0.0
  0
LINE
  5
2FFF8
  8
0
 10
6590.4299346809320923
 20
222.1378139578793025
 30
0.0
 11
6590.339316653539754
 21
222.2284319852720955
 31
0.0
1001
GRADIENTCOLOR1ACI
1070
     5
1001
GRADIENTCOLOR2ACI
1070
     2
1001
ACAD
1010
0.0
1020
0.0
1030
0.0
  0
LINE
  5
2FFF9
  8
0
 10
6590.4299346809320923
 20
222.1731692969385961
 30
0.0
 11
6590.3746719925993602
 21
222.2284319852720955
 31
0.0
1001
GRADIENTCOLOR1ACI
1070
     5
1001
GRADIENTCOLOR2ACI
1070
     2
1001
ACAD
1010
0.0
1020
0.0
1030
0.0
  0
LINE
  5
2FFFA
  8
0
 10
6590.4299346809320923
 20
222.2085246359978896
 30
0.0
 11
6590.4100273316589664
 21
222.2284319852720955
 31
0.0
1001
GRADIENTCOLOR1ACI
1070
     5
1001
GRADIENTCOLOR2ACI
1070
     2
1001
ACAD
1010
0.0
1020
0.0
1030
0.0
  0
LINE
  5
2FFFB
  8
0
 10
6588.8157614525343888
 20
221.4882745050234121
 30
0.0
 11
6588.8157614525343888
 21
223.2205579695234121
 31
0.0
  0
LINE
  5
2FFFC
  8
0
 10
6588.8157614525343888
 20
223.2600540325234135
 30
0.0
 11
6588.8157614525343888
 21
224.2600529313419031
 31
0.0
  0
LINE
  5
2FFFD
  8
0
 10
6589.0716669643334171
 20
220.9345658220159123
 30
0.0
 11
6589.0716669643334171
 21
221.4882745050234121
 31
0.0
  0
LINE
  5
2FFFE
  8
0
 10
6588.8237614525341996
 20
223.2520540325234037
 30
0.0
 11
6590.4219346809322815
 21
223.2520540325234037
 31
0.0
  0
LINE
  5
2FFFF
  8
0
 10
6588.8157614525343888
 20
223.2205579695234121
 30
0.0
 11
6590.4299346809320923
 21
223.2205579695234121
 31
0.0
  0
ARC
  5
30000
  8
0
 10
6588.8237614525341996
 20
223.2600540325234135
 30
0.0
 40
0.008
 50
180.0
 51
270.0
  0
LINE
  5
30001
  8
0
 10
6588.8157614525343888
 20
222.2284319852720955
 30
0.0
 11
6589.4789805173950299
 21
222.2284319852720955
 31
0.0
  0
LINE
  5
30002
  8
0
 10
6589.7667189717340079
 20
222.2284319852720955
 30
0.0
 11
6590.4299346809320923
 21
222.2284319852720955
 31
0.0
  0
LINE
  5
30003
  8
0
 10
6588.8157614525343888
 20
221.4882745050234121
 30
0.0
 11
6590.4299346809320923
 21
221.4882745050234121
 31
0.0
  0
ARC
  5
30004
  8
0
 10
6589.1416626217669545
 20
220.9436377638610054
 30
0.0
 40
0.0705811036233271
 50
187.3847798042129114
 51
223.6809545668764088
  0
ARC
  5
30005
  8
0
 10
6589.2053303584016248
 20
221.0044394971249062
 30
0.0
 40
0.1586176384027265
 50
223.6809545668764088
 51
241.7654719096439919
  0
ARC
  5
30006
  8
0
 10
6589.3445311832147127
 20
221.2713657957779105
 30
0.0
 40
0.4596524331080671
 50
242.219136581069705
 51
255.5787761330518038
  0
ARC
  5
30007
  8
0
 10
6589.5020238158031134
 20
221.8378005779119917
 30
0.0
 40
1.04752542805904
 50
254.9519236213270119
 51
261.400766515373391
  0
ARC
  5
30008
  8
0
 10
6589.5920344044543526
 20
222.4076219567745056
 30
0.0
 40
1.6244041056255489
 50
261.2668099525138814
 51
265.8160778889633207
  0
ARC
  5
30009
  8
0
 10
6589.6129033783035993
 20
222.6379244472115033
 30
0.0
 40
1.8556197378034791
 50
265.6922345295211016
 51
269.109101216641875
  0
ARC
  5
3000A
  8
0
 10
6589.6239204265511944
 20
222.7858402941064071
 30
0.0
 40
2.003707958796817
 50
268.8598718338806748
 51
269.969336003078979
  0
LINE
  5
3000B
  8
0
 10
6587.2606433423316048
 20
224.6418178120233904
 30
0.0
 11
6591.9850527911203244
 21
224.6418178120233904
 31
0.0
  0
LINE
  5
3000C
  8
0
 10
6590.4299346809320923
 20
221.4882745050234121
 30
0.0
 11
6590.4299346809320923
 21
223.2205579695234121
 31
0.0
  0
LINE
  5
3000D
  8
0
 10
6590.4299346809320923
 20
223.2600540325234135
 30
0.0
 11
6590.4299346809320923
 21
224.259873815702008
 31
0.0
  0
LINE
  5
3000E
  8
0
 10
6590.174029169133064
 20
220.9345658220159123
 30
0.0
 11
6590.174029169133064
 21
221.4882745050234121
 31
0.0
  0
ARC
  5
3000F
  8
0
 10
6590.4219346809322815
 20
223.2600540325234135
 30
0.0
 40
0.008
 50
270.0
 51
0.0
  0
ARC
  5
30010
  8
0
 10
6590.1040335116967981
 20
220.9436377638610054
 30
0.0
 40
0.0705811036233271
 50
316.3190454331224259
 51
352.6152201957871171
  0
ARC
  5
30011
  8
0
 10
6590.0403657750630373
 20
221.0044394971249062
 30
0.0
 40
0.1586176384027265
 50
298.2345280903559228
 51
316.3190454331224259
  0
ARC
  5
30012
  8
0
 10
6589.9011649502499495
 20
221.2713657957779105
 30
0.0
 40
0.4596524331080671
 50
284.4212238669480826
 51
297.7808634189303234
  0
ARC
  5
30013
  8
0
 10
6589.7436723176633677
 20
221.8378005779119917
 30
0.0
 40
1.04752542805904
 50
278.599233484626609
 51
285.0480763786729881
  0
ARC
  5
30014
  8
0
 10
6589.653661729013038
 20
222.4076219567745056
 30
0.0
 40
1.6244041056255489
 50
274.1839221110366793
 51
278.7331900474861186
  0
ARC
  5
30015
  8
0
 10
6589.6327927551619723
 20
222.6379244472115033
 30
0.0
 40
1.8556197378034791
 50
270.890898783358125
 51
274.3077654704788984
  0
ARC
  5
30016
  8
0
 10
6589.6217757069125582
 20
222.7858402941064071
 30
0.0
 40
2.003707958796817
 50
270.030663996921021
 51
271.1401281661192115
  0
LINE
  5
30018
  8
0
 10
6591.9850527911203244
 20
224.6418178120233904
 30
0.0
 11
6591.9850527911203244
 21
224.2672778230478912
 31
0.0
  0
LINE
  5
30019
  8
0
 10
6591.9850528329707231
 20
224.2678020643637922
 30
0.0
 11
6587.2606433423316048
 21
224.2678020639453109
 31
0.0
  0
LINE
  5
3001A
  8
0
 10
6588.9437142084334482
 20
223.2520540325234037
 30
0.0
 11
6588.9437142084334482
 21
223.2205579695234121
 31
0.0
  0
LINE
  5
3001B
  8
0
 10
6590.3019819250330329
 20
223.2520540325234037
 30
0.0
 11
6590.3019819250330329
 21
223.2205579695234121
 31
0.0
  0
LINE
  5
3001C
  8
0
 10
6589.4850527911330573
 20
222.4134713554234111
 30
0.0
 11
6589.4850527911330573
 21
222.1378810003234037
 31
0.0
  0
LINE
  5
3001D
  8
0
 10
6589.7606433422315604
 20
222.4134766050956955
 30
0.0
 11
6589.7606433422315604
 21
222.1378757506512045
 31
0.0
  0
LINE
  5
3001E
  8
0
 10
6587.2606433423370618
 20
224.2678020639453109
 30
0.0
 11
6589.6228480667314216
 21
224.2560312296108123
 31
0.0
  0
LINE
  5
3001F
  8
0
 10
6589.6228480667314216
 20
224.2560312296108123
 30
0.0
 11
6591.9850527911203244
 21
224.2672778230478912
 31
0.0
  0
ARC
  5
30020
  8
0
 10
6589.6228480667314216
 20
222.4134713554234111
 30
0.0
 40
0.1377952755999994
 50
0.0021828329161751
 51
180.0
  0
ARC
  5
30021
  8
0
 10
6589.622849744551786
 20
222.4113183019535995
 30
0.0
 40
0.1438853368796303
 50
0.8573874425426768
 51
179.1426119108826072
  0
LINE
  5
30022
  8
0
 10
6589.4789805173950299
 20
222.4134713570470012
 30
0.0
 11
6589.4789805173950299
 21
222.1378809986998988
 31
0.0
  0
LINE
  5
30023
  8
0
 10
6589.7667189717340079
 20
222.4134713554234111
 30
0.0
 11
6589.7667189717340079
 21
222.1378810003234037
 31
0.0
  0
ARC
  5
30024
  8
0
 10
6589.6228480667314216
 20
222.1378810003234037
 30
0.0
 40
0.1377952755999994
 50
180.0
 51
359.9978171670838947
  0
ARC
  5
30025
  8
0
 10
6589.622849744551786
 20
222.1400340537933005
 30
0.0
 40
0.1438853368796303
 50
180.8573880891173928
 51
359.1426125574574257
  0
ENDSEC
  0
EOF
