  0
SECTION
  2
HEADER
  9
$ACADVER
  1
AC1009
  9
$INSBASE
 10
313.2275820518677847
 20
10.3971616012827699
 30
0.0
  9
$EXTMIN
 10
312.2366027157009967
 20
10.3915765891852399
 30
-0.0000000000000058
  9
$EXTMAX
 10
314.2339616372162823
 20
16.7564267922870798
 30
0.0000000000000104
  9
$LIMMIN
 10
0.0
 20
0.0
  9
$LIMMAX
 10
11.6929133858000007
 20
8.2677165353999982
  9
$ORTHOMODE
 70
     0
  9
$REGENMODE
 70
     1
  9
$FILLMODE
 70
     1
  9
$QTEXTMODE
 70
     0
  9
$MIRRTEXT
 70
     0
  9
$DRAGMODE
 70
     2
  9
$LTSCALE
 40
0.6431102362
  9
$OSMODE
 70
  4095
  9
$ATTMODE
 70
     1
  9
$TEXTSIZE
 40
0.2
  9
$TRACEWID
 40
0.05
  9
$TEXTSTYLE
  7
STANDARD
  9
$CLAYER
  8
0
  9
$CELTYPE
  6
BYLAYER
  9
$CECOLOR
 62
   256
  9
$DIMSCALE
 40
1.0
  9
$DIMASZ
 40
0.1875
  9
$DIMEXO
 40
0.0625
  9
$DIMDLI
 40
0.4443307087
  9
$DIMRND
 40
0.0
  9
$DIMDLE
 40
0.0
  9
$DIMEXE
 40
0.125
  9
$DIMTP
 40
0.01
  9
$DIMTM
 40
0.01
  9
$DIMTXT
 40
0.15625
  9
$DIMCEN
 40
0.1052362205
  9
$DIMTSZ
 40
0.0
  9
$DIMTOL
 70
     1
  9
$DIMLIM
 70
     0
  9
$DIMTIH
 70
     1
  9
$DIMTOH
 70
     1
  9
$DIMSE1
 70
     0
  9
$DIMSE2
 70
     0
  9
$DIMTAD
 70
     0
  9
$DIMZIN
 70
     0
  9
$DIMBLK
  1

  9
$DIMASO
 70
     1
  9
$DIMSHO
 70
     1
  9
$DIMPOST
  1
\X
  9
$DIMAPOST
  1

  9
$DIMALT
 70
     1
  9
$DIMALTD
 70
     2
  9
$DIMALTF
 40
25.3999999999999986
  9
$DIMLFAC
 40
1.0
  9
$DIMTOFL
 70
     0
  9
$DIMTVP
 40
0.0
  9
$DIMTIX
 70
     0
  9
$DIMSOXD
 70
     0
  9
$DIMSAH
 70
     0
  9
$DIMBLK1
  1

  9
$DIMBLK2
  1

  9
$DIMSTYLE
  2
STANDARD
  9
$DIMCLRD
 70
     0
  9
$DIMCLRE
 70
     0
  9
$DIMCLRT
 70
     0
  9
$DIMTFAC
 40
1.0
  9
$DIMGAP
 40
0.09
  9
$LUNITS
 70
     2
  9
$LUPREC
 70
     4
  9
$SKETCHINC
 40
0.1
  9
$FILLETRAD
 40
0.0
  9
$AUNITS
 70
     0
  9
$AUPREC
 70
     0
  9
$MENU
  1
.
  9
$ELEVATION
 40
0.0
  9
$PELEVATION
 40
0.0
  9
$THICKNESS
 40
0.0
  9
$LIMCHECK
 70
     0
  9
$BLIPMODE
 70
     0
  9
$CHAMFERA
 40
0.0
  9
$CHAMFERB
 40
0.0
  9
$SKPOLY
 70
     0
  9
$TDCREATE
 40
2458018.639108797069639
  9
$TDUPDATE
 40
2460202.5926967589184642
  9
$TDINDWG
 40
0.3699300926
  9
$TDUSRTIMER
 40
0.3699300926
  9
$USRTIMER
 70
     1
  9
$ANGBASE
 50
0.0
  9
$ANGDIR
 70
     0
  9
$PDMODE
 70
     0
  9
$PDSIZE
 40
0.3125
  9
$PLINEWID
 40
0.0
  9
$COORDS
 70
     1
  9
$SPLFRAME
 70
     0
  9
$SPLINETYPE
 70
     6
  9
$SPLINESEGS
 70
     8
  9
$ATTDIA
 70
     1
  9
$ATTREQ
 70
     1
  9
$HANDLING
 70
     1
  9
$HANDSEED
  5
BBF3
  9
$SURFTAB1
 70
     6
  9
$SURFTAB2
 70
     6
  9
$SURFTYPE
 70
     6
  9
$SURFU
 70
     6
  9
$SURFV
 70
     6
  9
$UCSNAME
  2

  9
$UCSORG
 10
0.0
 20
0.0
 30
0.0
  9
$UCSXDIR
 10
1.0
 20
0.0
 30
0.0
  9
$UCSYDIR
 10
0.0
 20
1.0
 30
0.0
  9
$PUCSNAME
  2

  9
$PUCSORG
 10
0.0
 20
0.0
 30
0.0
  9
$PUCSXDIR
 10
1.0
 20
0.0
 30
0.0
  9
$PUCSYDIR
 10
0.0
 20
1.0
 30
0.0
  9
$USERI1
 70
     0
  9
$USERI2
 70
     0
  9
$USERI3
 70
     0
  9
$USERI4
 70
     0
  9
$USERI5
 70
     0
  9
$USERR1
 40
0.0
  9
$USERR2
 40
0.0
  9
$USERR3
 40
0.0
  9
$USERR4
 40
0.0
  9
$USERR5
 40
0.0
  9
$WORLDVIEW
 70
     1
  9
$SHADEDGE
 70
     3
  9
$SHADEDIF
 70
    70
  9
$TILEMODE
 70
     1
  9
$MAXACTVP
 70
    64
  9
$PLIMCHECK
 70
     0
  9
$PEXTMIN
 10
1.0000000000000000E+20
 20
1.0000000000000000E+20
 30
1.0000000000000000E+20
  9
$PEXTMAX
 10
-1.0000000000000000E+20
 20
-1.0000000000000000E+20
 30
-1.0000000000000000E+20
  9
$PLIMMIN
 10
0.0
 20
0.0
  9
$PLIMMAX
 10
12.0
 20
9.0
  9
$UNITMODE
 70
     0
  9
$VISRETAIN
 70
     1
  9
$PLINEGEN
 70
     0
  9
$PSLTSCALE
 70
     1
  0
ENDSEC
  0
SECTION
  2
TABLES
  0
TABLE
  2
VPORT
 70
     1
  0
VPORT
  2
*ACTIVE
 70
     0
 10
0.0
 20
0.0
 11
1.0
 21
1.0
 12
217.9110211787208868
 22
6.5376696795133213
 13
0.0
 23
0.0
 14
1.0
 24
1.0
 15
0.0
 25
0.0
 16
-0.0000000000000142
 26
0.0
 36
39.3282560748450578
 17
95.3242609977377526
 27
7.0363320112228394
 37
0.0
 40
6.42201951630335
 41
2.841079460269865
 42
50.0
 43
0.0
 44
0.0
 50
0.0
 51
0.0
 71
     0
 72
   100
 73
     1
 74
     1
 75
     0
 76
     0
 77
     0
 78
     0
  0
ENDTAB
  0
TABLE
  2
LTYPE
 70
     2
  0
LTYPE
  2
CONTINUOUS
 70
     0
  3
Solid line
 72
    65
 73
     0
 40
0.0
  0
LTYPE
  2
PHANTOM2
 70
     0
  3
___ _ _ ___ _ _ ___ _ _ ___ _ _
 72
    65
 73
     6
 40
1.25
 49
0.625
 49
-0.125
 49
0.125
 49
-0.125
 49
0.125
 49
-0.125
  0
ENDTAB
  0
TABLE
  2
LAYER
 70
     2
  0
LAYER
  2
0
 70
     0
 62
   255
  6
CONTINUOUS
  0
LAYER
  2
DEFPOINTS
 70
     0
 62
     7
  6
CONTINUOUS
  0
ENDTAB
  0
TABLE
  2
STYLE
 70
     1
  0
STYLE
  2
STANDARD
 70
     0
 40
0.0
 41
0.8
 50
0.0
 71
     0
 42
0.2
  3
txt
  4

  0
ENDTAB
  0
TABLE
  2
VIEW
 70
     0
  0
ENDTAB
  0
TABLE
  2
UCS
 70
     0
  0
ENDTAB
  0
TABLE
  2
APPID
 70
    10
  0
APPID
  2
ACAD
 70
     0
  0
APPID
  2
ACAD_MLEADERVER
 70
     0
  0
APPID
  2
ACAD_DSTYLE_DIMJAG
 70
     0
  0
APPID
  2
ACAD_DSTYLE_DIMTALN
 70
     0
  0
APPID
  2
ACAD_NAV_VCDISPLAY
 70
     0
  0
APPID
  2
ACAD_EXEMPT_FROM_CAD_STANDARDS
 70
     0
  0
APPID
  2
ACAECLAYERSTANDARD
 70
     0
  0
APPID
  2
ACCMTRANSPARENCY
 70
     0
  0
APPID
  2
DCO15
 70
     0
  0
APPID
  2
ACDBATTR
 70
     0
  0
ENDTAB
  0
TABLE
  2
DIMSTYLE
 70
     1
  0
DIMSTYLE
  2
STANDARD
 70
     0
  3

  4

  5

  6

  7

 40
1.0
 41
0.1875
 42
0.0625
 43
0.38
 44
0.125
 45
0.0
 46
0.0
 47
0.01
 48
0.01
140
0.15625
141
0.09
142
0.0
143
25.3999999999999986
144
1.0
145
0.0
146
1.0
147
0.09
 71
     1
 72
     0
 73
     1
 74
     1
 75
     0
 76
     0
 77
     0
 78
     4
170
     0
171
     2
172
     0
173
     0
174
     0
175
     0
176
     0
177
     0
178
     0
  0
ENDTAB
  0
ENDSEC
  0
SECTION
  2
BLOCKS
  0
BLOCK
  8
0
  2
$MODEL_SPACE
 70
     0
 10
0.0
 20
0.0
 30
0.0
  3
$MODEL_SPACE
  1

  0
ENDBLK
  5
21
  8
0
  0
BLOCK
 67
     1
  8
0
  2
$PAPER_SPACE
 70
     0
 10
0.0
 20
0.0
 30
0.0
  3
$PAPER_SPACE
  1

  0
ENDBLK
  5
1D
 67
     1
  8
0
  0
BLOCK
  8
0
  2
_FILLED
 70
     0
 10
0.0
 20
0.0
 30
0.0
  3
_FILLED
  1

  0
SOLID
  5
A58D
  8
0
  6
BYBLOCK
 62
     0
 10
0.0
 20
0.0
 30
0.0
 11
-1.0
 21
0.1666666667
 31
0.0
 12
-1.0
 22
-0.1666666667
 32
0.0
 13
-1.0
 23
-0.1666666667
 33
0.0
  0
ENDBLK
  5
A58E
  8
0
  6
BYBLOCK
 62
     0
  0
ENDSEC
  0
SECTION
  2
ENTITIES
  0
ATTDEF
  5
7A6E
  8
DEFPOINTS
 10
313.2276740127458083
 20
10.3957748108210897
 30
0.0
 40
0.001
  1
P34122-00
  3

  2
MODELNUMBER
 70
     0
1001
ACDBATTR
1070
     0
1070
     1
  0
ATTDEF
  5
7A6F
  8
DEFPOINTS
 10
313.2276740127458083
 20
10.3941081441544192
 30
0.0
 40
0.001
  1
002
  3

  2
TRADENAME
 70
     0
1001
ACDBATTR
1070
     0
1070
     1
  0
ATTDEF
  5
7A70
  8
DEFPOINTS
 10
313.2276740127458083
 20
10.3924414774877505
 30
0.0
 40
0.001
  1
BATHROOM SINK FAUCET
  3

  2
PRODUCT
 70
     0
1001
ACDBATTR
1070
     0
1070
     1
  0
LINE
  5
B982
  8
0
 10
314.1725820518677779
 20
10.3971616012827699
 30
0.0
 11
312.2825820518677915
 21
10.3971616012827699
 31
0.0
  0
LINE
  5
B983
  8
0
 10
314.1725820518677779
 20
10.5851616012827705
 30
0.0
 11
312.2825820518677915
 21
10.5851616012827705
 31
0.0
  0
LINE
  5
B984
  8
0
 10
313.9775442372048246
 20
15.8015927779148999
 30
0.0
 11
312.4776198665306879
 21
15.8015927779148999
 31
0.0
  0
LINE
  5
B985
  8
0
 10
313.9560820518677815
 20
15.9511616012827702
 30
0.0
 11
312.4990820518677879
 21
15.9511616012827702
 31
0.0
  0
LINE
  5
B986
  8
0
 10
313.959625886575509
 20
16.718029098106939
 30
0.0
 11
312.4955382171600036
 21
16.718029098106939
 31
0.0
  0
LINE
  5
B987
  8
0
 10
312.2435820518678042
 20
10.5461616012827708
 30
0.0
 11
312.2435820518678042
 21
10.4361616012827696
 31
0.0
  0
ARC
  5
B988
  8
0
 10
312.2825820518677915
 20
10.5461616012827708
 30
0.0
 40
0.039
 50
90.0
 51
180.0000000000021885
  0
ARC
  5
B989
  8
0
 10
312.2825820518677915
 20
10.4361616012827696
 30
0.0
 40
0.039
 50
179.9999999999978115
 51
270.0
  0
LINE
  5
B98A
  8
0
 10
312.4775820518677847
 20
10.5851616012827705
 30
0.0
 11
312.4775820518677847
 21
15.8045830189762295
 31
0.0
  0
LINE
  5
B98B
  8
0
 10
312.4775820518677278
 20
15.9726616012827805
 30
0.0
 11
312.4775820518677847
 21
16.6981338036962583
 31
0.0
  0
LINE
  5
B98C
  8
0
 10
314.211582051867822
 20
10.5461616012827708
 30
0.0
 11
314.211582051867822
 21
10.4361616012827696
 31
0.0
  0
ARC
  5
B98D
  8
0
 10
314.1725820518677779
 20
10.5461616012827708
 30
0.0
 40
0.039
 50
359.9999999999976126
 51
90.0
  0
ARC
  5
B98E
  8
0
 10
314.1725820518677779
 20
10.4361616012827696
 30
0.0
 40
0.039
 50
270.0
 51
0.0000000000021373
  0
LINE
  5
B98F
  8
0
 10
313.9775820518677847
 20
10.5851616012827705
 30
0.0
 11
313.9775820518677847
 21
15.8045830189761904
 31
0.0
  0
ARC
  5
B990
  8
0
 10
313.2521247941148204
 20
15.8616140780497492
 30
0.0
 40
0.7768402634226474
 50
184.5233471985015115
 51
268.1895511277116952
  0
ARC
  5
B991
  8
0
 10
312.5161049749419817
 20
15.8035748211876204
 30
0.0
 40
0.0385361137761321
 50
99.2219315860018014
 51
178.5008330010547866
  0
ARC
  5
B992
  8
0
 10
312.5161049749419817
 20
15.8035748211876204
 30
0.0
 40
0.0385361137761321
 50
181.4991669989449008
 51
184.8028036699114978
  0
ARC
  5
B993
  8
0
 10
313.3261411852834044
 20
11.1567616602575495
 30
0.0
 40
4.7554214010958349
 50
91.1875765070288224
 51
99.8830811504828517
  0
ARC
  5
B994
  8
0
 10
313.0620520960678164
 20
15.8223427036827697
 30
0.0
 40
0.4934700442000376
 50
164.8678007537355938
 51
176.6016993495537122
  0
ARC
  5
B995
  8
0
 10
312.4990820518677879
 20
15.9726616012827805
 30
0.0
 40
0.0215
 50
180.0000000000046043
 51
269.9999999999935199
  0
LINE
  5
B996
  8
0
 10
313.9661937298275234
 20
16.653393388290219
 30
0.0
 11
312.4889703739079891
 21
16.653393388290219
 31
0.0
  0
ARC
  5
B997
  8
0
 10
313.2989475628389755
 20
8.1990546340368091
 30
0.0
 40
8.5567746549855617
 50
90.4778658024727349
 51
95.3875285727891651
  0
ARC
  5
B998
  8
0
 10
312.4975820518678233
 20
16.6981338036962583
 30
0.0
 40
0.02
 50
95.8653943752642448
 51
180.0
  0
ARC
  5
B999
  8
0
 10
313.2030393096206922
 20
15.8616140780497492
 30
0.0
 40
0.7768402634226474
 50
271.8104488722884184
 51
355.4766528014984033
  0
ARC
  5
B99A
  8
0
 10
313.939059128793474
 20
15.8035748211876204
 30
0.0
 40
0.0385361137761321
 50
1.4991669989451919
 51
80.7780684139981844
  0
ARC
  5
B99B
  8
0
 10
313.939059128793474
 20
15.8035748211876204
 30
0.0
 40
0.0385361137761321
 50
355.1971963300883885
 51
358.5008330010547866
  0
ARC
  5
B99C
  8
0
 10
313.1290229184521081
 20
11.1567616602575495
 30
0.0
 40
4.7554214010958349
 50
80.116918849517134
 51
88.8124234929711918
  0
ARC
  5
B99D
  8
0
 10
313.3931120076676962
 20
15.8223427036827697
 30
0.0
 40
0.4934700442000376
 50
3.3983006504463158
 51
15.1321992462644008
  0
ARC
  5
B99E
  8
0
 10
313.9560820518677815
 20
15.9726616012827805
 30
0.0
 40
0.0215
 50
270.0000000000064801
 51
359.999999999995282
  0
ARC
  5
B99F
  8
0
 10
313.1562165408964802
 20
8.1990546340368091
 30
0.0
 40
8.5567746549855617
 50
84.6124714272108349
 51
89.5221341975272793
  0
ARC
  5
B9A0
  8
0
 10
313.9575820518678029
 20
16.6981338036962583
 30
0.0
 40
0.02
 50
0.0
 51
84.1346056247357552
  0
ARC
  5
B9A1
  8
0
 10
313.3346372569567961
 20
17.9887014362263997
 30
0.0
 40
1.580569536581258
 50
237.653420546928686
 51
266.1162663611593189
  0
ARC
  5
B9A2
  8
0
 10
312.5051820518676777
 20
16.675730386694859
 30
0.0
 40
0.0275999999999881
 50
180.0
 51
234.0287211007527901
  0
LINE
  5
B9A3
  8
0
 10
313.9775820518677847
 20
15.9726616012827805
 30
0.0
 11
313.9775820518677847
 21
16.6981338036962583
 31
0.0
  0
ARC
  5
B9A4
  8
0
 10
313.1205268467787164
 20
17.9887014362263997
 30
0.0
 40
1.580569536581258
 50
273.8837336388406811
 51
302.3465794530711719
  0
ARC
  5
B9A5
  8
0
 10
313.949982051867778
 20
16.675730386694859
 30
0.0
 40
0.0275999999999881
 50
305.9712788992471246
 51
0.0
  0
ARC
  5
B9A7
  8
0
 10
313.2275820518677847
 20
15.8938357062059392
 30
0.0
 40
0.8082140970231632
 50
268.9804609353270735
 51
271.0195390646729265
  0
ENDSEC
  0
EOF
