  0
SECTION
  2
HEADER
  9
$ACADVER
  1
AC1009
  9
$INSBASE
 10
338.8280428717063728
 20
2.251547676544118
 30
0.0
  9
$EXTMIN
 10
332.0546942437824782
 20
2.2459435869236972
 30
-0.0000000000000058
  9
$EXTMAX
 10
340.0559517159571783
 20
8.6104806210076958
 30
0.0000000000000104
  9
$LIMMIN
 10
0.0
 20
0.0
  9
$LIMMAX
 10
11.6929133858000007
 20
8.2677165353999982
  9
$ORTHOMODE
 70
     0
  9
$REGENMODE
 70
     1
  9
$FILLMODE
 70
     1
  9
$QTEXTMODE
 70
     0
  9
$MIRRTEXT
 70
     0
  9
$DRAGMODE
 70
     2
  9
$LTSCALE
 40
0.6431102362
  9
$OSMODE
 70
  4095
  9
$ATTMODE
 70
     1
  9
$TEXTSIZE
 40
0.2
  9
$TRACEWID
 40
0.05
  9
$TEXTSTYLE
  7
STANDARD
  9
$CLAYER
  8
0
  9
$CELTYPE
  6
BYLAYER
  9
$CECOLOR
 62
   256
  9
$DIMSCALE
 40
1.0
  9
$DIMASZ
 40
0.1875
  9
$DIMEXO
 40
0.0625
  9
$DIMDLI
 40
0.4443307087
  9
$DIMRND
 40
0.0
  9
$DIMDLE
 40
0.0
  9
$DIMEXE
 40
0.125
  9
$DIMTP
 40
0.01
  9
$DIMTM
 40
0.01
  9
$DIMTXT
 40
0.15625
  9
$DIMCEN
 40
0.1052362205
  9
$DIMTSZ
 40
0.0
  9
$DIMTOL
 70
     1
  9
$DIMLIM
 70
     0
  9
$DIMTIH
 70
     1
  9
$DIMTOH
 70
     1
  9
$DIMSE1
 70
     0
  9
$DIMSE2
 70
     0
  9
$DIMTAD
 70
     0
  9
$DIMZIN
 70
     0
  9
$DIMBLK
  1

  9
$DIMASO
 70
     1
  9
$DIMSHO
 70
     1
  9
$DIMPOST
  1
\X
  9
$DIMAPOST
  1

  9
$DIMALT
 70
     1
  9
$DIMALTD
 70
     2
  9
$DIMALTF
 40
25.3999999999999986
  9
$DIMLFAC
 40
1.0
  9
$DIMTOFL
 70
     0
  9
$DIMTVP
 40
0.0
  9
$DIMTIX
 70
     0
  9
$DIMSOXD
 70
     0
  9
$DIMSAH
 70
     0
  9
$DIMBLK1
  1

  9
$DIMBLK2
  1

  9
$DIMSTYLE
  2
STANDARD
  9
$DIMCLRD
 70
     0
  9
$DIMCLRE
 70
     0
  9
$DIMCLRT
 70
     0
  9
$DIMTFAC
 40
1.0
  9
$DIMGAP
 40
0.09
  9
$LUNITS
 70
     2
  9
$LUPREC
 70
     4
  9
$SKETCHINC
 40
0.1
  9
$FILLETRAD
 40
0.0
  9
$AUNITS
 70
     0
  9
$AUPREC
 70
     0
  9
$MENU
  1
.
  9
$ELEVATION
 40
0.0
  9
$PELEVATION
 40
0.0
  9
$THICKNESS
 40
0.0
  9
$LIMCHECK
 70
     0
  9
$BLIPMODE
 70
     0
  9
$CHAMFERA
 40
0.0
  9
$CHAMFERB
 40
0.0
  9
$SKPOLY
 70
     0
  9
$TDCREATE
 40
2458018.639108797069639
  9
$TDUPDATE
 40
2460202.593738425988704
  9
$TDINDWG
 40
0.3718861111
  9
$TDUSRTIMER
 40
0.3718861111
  9
$USRTIMER
 70
     1
  9
$ANGBASE
 50
0.0
  9
$ANGDIR
 70
     0
  9
$PDMODE
 70
     0
  9
$PDSIZE
 40
0.3125
  9
$PLINEWID
 40
0.0
  9
$COORDS
 70
     1
  9
$SPLFRAME
 70
     0
  9
$SPLINETYPE
 70
     6
  9
$SPLINESEGS
 70
     8
  9
$ATTDIA
 70
     1
  9
$ATTREQ
 70
     1
  9
$HANDLING
 70
     1
  9
$HANDSEED
  5
B9EF
  9
$SURFTAB1
 70
     6
  9
$SURFTAB2
 70
     6
  9
$SURFTYPE
 70
     6
  9
$SURFU
 70
     6
  9
$SURFV
 70
     6
  9
$UCSNAME
  2

  9
$UCSORG
 10
0.0
 20
0.0
 30
0.0
  9
$UCSXDIR
 10
1.0
 20
0.0
 30
0.0
  9
$UCSYDIR
 10
0.0
 20
1.0
 30
0.0
  9
$PUCSNAME
  2

  9
$PUCSORG
 10
0.0
 20
0.0
 30
0.0
  9
$PUCSXDIR
 10
1.0
 20
0.0
 30
0.0
  9
$PUCSYDIR
 10
0.0
 20
1.0
 30
0.0
  9
$USERI1
 70
     0
  9
$USERI2
 70
     0
  9
$USERI3
 70
     0
  9
$USERI4
 70
     0
  9
$USERI5
 70
     0
  9
$USERR1
 40
0.0
  9
$USERR2
 40
0.0
  9
$USERR3
 40
0.0
  9
$USERR4
 40
0.0
  9
$USERR5
 40
0.0
  9
$WORLDVIEW
 70
     1
  9
$SHADEDGE
 70
     3
  9
$SHADEDIF
 70
    70
  9
$TILEMODE
 70
     1
  9
$MAXACTVP
 70
    64
  9
$PLIMCHECK
 70
     0
  9
$PEXTMIN
 10
1.0000000000000000E+20
 20
1.0000000000000000E+20
 30
1.0000000000000000E+20
  9
$PEXTMAX
 10
-1.0000000000000000E+20
 20
-1.0000000000000000E+20
 30
-1.0000000000000000E+20
  9
$PLIMMIN
 10
0.0
 20
0.0
  9
$PLIMMAX
 10
12.0
 20
9.0
  9
$UNITMODE
 70
     0
  9
$VISRETAIN
 70
     1
  9
$PLINEGEN
 70
     0
  9
$PSLTSCALE
 70
     1
  0
ENDSEC
  0
SECTION
  2
TABLES
  0
TABLE
  2
VPORT
 70
     1
  0
VPORT
  2
*ACTIVE
 70
     0
 10
0.0
 20
0.0
 11
1.0
 21
1.0
 12
240.731061982132104
 22
-1.6081199072571419
 13
0.0
 23
0.0
 14
1.0
 24
1.0
 15
0.0
 25
0.0
 16
-0.0000000000000142
 26
0.0
 36
39.3282560748450578
 17
95.3242609977377526
 27
7.0363320112228394
 37
0.0
 40
6.421703534390141
 41
2.841079460269865
 42
50.0
 43
0.0
 44
0.0
 50
0.0
 51
0.0
 71
     0
 72
   100
 73
     1
 74
     1
 75
     0
 76
     0
 77
     0
 78
     0
  0
ENDTAB
  0
TABLE
  2
LTYPE
 70
     2
  0
LTYPE
  2
CONTINUOUS
 70
     0
  3
Solid line
 72
    65
 73
     0
 40
0.0
  0
LTYPE
  2
PHANTOM2
 70
     0
  3
___ _ _ ___ _ _ ___ _ _ ___ _ _
 72
    65
 73
     6
 40
1.25
 49
0.625
 49
-0.125
 49
0.125
 49
-0.125
 49
0.125
 49
-0.125
  0
ENDTAB
  0
TABLE
  2
LAYER
 70
     2
  0
LAYER
  2
0
 70
     0
 62
   255
  6
CONTINUOUS
  0
LAYER
  2
DEFPOINTS
 70
     0
 62
     7
  6
CONTINUOUS
  0
ENDTAB
  0
TABLE
  2
STYLE
 70
     1
  0
STYLE
  2
STANDARD
 70
     0
 40
0.0
 41
0.8
 50
0.0
 71
     0
 42
0.2
  3
txt
  4

  0
ENDTAB
  0
TABLE
  2
VIEW
 70
     0
  0
ENDTAB
  0
TABLE
  2
UCS
 70
     0
  0
ENDTAB
  0
TABLE
  2
APPID
 70
    10
  0
APPID
  2
ACAD
 70
     0
  0
APPID
  2
ACAD_MLEADERVER
 70
     0
  0
APPID
  2
ACAD_DSTYLE_DIMJAG
 70
     0
  0
APPID
  2
ACAD_DSTYLE_DIMTALN
 70
     0
  0
APPID
  2
ACAD_NAV_VCDISPLAY
 70
     0
  0
APPID
  2
ACAD_EXEMPT_FROM_CAD_STANDARDS
 70
     0
  0
APPID
  2
ACAECLAYERSTANDARD
 70
     0
  0
APPID
  2
ACCMTRANSPARENCY
 70
     0
  0
APPID
  2
DCO15
 70
     0
  0
APPID
  2
ACDBATTR
 70
     0
  0
ENDTAB
  0
TABLE
  2
DIMSTYLE
 70
     1
  0
DIMSTYLE
  2
STANDARD
 70
     0
  3

  4

  5

  6

  7

 40
1.0
 41
0.1875
 42
0.0625
 43
0.38
 44
0.125
 45
0.0
 46
0.0
 47
0.01
 48
0.01
140
0.15625
141
0.09
142
0.0
143
25.3999999999999986
144
1.0
145
0.0
146
1.0
147
0.09
 71
     1
 72
     0
 73
     1
 74
     1
 75
     0
 76
     0
 77
     0
 78
     4
170
     0
171
     2
172
     0
173
     0
174
     0
175
     0
176
     0
177
     0
178
     0
  0
ENDTAB
  0
ENDSEC
  0
SECTION
  2
BLOCKS
  0
BLOCK
  8
0
  2
$MODEL_SPACE
 70
     0
 10
0.0
 20
0.0
 30
0.0
  3
$MODEL_SPACE
  1

  0
ENDBLK
  5
21
  8
0
  0
BLOCK
 67
     1
  8
0
  2
$PAPER_SPACE
 70
     0
 10
0.0
 20
0.0
 30
0.0
  3
$PAPER_SPACE
  1

  0
ENDBLK
  5
1D
 67
     1
  8
0
  0
BLOCK
  8
0
  2
_FILLED
 70
     0
 10
0.0
 20
0.0
 30
0.0
  3
_FILLED
  1

  0
SOLID
  5
9EE8
  8
0
  6
BYBLOCK
 62
     0
 10
0.0
 20
0.0
 30
0.0
 11
-1.0
 21
0.1666666667
 31
0.0
 12
-1.0
 22
-0.1666666667
 32
0.0
 13
-1.0
 23
-0.1666666667
 33
0.0
  0
ENDBLK
  5
9EE9
  8
0
  6
BYBLOCK
 62
     0
  0
ENDSEC
  0
SECTION
  2
ENTITIES
  0
ATTDEF
  5
7A6E
  8
DEFPOINTS
 10
338.8168755865855815
 20
2.249787714448451
 30
0.0
 40
0.001
  1
P34122-00
  3

  2
MODELNUMBER
 70
     0
1001
ACDBATTR
1070
     0
1070
     1
  0
ATTDEF
  5
7A6F
  8
DEFPOINTS
 10
338.8168755865855815
 20
2.2481210477817859
 30
0.0
 40
0.001
  1
002
  3

  2
TRADENAME
 70
     0
1001
ACDBATTR
1070
     0
1070
     1
  0
ATTDEF
  5
7A70
  8
DEFPOINTS
 10
338.8168755865855815
 20
2.2464543811151212
 30
0.0
 40
0.001
  1
BATHROOM SINK FAUCET
  3

  2
PRODUCT
 70
     0
1001
ACDBATTR
1070
     0
1070
     1
  0
LINE
  5
B63D
  8
0
 10
337.8830428717063796
 20
2.251547676544118
 30
0.0
 11
339.7730428717064228
 21
2.251547676544118
 31
0.0
  0
LINE
  5
B63E
  8
0
 10
337.8830428717063796
 20
2.4395476765441191
 30
0.0
 11
339.7730428717064228
 21
2.4395476765441191
 31
0.0
  0
LINE
  5
B63F
  8
0
 10
336.5780428717064865
 20
8.6099177565441174
 30
0.0
 11
338.8280428717063728
 21
8.6099177565441174
 31
0.0
  0
LINE
  5
B640
  8
0
 10
336.5780428717063728
 20
8.2661476765441186
 30
0.0
 11
337.7133428717064021
 21
8.2661476765441186
 31
0.0
  0
LINE
  5
B641
  8
0
 10
332.8280428717063728
 20
7.76554767654412
 30
0.0
 11
338.1469137110905194
 21
7.76554767654412
 31
0.0
  0
LINE
  5
B642
  8
0
 10
334.1545734839513102
 20
6.9395476765441186
 30
0.0
 11
337.4018428717063784
 21
6.9395476765441186
 31
0.0
  0
LINE
  5
B643
  8
0
 10
337.8440428717063924
 20
2.400547676544118
 30
0.0
 11
337.8440428717063924
 21
2.2905476765441182
 31
0.0
  0
ARC
  5
B644
  8
0
 10
337.8830428717063796
 20
2.400547676544118
 30
0.0
 40
0.039
 50
90.0
 51
179.9999999999992042
  0
ARC
  5
B645
  8
0
 10
337.8830428717063796
 20
2.2905476765441199
 30
0.0
 40
0.039
 50
180.0000000000017906
 51
270.0000000000064801
  0
LINE
  5
B646
  8
0
 10
338.0780428717063728
 20
2.4395476765441191
 30
0.0
 11
338.0780428717063728
 21
6.2633476765441207
 31
0.0
  0
ARC
  5
B647
  8
0
 10
337.4018428717063784
 20
6.2633476765441207
 30
0.0
 40
0.6762000000000001
 50
359.9999999999998863
 51
90.0
  0
LINE
  5
B648
  8
0
 10
339.8120428717064101
 20
2.400547676544118
 30
0.0
 11
339.8120428717064101
 21
2.2905476765441182
 31
0.0
  0
ARC
  5
B649
  8
0
 10
339.7730428717064228
 20
2.400547676544118
 30
0.0
 40
0.039
 50
0.0000000000008142
 51
90.0
  0
ARC
  5
B64A
  8
0
 10
339.7730428717064228
 20
2.2905476765441199
 30
0.0
 40
0.039
 50
269.9999999999935199
 51
359.9999999999980105
  0
LINE
  5
B64B
  8
0
 10
339.5780428717063728
 20
2.4395476765441191
 30
0.0
 11
339.5780428717063728
 21
3.1000299876288362
 31
0.0
  0
LINE
  5
B64C
  8
0
 10
339.5780428717063728
 20
4.9790653654593982
 30
0.0
 11
339.5780428717063728
 21
7.6569989307115343
 31
0.0
  0
ARC
  5
B64D
  8
0
 10
332.8280428717063728
 20
7.6895476765441186
 30
0.0
 40
0.7499999999999993
 50
182.5653262166092929
 51
267.972787585179276
  0
ARC
  5
B64E
  8
0
 10
332.8280428717063728
 20
4.0268897818445524
 30
0.0
 40
3.738657894699565
 50
90.0
 51
101.0687856311702006
  0
ARC
  5
B64F
  8
0
 10
332.1177554079945935
 20
7.657724431991368
 30
0.0
 40
0.039
 50
101.0687856311669037
 51
182.565326216608014
  0
LINE
  5
B650
  8
0
 10
332.0787944922636257
 20
7.6559788531762401
 30
0.0
 11
339.5780428717063728
 21
7.6559788531762401
 31
0.0
  0
ARC
  5
B651
  8
0
 10
339.5375761239816939
 20
7.6563913839113944
 30
0.0
 40
0.0404713081642434
 50
0.8601445478112818
 51
78.1413200197626452
  0
LINE
  5
B652
  8
0
 10
338.7934050688648995
 20
7.7028773444518768
 30
0.0
 11
339.5000368407738165
 21
7.7028773444518741
 31
0.0
  0
ARC
  5
B653
  8
0
 10
339.7816653751959279
 20
9.3743977859231826
 30
0.0
 40
1.6948779808384149
 50
260.5068200679355073
 51
262.0037197607508119
  0
ARC
  5
B654
  8
0
 10
339.5000368407737028
 20
7.6878773444495137
 30
0.0
 40
0.015
 50
81.9831592343214908
 51
89.9999999996612843
  0
ARC
  5
B655
  8
0
 10
338.6961361932047225
 20
10.7597879018134801
 30
0.0
 40
3.0439495040354609
 50
259.6566769181625887
 51
260.0761750028626125
  0
ARC
  5
B656
  8
0
 10
339.0024802069444263
 20
12.5107607584083507
 30
0.0
 40
4.8215187992490618
 50
260.0761750028626125
 51
261.117097184965985
  0
ARC
  5
B657
  8
0
 10
338.8171787152202228
 20
11.3251356087137705
 30
0.0
 40
3.6215006167103532
 50
261.117097184965985
 51
264.9678835623489022
  0
ARC
  5
B658
  8
0
 10
338.84105669082021
 20
11.5963113183342497
 30
0.0
 40
3.8937255663511321
 50
264.9678835623489022
 51
269.2987936786191767
  0
ARC
  5
B659
  8
0
 10
338.1469137110905194
 20
7.7505476765437642
 30
0.0
 40
0.015
 50
79.6566769183447434
 51
89.9999999999316032
  0
LINE
  5
B65A
  8
0
 10
333.1107201338288064
 20
6.9773956778237318
 30
0.0
 11
333.8453656095840074
 21
6.9773956778237318
 31
0.0
  0
LINE
  5
B65B
  8
0
 10
332.8826361109063896
 20
6.9553822365441169
 30
0.0
 11
332.9666471027866237
 21
6.9553822365441169
 31
0.0
  0
LINE
  5
B65C
  8
0
 10
333.9894386406263038
 20
6.9553822365441169
 30
0.0
 11
334.0734496325064242
 21
6.9553822365441169
 31
0.0
  0
ARC
  5
B65D
  8
0
 10
333.1300456599103086
 20
6.3684449061512822
 30
0.0
 40
0.6092573497946462
 50
91.8177160197784161
 51
105.5567681446359956
  0
LINE
  5
B65E
  8
0
 10
332.8746361109064082
 20
6.9633822365441196
 30
0.0
 11
332.8746361109064082
 21
6.9688447250685348
 31
0.0
  0
ARC
  5
B65F
  8
0
 10
332.8826361109063896
 20
6.9633822365441196
 30
0.0
 40
0.008
 50
180.0
 51
269.9999999999869829
  0
LINE
  5
B660
  8
0
 10
333.0206659229505135
 20
7.0000397077441177
 30
0.0
 11
333.9354198204623003
 21
7.0000397077441177
 31
0.0
  0
ARC
  5
B661
  8
0
 10
333.0390371158446783
 20
6.5441661383701009
 30
0.0
 40
0.4562435884285582
 50
92.3077068728170644
 51
105.4841861723242999
  0
ARC
  5
B662
  8
0
 10
333.0093511352703217
 20
6.6543828167163852
 30
0.0
 40
0.3421029517467556
 50
105.6209024300973027
 51
114.3954092756743961
  0
ARC
  5
B663
  8
0
 10
332.9082355399959283
 20
6.877338391766866
 30
0.0
 40
0.0972896513446248
 50
114.3954092756743961
 51
126.609867812953695
  0
ARC
  5
B664
  8
0
 10
332.8340113696448839
 20
6.9680699636069861
 30
0.0
 40
0.0205484328238212
 50
303.1223255124356797
 51
322.0535789667133031
  0
ARC
  5
B665
  8
0
 10
332.837410289606396
 20
6.9636551253441068
 30
0.0
 40
0.0149999999999881
 50
277.2083657117851772
 51
301.463485421088194
  0
ARC
  5
B666
  8
0
 10
332.8808891869385889
 20
6.6170029700433899
 30
0.0
 40
0.334368165316797
 50
97.1463843851962281
 51
101.791029264365207
  0
ARC
  5
B667
  8
0
 10
332.8020428717064192
 20
6.9550076844441264
 30
0.0
 40
0.0150000000000093
 50
267.972787585179276
 51
314.5372464700237174
  0
ARC
  5
B668
  8
0
 10
333.8260400835025052
 20
6.3684449061512822
 30
0.0
 40
0.6092573497946462
 50
74.4432318553639334
 51
88.1822839802215839
  0
LINE
  5
B669
  8
0
 10
334.0814496325064056
 20
6.9633822365441196
 30
0.0
 11
334.0814496325064056
 21
6.9688447250685348
 31
0.0
  0
ARC
  5
B66A
  8
0
 10
334.0734496325064242
 20
6.9633822365441196
 30
0.0
 40
0.008
 50
270.0000000000130171
 51
0.0
  0
ARC
  5
B66B
  8
0
 10
333.9170486275680787
 20
6.5441661383701009
 30
0.0
 40
0.4562435884285582
 50
74.5158138276756574
 51
87.6922931271829356
  0
ARC
  5
B66C
  8
0
 10
333.9467346081424921
 20
6.6543828167163852
 30
0.0
 40
0.3421029517467556
 50
65.6045907243255613
 51
74.3790975699026831
  0
ARC
  5
B66D
  8
0
 10
334.0478502034168855
 20
6.877338391766866
 30
0.0
 40
0.0972896513446248
 50
53.3901321870460706
 51
65.6045907243255613
  0
ARC
  5
B66E
  8
0
 10
334.1220743737678731
 20
6.9680699636069861
 30
0.0
 40
0.0205484328238212
 50
217.9464210332866969
 51
236.8776744875642919
  0
ARC
  5
B66F
  8
0
 10
334.1186754538064179
 20
6.9636551253441068
 30
0.0
 40
0.0149999999999881
 50
238.536514578911806
 51
262.7916342882148228
  0
ARC
  5
B670
  8
0
 10
334.075196556474225
 20
6.6170029700433899
 30
0.0
 40
0.334368165316797
 50
78.2089707356347219
 51
82.8536156148037861
  0
ARC
  5
B671
  8
0
 10
334.1559850298526726
 20
6.958010248325901
 30
0.0
 40
0.0185164526470188
 50
227.696044159919694
 51
265.6279875994567874
  0
LINE
  5
B672
  8
0
 10
338.0980428717064115
 20
7.8055476765441192
 30
0.0
 11
338.7829578995317092
 21
7.8055476765441192
 31
0.0
  0
ARC
  5
B673
  8
0
 10
338.6625129159062908
 20
7.676728778944141
 30
0.0
 40
0.4934700441999006
 50
164.8678007537344001
 51
170.2181707900300864
  0
ARC
  5
B674
  8
0
 10
338.9935728275065117
 20
7.676728778944141
 30
0.0
 40
0.4934700441999006
 50
3.037478101439945
 51
21.2075419259134499
  0
LINE
  5
B675
  8
0
 10
338.0780428717063728
 20
7.8255476765441179
 30
0.0
 11
338.0780428717063728
 21
7.9014476765441186
 31
0.0
  0
LINE
  5
B676
  8
0
 10
339.5780428717063728
 20
7.9255476765441157
 30
0.0
 11
339.5780428717063728
 21
8.0898404044003698
 31
0.0
  0
LINE
  5
B677
  8
0
 10
339.5780428717063728
 20
8.3812325221301336
 30
0.0
 11
339.5780428717063728
 21
8.5525198789576038
 31
0.0
  0
ARC
  5
B678
  8
0
 10
338.0980428717064115
 20
7.8255476765441223
 30
0.0
 40
0.02
 50
180.0000000000152056
 51
269.999999999980389
  0
LINE
  5
B679
  8
0
 10
339.4368422297117718
 20
7.8667287789441183
 30
0.0
 11
339.1645389347514197
 21
7.8667287789441183
 31
0.0
  0
ARC
  5
B67A
  8
0
 10
339.4368422297117718
 20
7.848728778944067
 30
0.0
 40
0.018
 50
21.207541926029819
 51
89.9999999999316032
  0
LINE
  5
B67B
  8
0
 10
339.3780428716573283
 20
7.9055476765441197
 30
0.0
 11
338.8724006185886992
 21
7.8136127214863542
 31
0.0
  0
LINE
  5
B67C
  8
0
 10
339.558042871706391
 20
7.9055476765441197
 30
0.0
 11
339.3780428716573283
 21
7.9055476765441197
 31
0.0
  0
ARC
  5
B67D
  8
0
 10
339.558042871706391
 20
7.9255476765441202
 30
0.0
 40
0.02
 50
270.0000000000097771
 51
359.9999999999948841
  0
ARC
  5
B67E
  8
0
 10
338.7829578995317092
 20
8.3055476765440162
 30
0.0
 40
0.5
 50
270.0
 51
280.3048464637641928
  0
ARC
  5
B67F
  8
0
 10
340.2947337447643008
 20
8.2355364632652517
 30
0.0
 40
0.7313502232810616
 50
168.5089319443428906
 51
191.4910680556569957
  0
LINE
  5
B680
  8
0
 10
339.5869090134063981
 20
8.1036579127441151
 30
0.0
 11
339.5869090134063981
 21
8.3674374403441227
 31
0.0
  0
ARC
  5
B681
  8
0
 10
339.5750979898064088
 20
8.1036579127441151
 30
0.0
 40
0.0118110235999943
 50
282.1550303658852954
 51
0.0
  0
ARC
  5
B682
  8
0
 10
339.5750979898064088
 20
8.3674374403441227
 30
0.0
 40
0.0118110235999966
 50
0.0
 51
77.8236304665104797
  0
ARC
  5
B683
  8
0
 10
337.7133428717064021
 20
7.9014476765441186
 30
0.0
 40
0.3647
 50
0.0000000000002036
 51
90.0
  0
LINE
  5
B684
  8
0
 10
335.8280428717063728
 20
8.5525198789576038
 30
0.0
 11
335.8280428717063728
 21
8.5300442336944364
 31
0.0
  0
ARC
  5
B685
  8
0
 10
336.5780428717064865
 20
1.4464829451427039
 30
0.0
 40
7.1634348114014204
 50
90.0
 51
95.8653943752609763
  0
ARC
  5
B686
  8
0
 10
336.5780428717063728
 20
9.5161476765441044
 30
0.0
 40
1.249999999999988
 50
233.7742278060094065
 51
270.0
  0
ARC
  5
B687
  8
0
 10
335.8480428717064115
 20
8.5525198789575967
 30
0.0
 40
0.02
 50
95.8653943752642448
 51
179.9999999999795932
  0
ARC
  5
B688
  8
0
 10
335.8556428717063795
 20
8.5300442336944293
 30
0.0
 40
0.0276
 50
179.9999999999851923
 51
233.7742278060260048
  0
LINE
  5
B689
  8
0
 10
335.8280428717063728
 20
8.5300442336944293
 30
0.0
 11
338.1797569721125001
 21
8.5300442336944293
 31
0.0
  0
LINE
  5
B68A
  8
0
 10
335.8459990369987054
 20
8.5724151733682792
 30
0.0
 11
339.5600867064142108
 21
8.5724151733682792
 31
0.0
  0
ARC
  5
B68B
  8
0
 10
338.828042871706316
 20
1.4464829451425369
 30
0.0
 40
7.1634348114015873
 50
84.1346056247390379
 51
90.0
  0
ARC
  5
B68C
  8
0
 10
339.558042871706391
 20
8.5525198789576002
 30
0.0
 40
0.02
 50
0.0000000000050889
 51
84.1346056247193843
  0
LINE
  5
B68D
  8
0
 10
338.7548463717039908
 20
7.9014160295441194
 30
0.0
 11
338.7434162159943867
 21
7.9014160295441194
 31
0.0
  0
ARC
  5
B68E
  8
0
 10
338.1640564996989156
 20
7.9290978651436559
 30
0.0
 40
0.6011514307629732
 50
358.2953875979990244
 51
88.5034168438751152
  0
ARC
  5
B68F
  8
0
 10
338.7548463717039908
 20
7.9115160295441171
 30
0.0
 40
0.0101
 50
270.0
 51
358.2953875980011844
  0
ARC
  5
B690
  8
0
 10
338.4107295438503797
 20
9.8331023344268367
 30
0.0
 40
1.9601256088051351
 50
260.2280405139928234
 51
279.7719594860071766
  0
LINE
  5
B691
  8
0
 10
339.1871898605064075
 20
7.8667287789441183
 30
0.0
 11
339.189084195993189
 21
7.8711915537131603
 31
0.0
  0
LINE
  5
B694
  8
0
 10
339.5249959114063927
 20
3.34780554602807
 30
0.0
 11
339.5249959114063927
 21
4.7312898070601683
 31
0.0
  0
ARC
  5
B695
  8
0
 10
340.2771706133921725
 20
4.6910838307908911
 30
0.0
 40
0.7532485000550827
 50
158.7129429181192961
 51
176.9402819541074052
  0
ARC
  5
B696
  8
0
 10
339.5380428717064092
 20
4.9790653654593982
 30
0.0
 40
0.04
 50
338.7129429181193814
 51
0.0
  0
ARC
  5
B697
  8
0
 10
340.2771706133921725
 20
3.388011522297345
 30
0.0
 40
0.7532485000550827
 50
183.0597180458925095
 51
201.2870570818805902
  0
ARC
  5
B698
  8
0
 10
339.5380428717064092
 20
3.1000299876288362
 30
0.0
 40
0.04
 50
0.0
 51
21.2870570818811693
  0
LINE
  5
B699
  8
0
 10
339.8410428717064065
 20
3.2579030912441178
 30
0.0
 11
339.5352440004418213
 21
3.2579030912441178
 31
0.0
  0
LINE
  5
B69A
  8
0
 10
339.5249959114063927
 20
3.4815476765441171
 30
0.0
 11
339.8410428717064065
 21
3.4815476765441171
 31
0.0
  0
ARC
  5
B69B
  8
0
 10
339.8410428717064065
 20
2.7146405504441549
 30
0.0
 40
0.7669071260999623
 50
75.2437582613472671
 51
90.0
  0
ARC
  5
B69C
  8
0
 10
340.0312855658643798
 20
3.436913332942868
 30
0.0
 40
0.02
 50
349.7796693840743956
 51
75.2437582613472671
  0
ARC
  5
B69D
  8
0
 10
339.8410428717064065
 20
3.4712130912441181
 30
0.0
 40
0.2133099999999949
 50
270.0
 51
349.7796693840751914
  0
LINE
  5
B69E
  8
0
 10
340.0509682200631119
 20
3.4333646537952549
 30
0.0
 11
339.5249959114063927
 21
3.4333646537952549
 31
0.0
  0
ENDSEC
  0
EOF
