  0
SECTION
  2
HEADER
  9
$ACADVER
  1
AC1009
  9
$INSBASE
 10
995.5088055194447634
 20
147.124165233717207
 30
0.0
  9
$EXTMIN
 10
994.2908347107681948
 20
143.6433364813167088
 30
-0.0000000000000058
  9
$EXTMAX
 10
1000.7038399280910426
 20
148.2702047310515923
 30
0.0000000000000104
  9
$LIMMIN
 10
0.0
 20
0.0
  9
$LIMMAX
 10
11.6929133858000007
 20
8.2677165353999982
  9
$ORTHOMODE
 70
     0
  9
$REGENMODE
 70
     1
  9
$FILLMODE
 70
     1
  9
$QTEXTMODE
 70
     0
  9
$MIRRTEXT
 70
     0
  9
$DRAGMODE
 70
     2
  9
$LTSCALE
 40
0.6431102362
  9
$OSMODE
 70
  3999
  9
$ATTMODE
 70
     1
  9
$TEXTSIZE
 40
0.2
  9
$TRACEWID
 40
0.05
  9
$TEXTSTYLE
  7
STANDARD
  9
$CLAYER
  8
0
  9
$CELTYPE
  6
BYLAYER
  9
$CECOLOR
 62
   256
  9
$DIMSCALE
 40
1.0
  9
$DIMASZ
 40
0.1875
  9
$DIMEXO
 40
0.0625
  9
$DIMDLI
 40
0.4443307087
  9
$DIMRND
 40
0.0
  9
$DIMDLE
 40
0.0
  9
$DIMEXE
 40
0.125
  9
$DIMTP
 40
0.01
  9
$DIMTM
 40
0.01
  9
$DIMTXT
 40
1.0
  9
$DIMCEN
 40
0.1052362205
  9
$DIMTSZ
 40
0.0
  9
$DIMTOL
 70
     1
  9
$DIMLIM
 70
     0
  9
$DIMTIH
 70
     0
  9
$DIMTOH
 70
     1
  9
$DIMSE1
 70
     0
  9
$DIMSE2
 70
     0
  9
$DIMTAD
 70
     0
  9
$DIMZIN
 70
     0
  9
$DIMBLK
  1

  9
$DIMASO
 70
     1
  9
$DIMSHO
 70
     1
  9
$DIMPOST
  1
\X
  9
$DIMAPOST
  1

  9
$DIMALT
 70
     1
  9
$DIMALTD
 70
     2
  9
$DIMALTF
 40
25.3999999999999986
  9
$DIMLFAC
 40
1.0
  9
$DIMTOFL
 70
     0
  9
$DIMTVP
 40
0.0
  9
$DIMTIX
 70
     0
  9
$DIMSOXD
 70
     0
  9
$DIMSAH
 70
     0
  9
$DIMBLK1
  1

  9
$DIMBLK2
  1

  9
$DIMSTYLE
  2
STANDARD
  9
$DIMCLRD
 70
     0
  9
$DIMCLRE
 70
     0
  9
$DIMCLRT
 70
     0
  9
$DIMTFAC
 40
1.0
  9
$DIMGAP
 40
0.09
  9
$LUNITS
 70
     2
  9
$LUPREC
 70
     4
  9
$SKETCHINC
 40
0.1
  9
$FILLETRAD
 40
0.0
  9
$AUNITS
 70
     0
  9
$AUPREC
 70
     0
  9
$MENU
  1
.
  9
$ELEVATION
 40
0.0
  9
$PELEVATION
 40
0.0
  9
$THICKNESS
 40
0.0
  9
$LIMCHECK
 70
     0
  9
$BLIPMODE
 70
     0
  9
$CHAMFERA
 40
0.0
  9
$CHAMFERB
 40
0.0
  9
$SKPOLY
 70
     0
  9
$TDCREATE
 40
2458172.5207638889551163
  9
$TDUPDATE
 40
2460202.4568287041038275
  9
$TDINDWG
 40
0.4835655324
  9
$TDUSRTIMER
 40
0.4835655324
  9
$USRTIMER
 70
     1
  9
$ANGBASE
 50
0.0
  9
$ANGDIR
 70
     0
  9
$PDMODE
 70
     0
  9
$PDSIZE
 40
0.3125
  9
$PLINEWID
 40
0.0
  9
$COORDS
 70
     1
  9
$SPLFRAME
 70
     0
  9
$SPLINETYPE
 70
     6
  9
$SPLINESEGS
 70
     8
  9
$ATTDIA
 70
     1
  9
$ATTREQ
 70
     1
  9
$HANDLING
 70
     1
  9
$HANDSEED
  5
DD24
  9
$SURFTAB1
 70
     6
  9
$SURFTAB2
 70
     6
  9
$SURFTYPE
 70
     6
  9
$SURFU
 70
     6
  9
$SURFV
 70
     6
  9
$UCSNAME
  2

  9
$UCSORG
 10
0.0
 20
0.0
 30
0.0
  9
$UCSXDIR
 10
1.0
 20
0.0
 30
0.0
  9
$UCSYDIR
 10
0.0
 20
1.0
 30
0.0
  9
$PUCSNAME
  2

  9
$PUCSORG
 10
0.0
 20
0.0
 30
0.0
  9
$PUCSXDIR
 10
1.0
 20
0.0
 30
0.0
  9
$PUCSYDIR
 10
0.0
 20
1.0
 30
0.0
  9
$USERI1
 70
     0
  9
$USERI2
 70
     0
  9
$USERI3
 70
     0
  9
$USERI4
 70
     0
  9
$USERI5
 70
     0
  9
$USERR1
 40
0.0
  9
$USERR2
 40
0.0
  9
$USERR3
 40
0.0
  9
$USERR4
 40
0.0
  9
$USERR5
 40
0.0
  9
$WORLDVIEW
 70
     1
  9
$SHADEDGE
 70
     3
  9
$SHADEDIF
 70
    70
  9
$TILEMODE
 70
     1
  9
$MAXACTVP
 70
    64
  9
$PLIMCHECK
 70
     0
  9
$PEXTMIN
 10
1.0000000000000000E+20
 20
1.0000000000000000E+20
 30
1.0000000000000000E+20
  9
$PEXTMAX
 10
-1.0000000000000000E+20
 20
-1.0000000000000000E+20
 30
-1.0000000000000000E+20
  9
$PLIMMIN
 10
0.0
 20
0.0
  9
$PLIMMAX
 10
12.0
 20
9.0
  9
$UNITMODE
 70
     0
  9
$VISRETAIN
 70
     1
  9
$PLINEGEN
 70
     0
  9
$PSLTSCALE
 70
     1
  0
ENDSEC
  0
SECTION
  2
TABLES
  0
TABLE
  2
VPORT
 70
     1
  0
VPORT
  2
*ACTIVE
 70
     0
 10
0.0
 20
0.0
 11
1.0
 21
1.0
 12
530.7551356115993713
 22
56.8236234862543483
 13
0.0
 23
0.0
 14
1.0
 24
1.0
 15
0.0
 25
0.0
 16
0.0
 26
0.0
 36
24.1179433675886514
 17
466.74220170783002
 27
89.133147119929788
 37
0.0
 40
4.6672775794269219
 41
2.2259475218658888
 42
50.0
 43
0.0
 44
0.0
 50
0.0
 51
0.0
 71
     0
 72
   100
 73
     1
 74
     1
 75
     0
 76
     0
 77
     0
 78
     0
  0
ENDTAB
  0
TABLE
  2
LTYPE
 70
     2
  0
LTYPE
  2
CONTINUOUS
 70
     0
  3
Solid line
 72
    65
 73
     0
 40
0.0
  0
LTYPE
  2
PHANTOM2
 70
     0
  3
___ _ _ ___ _ _ ___ _ _ ___ _ _
 72
    65
 73
     6
 40
1.25
 49
0.625
 49
-0.125
 49
0.125
 49
-0.125
 49
0.125
 49
-0.125
  0
ENDTAB
  0
TABLE
  2
LAYER
 70
     2
  0
LAYER
  2
0
 70
     0
 62
   255
  6
CONTINUOUS
  0
LAYER
  2
DEFPOINTS
 70
     0
 62
     7
  6
CONTINUOUS
  0
ENDTAB
  0
TABLE
  2
STYLE
 70
     1
  0
STYLE
  2
STANDARD
 70
     0
 40
0.0
 41
0.8
 50
0.0
 71
     0
 42
0.2
  3
txt
  4

  0
ENDTAB
  0
TABLE
  2
VIEW
 70
     0
  0
ENDTAB
  0
TABLE
  2
UCS
 70
     0
  0
ENDTAB
  0
TABLE
  2
APPID
 70
    11
  0
APPID
  2
ACAD
 70
     0
  0
APPID
  2
ACAD_MLEADERVER
 70
     0
  0
APPID
  2
ACAD_EXEMPT_FROM_CAD_STANDARDS
 70
     0
  0
APPID
  2
ACAD_DSTYLE_DIMJAG
 70
     0
  0
APPID
  2
ACAD_DSTYLE_DIMTALN
 70
     0
  0
APPID
  2
ACAD_NAV_VCDISPLAY
 70
     0
  0
APPID
  2
ACAECLAYERSTANDARD
 70
     0
  0
APPID
  2
ACCMTRANSPARENCY
 70
     0
  0
APPID
  2
DCO15
 70
     0
  0
APPID
  2
ACDBATTR
 70
     0
  0
APPID
  2
ACADANNOTATIVE
 70
     0
  0
ENDTAB
  0
TABLE
  2
DIMSTYLE
 70
     1
  0
DIMSTYLE
  2
STANDARD
 70
     0
  3

  4

  5

  6

  7

 40
1.0
 41
0.1875
 42
0.0625
 43
0.38
 44
0.125
 45
0.0
 46
0.0
 47
0.01
 48
0.01
140
0.15625
141
0.09
142
0.0
143
25.3999999999999986
144
1.0
145
0.0
146
1.0
147
0.09
 71
     1
 72
     0
 73
     1
 74
     1
 75
     0
 76
     0
 77
     0
 78
     4
170
     0
171
     2
172
     0
173
     0
174
     0
175
     0
176
     0
177
     0
178
     0
  0
ENDTAB
  0
ENDSEC
  0
SECTION
  2
BLOCKS
  0
BLOCK
  8
0
  2
$MODEL_SPACE
 70
     0
 10
0.0
 20
0.0
 30
0.0
  3
$MODEL_SPACE
  1

  0
ENDBLK
  5
21
  8
0
  0
BLOCK
 67
     1
  8
0
  2
$PAPER_SPACE
 70
     0
 10
0.0
 20
0.0
 30
0.0
  3
$PAPER_SPACE
  1

  0
ENDBLK
  5
1D
 67
     1
  8
0
  0
BLOCK
  8
0
  2
_FILLED
 70
     0
 10
0.0
 20
0.0
 30
0.0
  3
_FILLED
  1

  0
SOLID
  5
D83A
  8
0
  6
BYBLOCK
 62
     0
 10
0.0
 20
0.0
 30
0.0
 11
-1.0
 21
0.1666666667
 31
0.0
 12
-1.0
 22
-0.1666666667
 32
0.0
 13
-1.0
 23
-0.1666666667
 33
0.0
  0
ENDBLK
  5
D83B
  8
0
  6
BYBLOCK
 62
     0
  0
ENDSEC
  0
SECTION
  2
ENTITIES
  0
ATTDEF
  5
D944
  8
DEFPOINTS
 10
995.5091398755015462
 20
147.1287634949154892
 30
0.0
 40
0.001
  1
P34124-00
  3

  2
MODELNUMBER
 70
     0
1001
ACDBATTR
1070
     0
1070
     1
  0
ATTDEF
  5
D945
  8
DEFPOINTS
 10
995.5091398755015462
 20
147.1270968282489093
 30
0.0
 40
0.001
  1
002
  3

  2
TRADENAME
 70
     0
1001
ACDBATTR
1070
     0
1070
     1
  0
ATTDEF
  5
D946
  8
DEFPOINTS
 10
995.5091398755015462
 20
147.1254301615821873
 30
0.0
 40
0.001
  1
BATHROOM SINK FAUCET
  3

  2
PRODUCT
 70
     0
1001
ACDBATTR
1070
     0
1070
     1
  0
ARC
  5
DB7C
  8
0
 10
995.7201494900031093
 20
147.4785846481551062
 30
0.0
 40
1.0186675561280329
 50
181.8525062070359866
 51
235.8149863420669021
  0
ARC
  5
DB7D
  8
0
 10
994.7419090236733155
 20
147.446266990113088
 30
0.0
 40
0.0398993905571926
 50
103.6933675719635062
 51
180.879591618364401
  0
ARC
  5
DB7E
  8
0
 10
995.514875851346801
 20
147.4969717025940952
 30
0.0
 40
0.7241356712766536
 50
182.5827369465133927
 51
269.5190683262781022
  0
ARC
  5
DB7F
  8
0
 10
994.830789424888053
 20
147.4661914753949929
 30
0.0
 40
0.0393572025778783
 50
101.4682249748856009
 51
182.6953299778284929
  0
ARC
  5
DB80
  8
0
 10
995.5087682751052398
 20
144.1432194209833142
 30
0.0
 40
3.430787851038831
 50
89.9995429180797544
 51
95.6550196910125123
  0
ARC
  5
DB81
  8
0
 10
995.5086790790123814
 20
144.1438425031743122
 30
0.0
 40
3.4301590120984748
 50
95.6545626090987042
 51
101.5315553236585941
  0
ARC
  5
DB82
  8
0
 10
995.5142026982723564
 20
144.1167693760527015
 30
0.0
 40
3.457789874949091
 50
101.5315553236585941
 51
103.0664239366613941
  0
ARC
  5
DB83
  8
0
 10
995.5100980512688693
 20
147.619857427915008
 30
0.0
 40
1.0272119050219271
 50
262.2801220807979803
 51
277.5849763625362812
  0
ARC
  5
DB84
  8
0
 10
995.5093522324141304
 20
146.9863250365048941
 30
0.0
 40
0.4081355575779479
 50
250.3508421345634929
 51
289.5142563089265764
  0
ARC
  5
DB85
  8
0
 10
996.276546028894245
 20
147.4469349080995073
 30
0.0
 40
0.039051922030394
 50
358.1210701103045153
 51
77.3059706993651616
  0
ARC
  5
DB86
  8
0
 10
995.5027188875079673
 20
147.4969680886933929
 30
0.0
 40
0.7241320620945244
 50
270.4809773488469773
 51
357.4175364067928058
  0
ARC
  5
DB87
  8
0
 10
996.1868018641216622
 20
147.4661914753949929
 30
0.0
 40
0.0393572025778783
 50
357.304670022169887
 51
78.5317750251144133
  0
ARC
  5
DB88
  8
0
 10
995.5088230139044754
 20
144.1432194209833142
 30
0.0
 40
3.430787851038831
 50
84.3449803089874877
 51
90.0004570819202456
  0
ARC
  5
DB89
  8
0
 10
995.5089122099974475
 20
144.1438425031743122
 30
0.0
 40
3.4301590120984748
 50
78.4684446763414201
 51
84.3454373909012958
  0
ARC
  5
DB8A
  8
0
 10
995.5033885907373588
 20
144.1167693760527015
 30
0.0
 40
3.457789874949091
 50
76.9335760633385348
 51
78.4684446763414201
  0
ARC
  5
DB8B
  8
0
 10
995.5245486152589365
 20
147.2028542149342059
 30
0.0
 40
0.6807088549461561
 50
236.394309585280098
 51
268.6741104004751719
  0
ARC
  5
DB8C
  8
0
 10
995.2974456582834364
 20
147.4785796984569117
 30
0.0
 40
1.018663538872161
 50
304.1851764806716005
 51
358.1477650312068022
  0
ARC
  5
DB8D
  8
0
 10
995.4930466705457093
 20
147.2028542149342059
 30
0.0
 40
0.6807088549461561
 50
271.3258895995248281
 51
303.6056904147197884
  0
CIRCLE
  5
DB8E
  8
0
 10
995.5088055194447634
 20
147.124165233717207
 30
0.0
 40
1.1417322834999999
  0
ARC
  5
DB8F
  8
0
 10
999.509058887347237
 20
147.1233008278161947
 30
0.0
 40
0.8267708492225994
 50
354.5247770922787254
 51
185.0297056192341927
  0
ARC
  5
DB90
  8
0
 10
965.864194701125939
 20
146.6302555643027006
 30
0.0
 40
32.8239712664940981
 50
0.0814243369736084
 51
0.7341280166157428
  0
ARC
  5
DB91
  8
0
 10
223.6897409522692044
 20
145.5755338376671091
 30
0.0
 40
774.9991744600085894
 50
359.9185756630263882
 51
0.0814243369736084
  0
ARC
  5
DB92
  8
0
 10
999.5087675176946505
 20
144.4729990102792101
 30
0.0
 40
0.8206355242234824
 50
179.9185756630263029
 51
0.0814243369736084
  0
ARC
  5
DB93
  8
0
 10
1612.1783533138450366
 20
145.3436782961586005
 30
0.0
 40
611.8495689431106257
 50
179.8505354128315048
 51
180.0814243369736118
  0
ARC
  5
DB94
  8
0
 10
1006.2920055510900283
 20
146.9242267942831006
 30
0.0
 40
5.9611596309298163
 50
178.8447381474971962
 51
179.8505354128315048
  0
ARC
  5
DB95
  8
0
 10
999.5088055194446497
 20
147.124165233717207
 30
0.0
 40
0.8366141732000002
 50
349.3259881402227052
 51
190.5751387922146023
  0
ARC
  5
DB96
  8
0
 10
999.5088055194446497
 20
147.124165233717207
 30
0.0
 40
1.1417322834999999
 50
315.9625337698665248
 51
224.0748023048537902
  0
LINE
  5
DB97
  8
0
 10
994.8072250371469636
 20
147.4977146260171139
 30
0.0
 11
996.2103662518627516
 21
147.4977146260171139
 31
0.0
  0
ENDSEC
  0
EOF
